ISO-10303-21;
HEADER;
FILE_DESCRIPTION (( 'STEP AP214' ),
    '1' );
FILE_NAME ('01497.STEP',
    '2023-06-22T14:34:26',
    ( '' ),
    ( '' ),
    'SwSTEP 2.0',
    'SolidWorks 2023',
    '' );
FILE_SCHEMA (( 'AUTOMOTIVE_DESIGN' ));
ENDSEC;

DATA;
#1 = FACE_OUTER_BOUND ( 'NONE', #220, .T. ) ;
#2 = DIRECTION ( 'NONE',  ( -6.123233995736763571E-17, 1.000000000000000000, -0.000000000000000000 ) ) ;
#3 = CLOSED_SHELL ( 'NONE', ( #29, #167, #268, #50 ) ) ;
#4 = STYLED_ITEM ( 'NONE', ( #97 ), #198 ) ;
#5 = FACE_OUTER_BOUND ( 'NONE', #34, .T. ) ;
#6 = ORIENTED_EDGE ( 'NONE', *, *, #49, .T. ) ;
#7 = EDGE_CURVE ( 'NONE', #157, #18, #180, .T. ) ;
#8 = DIMENSIONAL_EXPONENTS ( 1.000000000000000000, 0.000000000000000000, 0.000000000000000000, 0.000000000000000000, 0.000000000000000000, 0.000000000000000000, 0.000000000000000000 ) ;
#9 = CARTESIAN_POINT ( 'NONE',  ( -1.224646799147352714E-16, 4.000000000000000000, 0.000000000000000000 ) ) ;
#10 = DIRECTION ( 'NONE',  ( 0.000000000000000000, 1.000000000000000000, 0.000000000000000000 ) ) ;
#11 = ORIENTED_EDGE ( 'NONE', *, *, #137, .F. ) ;
#12 = DIRECTION ( 'NONE',  ( 0.000000000000000000, 0.000000000000000000, -1.000000000000000000 ) ) ;
#13 = DIMENSIONAL_EXPONENTS ( 1.000000000000000000, 0.000000000000000000, 0.000000000000000000, 0.000000000000000000, 0.000000000000000000, 0.000000000000000000, 0.000000000000000000 ) ;
#14 =( NAMED_UNIT ( * ) PLANE_ANGLE_UNIT ( ) SI_UNIT ( $, .RADIAN. ) );
#15 = CYLINDRICAL_SURFACE ( 'NONE', #145, 0.2500000000000000000 ) ;
#16 = EDGE_CURVE ( 'NONE', #291, #154, #140, .T. ) ;
#17 =( GEOMETRIC_REPRESENTATION_CONTEXT ( 3 ) GLOBAL_UNCERTAINTY_ASSIGNED_CONTEXT ( ( #100 ) ) GLOBAL_UNIT_ASSIGNED_CONTEXT ( ( #297, #86, #292 ) ) REPRESENTATION_CONTEXT ( 'NONE', 'WORKASPACE' ) );
#18 = VERTEX_POINT ( 'NONE', #159 ) ;
#19 =( NAMED_UNIT ( * ) PLANE_ANGLE_UNIT ( ) SI_UNIT ( $, .RADIAN. ) );
#20 = FILL_AREA_STYLE ('',( #181 ) ) ;
#21 =( LENGTH_UNIT ( ) NAMED_UNIT ( * ) SI_UNIT ( $, .METRE. ) );
#22 = UNCERTAINTY_MEASURE_WITH_UNIT (LENGTH_MEASURE( 1.000000000000000082E-05 ), #35, 'distance_accuracy_value', 'NONE');
#23 = ORIENTED_EDGE ( 'NONE', *, *, #189, .F. ) ;
#24 = APPLICATION_PROTOCOL_DEFINITION ( 'draft international standard', 'automotive_design', 1998, #155 ) ;
#25 = STYLED_ITEM ( 'NONE', ( #144 ), #167 ) ;
#26 = SURFACE_SIDE_STYLE ('',( #213 ) ) ;
#27 = PLANE ( 'NONE',  #89 ) ;
#28 = DIRECTION ( 'NONE',  ( 1.000000000000000000, 0.000000000000000000, 0.000000000000000000 ) ) ;
#29 = ADVANCED_FACE ( 'NONE', ( #82 ), #15, .T. ) ;
#30 = DIRECTION ( 'NONE',  ( -6.123233995736763571E-17, 1.000000000000000000, -0.000000000000000000 ) ) ;
#31 = CYLINDRICAL_SURFACE ( 'NONE', #130, 0.2500000000000000000 ) ;
#32 = COLOUR_RGB ( '',0.7921568627450980005, 0.8196078431372548767, 0.9333333333333333481 ) ;
#33 = DIRECTION ( 'NONE',  ( -0.000000000000000000, -1.000000000000000000, -0.000000000000000000 ) ) ;
#34 = EDGE_LOOP ( 'NONE', ( #77, #83, #171, #288 ) ) ;
#35 =( CONVERSION_BASED_UNIT ( 'INCH', #247 ) LENGTH_UNIT ( ) NAMED_UNIT ( #275 ) );
#36 = PRESENTATION_LAYER_ASSIGNMENT (  '', '', ( #25 ) ) ;
#37 = CARTESIAN_POINT ( 'NONE',  ( 0.000000000000000000, 0.000000000000000000, 0.000000000000000000 ) ) ;
#38 = EDGE_CURVE ( 'NONE', #151, #291, #135, .T. ) ;
#39 = DIRECTION ( 'NONE',  ( 0.000000000000000000, 0.000000000000000000, -1.000000000000000000 ) ) ;
#40 = FILL_AREA_STYLE ('',( #257 ) ) ;
#41 = AXIS2_PLACEMENT_3D ( 'NONE', #217, #241, #188 ) ;
#42 = AXIS2_PLACEMENT_3D ( 'NONE', #243, #194, #224 ) ;
#43 = DIRECTION ( 'NONE',  ( -1.000000000000000000, 0.000000000000000000, 0.000000000000000000 ) ) ;
#44 = SURFACE_SIDE_STYLE ('',( #85 ) ) ;
#45 = CARTESIAN_POINT ( 'NONE',  ( 0.000000000000000000, 0.000000000000000000, 0.000000000000000000 ) ) ;
#46 = AXIS2_PLACEMENT_3D ( 'NONE', #108, #134, #43 ) ;
#47 = FACE_OUTER_BOUND ( 'NONE', #173, .T. ) ;
#48 = CARTESIAN_POINT ( 'NONE',  ( 0.000000000000000000, 0.000000000000000000, -0.2500000000000000000 ) ) ;
#49 = EDGE_CURVE ( 'NONE', #51, #64, #262, .T. ) ;
#50 = ADVANCED_FACE ( 'NONE', ( #90 ), #183, .T. ) ;
#51 = VERTEX_POINT ( 'NONE', #92 ) ;
#52 = ORIENTED_EDGE ( 'NONE', *, *, #282, .F. ) ;
#53 =( GEOMETRIC_REPRESENTATION_CONTEXT ( 3 ) GLOBAL_UNCERTAINTY_ASSIGNED_CONTEXT ( ( #283 ) ) GLOBAL_UNIT_ASSIGNED_CONTEXT ( ( #73, #172, #126 ) ) REPRESENTATION_CONTEXT ( 'NONE', 'WORKASPACE' ) );
#54 = APPLICATION_CONTEXT ( 'automotive_design' ) ;
#55 = DIMENSIONAL_EXPONENTS ( 1.000000000000000000, 0.000000000000000000, 0.000000000000000000, 0.000000000000000000, 0.000000000000000000, 0.000000000000000000, 0.000000000000000000 ) ;
#56 =( NAMED_UNIT ( * ) SI_UNIT ( $, .STERADIAN. ) SOLID_ANGLE_UNIT ( ) );
#57 = DIRECTION ( 'NONE',  ( 0.000000000000000000, 0.000000000000000000, -1.000000000000000000 ) ) ;
#58 = AXIS2_PLACEMENT_3D ( 'NONE', #272, #158, #57 ) ;
#59 =( CONVERSION_BASED_UNIT ( 'INCH', #81 ) LENGTH_UNIT ( ) NAMED_UNIT ( #250 ) );
#60 = DIRECTION ( 'NONE',  ( -6.123233995736763571E-17, 1.000000000000000000, -0.000000000000000000 ) ) ;
#61 = SURFACE_STYLE_USAGE ( .BOTH. , #44 ) ;
#62 = ORIENTED_EDGE ( 'NONE', *, *, #286, .T. ) ;
#63 = ADVANCED_FACE ( 'NONE', ( #117 ), #210, .F. ) ;
#64 = VERTEX_POINT ( 'NONE', #48 ) ;
#65 = ORIENTED_EDGE ( 'NONE', *, *, #16, .T. ) ;
#66 = DIRECTION ( 'NONE',  ( -6.123233995736763571E-17, 1.000000000000000000, -0.000000000000000000 ) ) ;
#67 = AXIS2_PLACEMENT_3D ( 'NONE', #147, #186, #214 ) ;
#68 =( NAMED_UNIT ( * ) SI_UNIT ( $, .STERADIAN. ) SOLID_ANGLE_UNIT ( ) );
#69 = AXIS2_PLACEMENT_3D ( 'NONE', #175, #60, #274 ) ;
#70 =( CONVERSION_BASED_UNIT ( 'INCH', #237 ) LENGTH_UNIT ( ) NAMED_UNIT ( #160 ) );
#71 = EDGE_CURVE ( 'NONE', #64, #51, #265, .T. ) ;
#72 = FACE_OUTER_BOUND ( 'NONE', #153, .T. ) ;
#73 =( CONVERSION_BASED_UNIT ( 'INCH', #245 ) LENGTH_UNIT ( ) NAMED_UNIT ( #8 ) );
#74 = ORIENTED_EDGE ( 'NONE', *, *, #137, .T. ) ;
#75 = PRODUCT_DEFINITION_CONTEXT ( 'detailed design', #54, 'design' ) ;
#76 = FILL_AREA_STYLE_COLOUR ( '', #215 ) ;
#77 = ORIENTED_EDGE ( 'NONE', *, *, #170, .F. ) ;
#78 = DIRECTION ( 'NONE',  ( -0.000000000000000000, -1.000000000000000000, -0.000000000000000000 ) ) ;
#79 = PRODUCT ( '01497', '01497', '', ( #258 ) ) ;
#80 = ADVANCED_FACE ( 'NONE', ( #47 ), #285, .T. ) ;
#81 = LENGTH_MEASURE_WITH_UNIT ( LENGTH_MEASURE( 0.02539999999999999897 ), #174 );
#82 = FACE_OUTER_BOUND ( 'NONE', #195, .T. ) ;
#83 = ORIENTED_EDGE ( 'NONE', *, *, #7, .T. ) ;
#84 = ADVANCED_BREP_SHAPE_REPRESENTATION ( '01497', ( #308, #198, #96 ), #202 ) ;
#85 = SURFACE_STYLE_FILL_AREA ( #20 ) ;
#86 =( NAMED_UNIT ( * ) PLANE_ANGLE_UNIT ( ) SI_UNIT ( $, .RADIAN. ) );
#87 = LENGTH_MEASURE_WITH_UNIT ( LENGTH_MEASURE( 0.02539999999999999897 ), #161 );
#88 = VECTOR ( 'NONE', #236, 39.37007874015748143 ) ;
#89 = AXIS2_PLACEMENT_3D ( 'NONE', #290, #10, #104 ) ;
#90 = FACE_OUTER_BOUND ( 'NONE', #179, .T. ) ;
#91 = DIRECTION ( 'NONE',  ( 0.000000000000000000, 0.000000000000000000, -1.000000000000000000 ) ) ;
#92 = CARTESIAN_POINT ( 'NONE',  ( 3.061616997868383018E-17, 0.000000000000000000, 0.2500000000000000000 ) ) ;
#93 = AXIS2_PLACEMENT_3D ( 'NONE', #141, #260, #91 ) ;
#94 = SURFACE_STYLE_FILL_AREA ( #307 ) ;
#95 =( LENGTH_UNIT ( ) NAMED_UNIT ( * ) SI_UNIT ( $, .METRE. ) );
#96 = AXIS2_PLACEMENT_3D ( 'NONE', #164, #142, #28 ) ;
#97 = PRESENTATION_STYLE_ASSIGNMENT (( #169 ) ) ;
#98 = FILL_AREA_STYLE_COLOUR ( '', #32 ) ;
#99 = PRODUCT_RELATED_PRODUCT_CATEGORY ( 'part', '', ( #79 ) ) ;
#100 = UNCERTAINTY_MEASURE_WITH_UNIT (LENGTH_MEASURE( 1.000000000000000082E-05 ), #297, 'distance_accuracy_value', 'NONE');
#101 = SURFACE_SIDE_STYLE ('',( #266 ) ) ;
#102 = DIRECTION ( 'NONE',  ( -1.000000000000000000, 0.000000000000000000, 0.000000000000000000 ) ) ;
#103 = PRESENTATION_LAYER_ASSIGNMENT (  '', '', ( #182 ) ) ;
#104 = DIRECTION ( 'NONE',  ( 0.000000000000000000, -0.000000000000000000, 1.000000000000000000 ) ) ;
#105 = DIRECTION ( 'NONE',  ( -0.000000000000000000, -1.000000000000000000, -0.000000000000000000 ) ) ;
#106 = ORIENTED_EDGE ( 'NONE', *, *, #170, .T. ) ;
#107 = DIMENSIONAL_EXPONENTS ( 1.000000000000000000, 0.000000000000000000, 0.000000000000000000, 0.000000000000000000, 0.000000000000000000, 0.000000000000000000, 0.000000000000000000 ) ;
#108 = CARTESIAN_POINT ( 'NONE',  ( 1.516480271171051896E-32, 2.000000000000000000, 0.000000000000000000 ) ) ;
#109 = DIRECTION ( 'NONE',  ( -0.000000000000000000, -1.000000000000000000, -0.000000000000000000 ) ) ;
#110 = LENGTH_MEASURE_WITH_UNIT ( LENGTH_MEASURE( 0.02539999999999999897 ), #21 );
#111 = SURFACE_STYLE_USAGE ( .BOTH. , #26 ) ;
#112 = FILL_AREA_STYLE_COLOUR ( '', #146 ) ;
#113 = CARTESIAN_POINT ( 'NONE',  ( 0.2500000000000000555, 2.000000000000000000, 3.061616997868384251E-17 ) ) ;
#114 = AXIS2_PLACEMENT_3D ( 'NONE', #139, #109, #12 ) ;
#115 = CIRCLE ( 'NONE', #46, 0.2500000000000000000 ) ;
#116 = CIRCLE ( 'NONE', #69, 0.2500000000000001110 ) ;
#117 = FACE_OUTER_BOUND ( 'NONE', #233, .T. ) ;
#118 = UNCERTAINTY_MEASURE_WITH_UNIT (LENGTH_MEASURE( 1.000000000000000082E-05 ), #253, 'distance_accuracy_value', 'NONE');
#119 = CARTESIAN_POINT ( 'NONE',  ( -0.2500000000000002776, 4.000000000000000000, 0.000000000000000000 ) ) ;
#120 = COLOUR_RGB ( '',1.000000000000000000, 0.000000000000000000, 0.000000000000000000 ) ;
#121 = AXIS2_PLACEMENT_3D ( 'NONE', #162, #66, #284 ) ;
#122 = LINE ( 'NONE', #223, #190 ) ;
#123 = ORIENTED_EDGE ( 'NONE', *, *, #127, .F. ) ;
#124 = FACE_OUTER_BOUND ( 'NONE', #246, .T. ) ;
#125 = ORIENTED_EDGE ( 'NONE', *, *, #7, .F. ) ;
#126 =( NAMED_UNIT ( * ) SI_UNIT ( $, .STERADIAN. ) SOLID_ANGLE_UNIT ( ) );
#127 = EDGE_CURVE ( 'NONE', #276, #154, #304, .T. ) ;
#128 =( NAMED_UNIT ( * ) PLANE_ANGLE_UNIT ( ) SI_UNIT ( $, .RADIAN. ) );
#129 = AXIS2_PLACEMENT_3D ( 'NONE', #296, #303, #273 ) ;
#130 = AXIS2_PLACEMENT_3D ( 'NONE', #37, #299, #39 ) ;
#131 = CARTESIAN_POINT ( 'NONE',  ( 0.2500000000000000555, 4.000000000000000000, 3.061616997868384251E-17 ) ) ;
#132 = CARTESIAN_POINT ( 'NONE',  ( -1.224646799147352714E-16, 4.000000000000000000, 0.000000000000000000 ) ) ;
#133 = PRESENTATION_STYLE_ASSIGNMENT (( #61 ) ) ;
#134 = DIRECTION ( 'NONE',  ( -6.123233995736763571E-17, 1.000000000000000000, -0.000000000000000000 ) ) ;
#135 = LINE ( 'NONE', #234, #88 ) ;
#136 = VECTOR ( 'NONE', #281, 39.37007874015748143 ) ;
#137 = EDGE_CURVE ( 'NONE', #151, #276, #270, .T. ) ;
#138 = SURFACE_SIDE_STYLE ('',( #206 ) ) ;
#139 = CARTESIAN_POINT ( 'NONE',  ( 0.000000000000000000, 2.000000000000000000, 0.000000000000000000 ) ) ;
#140 = CIRCLE ( 'NONE', #278, 0.2500000000000001110 ) ;
#141 = CARTESIAN_POINT ( 'NONE',  ( 0.000000000000000000, 0.000000000000000000, 0.000000000000000000 ) ) ;
#142 = DIRECTION ( 'NONE',  ( 0.000000000000000000, 0.000000000000000000, 1.000000000000000000 ) ) ;
#143 =( NAMED_UNIT ( * ) PLANE_ANGLE_UNIT ( ) SI_UNIT ( $, .RADIAN. ) );
#144 = PRESENTATION_STYLE_ASSIGNMENT (( #261 ) ) ;
#145 = AXIS2_PLACEMENT_3D ( 'NONE', #45, #105, #203 ) ;
#146 = COLOUR_RGB ( '',1.000000000000000000, 0.000000000000000000, 0.000000000000000000 ) ;
#147 = CARTESIAN_POINT ( 'NONE',  ( 0.2500000000000000000, 4.000000000000000000, 0.000000000000000000 ) ) ;
#148 = CARTESIAN_POINT ( 'NONE',  ( 3.061616997868383018E-17, 0.000000000000000000, 0.2500000000000000000 ) ) ;
#149 = PLANE ( 'NONE',  #42 ) ;
#150 = VECTOR ( 'NONE', #33, 39.37007874015748143 ) ;
#151 = VERTEX_POINT ( 'NONE', #113 ) ;
#152 = SURFACE_SIDE_STYLE ('',( #242 ) ) ;
#153 = EDGE_LOOP ( 'NONE', ( #293, #11 ) ) ;
#154 = VERTEX_POINT ( 'NONE', #119 ) ;
#155 = APPLICATION_CONTEXT ( 'automotive_design' ) ;
#156 =( GEOMETRIC_REPRESENTATION_CONTEXT ( 3 ) GLOBAL_UNCERTAINTY_ASSIGNED_CONTEXT ( ( #259 ) ) GLOBAL_UNIT_ASSIGNED_CONTEXT ( ( #252, #230, #200 ) ) REPRESENTATION_CONTEXT ( 'NONE', 'WORKASPACE' ) );
#157 = VERTEX_POINT ( 'NONE', #239 ) ;
#158 = DIRECTION ( 'NONE',  ( -0.000000000000000000, -1.000000000000000000, -0.000000000000000000 ) ) ;
#159 = CARTESIAN_POINT ( 'NONE',  ( 0.000000000000000000, 2.000000000000000000, -0.2500000000000000000 ) ) ;
#160 = DIMENSIONAL_EXPONENTS ( 1.000000000000000000, 0.000000000000000000, 0.000000000000000000, 0.000000000000000000, 0.000000000000000000, 0.000000000000000000, 0.000000000000000000 ) ;
#161 =( LENGTH_UNIT ( ) NAMED_UNIT ( * ) SI_UNIT ( $, .METRE. ) );
#162 = CARTESIAN_POINT ( 'NONE',  ( 1.516480271171051896E-32, 2.000000000000000000, 0.000000000000000000 ) ) ;
#163 = AXIS2_PLACEMENT_3D ( 'NONE', #9, #2, #102 ) ;
#164 = CARTESIAN_POINT ( 'NONE',  ( 0.000000000000000000, 0.000000000000000000, 0.000000000000000000 ) ) ;
#165 = SURFACE_SIDE_STYLE ('',( #94 ) ) ;
#166 = PRESENTATION_LAYER_ASSIGNMENT (  '', '', ( #301 ) ) ;
#167 = ADVANCED_FACE ( 'NONE', ( #1 ), #27, .T. ) ;
#168 = MECHANICAL_DESIGN_GEOMETRIC_PRESENTATION_REPRESENTATION (  '', ( #289 ), #156 ) ;
#169 = SURFACE_STYLE_USAGE ( .BOTH. , #152 ) ;
#170 = EDGE_CURVE ( 'NONE', #157, #51, #196, .T. ) ;
#171 = ORIENTED_EDGE ( 'NONE', *, *, #189, .T. ) ;
#172 =( NAMED_UNIT ( * ) PLANE_ANGLE_UNIT ( ) SI_UNIT ( $, .RADIAN. ) );
#173 = EDGE_LOOP ( 'NONE', ( #62, #177, #52, #123 ) ) ;
#174 =( LENGTH_UNIT ( ) NAMED_UNIT ( * ) SI_UNIT ( $, .METRE. ) );
#175 = CARTESIAN_POINT ( 'NONE',  ( -1.224646799147352714E-16, 4.000000000000000000, 0.000000000000000000 ) ) ;
#176 = CIRCLE ( 'NONE', #58, 0.2500000000000000000 ) ;
#177 = ORIENTED_EDGE ( 'NONE', *, *, #38, .T. ) ;
#178 =( NAMED_UNIT ( * ) SI_UNIT ( $, .STERADIAN. ) SOLID_ANGLE_UNIT ( ) );
#179 = EDGE_LOOP ( 'NONE', ( #256, #6 ) ) ;
#180 = CIRCLE ( 'NONE', #114, 0.2500000000000000000 ) ;
#181 = FILL_AREA_STYLE_COLOUR ( '', #221 ) ;
#182 = STYLED_ITEM ( 'NONE', ( #199 ), #308 ) ;
#183 = PLANE ( 'NONE',  #93 ) ;
#184 = DIRECTION ( 'NONE',  ( -1.000000000000000000, 0.000000000000000000, 0.000000000000000000 ) ) ;
#185 = SHAPE_DEFINITION_REPRESENTATION ( #204, #84 ) ;
#186 = DIRECTION ( 'NONE',  ( 6.123233995736763571E-17, -1.000000000000000000, 0.000000000000000000 ) ) ;
#187 = MECHANICAL_DESIGN_GEOMETRIC_PRESENTATION_REPRESENTATION (  '', ( #4 ), #53 ) ;
#188 = DIRECTION ( 'NONE',  ( 0.000000000000000000, 0.000000000000000000, -1.000000000000000000 ) ) ;
#189 = EDGE_CURVE ( 'NONE', #18, #64, #122, .T. ) ;
#190 = VECTOR ( 'NONE', #78, 39.37007874015748143 ) ;
#191 =( LENGTH_UNIT ( ) NAMED_UNIT ( * ) SI_UNIT ( $, .METRE. ) );
#192 = FILL_AREA_STYLE ('',( #98 ) ) ;
#193 = SURFACE_STYLE_USAGE ( .BOTH. , #101 ) ;
#194 = DIRECTION ( 'NONE',  ( -6.123233995736763571E-17, 1.000000000000000000, 0.000000000000000000 ) ) ;
#195 = EDGE_LOOP ( 'NONE', ( #205, #106, #267, #23 ) ) ;
#196 = LINE ( 'NONE', #148, #150 ) ;
#197 = ORIENTED_EDGE ( 'NONE', *, *, #16, .F. ) ;
#198 = MANIFOLD_SOLID_BREP ( 'Revolve - Tool Body (Straight Shanked)', #294 ) ;
#199 = PRESENTATION_STYLE_ASSIGNMENT (( #271 ) ) ;
#200 =( NAMED_UNIT ( * ) SI_UNIT ( $, .STERADIAN. ) SOLID_ANGLE_UNIT ( ) );
#201 =( GEOMETRIC_REPRESENTATION_CONTEXT ( 3 ) GLOBAL_UNCERTAINTY_ASSIGNED_CONTEXT ( ( #219 ) ) GLOBAL_UNIT_ASSIGNED_CONTEXT ( ( #70, #143, #305 ) ) REPRESENTATION_CONTEXT ( 'NONE', 'WORKASPACE' ) );
#202 =( GEOMETRIC_REPRESENTATION_CONTEXT ( 3 ) GLOBAL_UNCERTAINTY_ASSIGNED_CONTEXT ( ( #118 ) ) GLOBAL_UNIT_ASSIGNED_CONTEXT ( ( #253, #19, #68 ) ) REPRESENTATION_CONTEXT ( 'NONE', 'WORKASPACE' ) );
#203 = DIRECTION ( 'NONE',  ( 0.000000000000000000, 0.000000000000000000, -1.000000000000000000 ) ) ;
#204 = PRODUCT_DEFINITION_SHAPE ( 'NONE', 'NONE',  #306 ) ;
#205 = ORIENTED_EDGE ( 'NONE', *, *, #277, .T. ) ;
#206 = SURFACE_STYLE_FILL_AREA ( #229 ) ;
#207 = DIRECTION ( 'NONE',  ( -1.000000000000000000, 0.000000000000000000, 0.000000000000000000 ) ) ;
#208 = FILL_AREA_STYLE_COLOUR ( '', #222 ) ;
#209 = AXIS2_PLACEMENT_3D ( 'NONE', #279, #30, #184 ) ;
#210 = PLANE ( 'NONE',  #67 ) ;
#211 = APPLICATION_PROTOCOL_DEFINITION ( 'draft international standard', 'automotive_design', 1998, #54 ) ;
#212 = UNCERTAINTY_MEASURE_WITH_UNIT (LENGTH_MEASURE( 1.000000000000000082E-05 ), #59, 'distance_accuracy_value', 'NONE');
#213 = SURFACE_STYLE_FILL_AREA ( #40 ) ;
#214 = DIRECTION ( 'NONE',  ( 1.000000000000000000, 6.123233995736763571E-17, 0.000000000000000000 ) ) ;
#215 = COLOUR_RGB ( '',1.000000000000000000, 0.000000000000000000, 0.000000000000000000 ) ;
#216 = PRESENTATION_STYLE_ASSIGNMENT (( #111 ) ) ;
#217 = CARTESIAN_POINT ( 'NONE',  ( 0.000000000000000000, 0.000000000000000000, 0.000000000000000000 ) ) ;
#218 = ADVANCED_FACE ( 'NONE', ( #124 ), #225, .T. ) ;
#219 = UNCERTAINTY_MEASURE_WITH_UNIT (LENGTH_MEASURE( 1.000000000000000082E-05 ), #70, 'distance_accuracy_value', 'NONE');
#220 = EDGE_LOOP ( 'NONE', ( #249, #125 ) ) ;
#221 = COLOUR_RGB ( '',1.000000000000000000, 0.000000000000000000, 0.000000000000000000 ) ;
#222 = COLOUR_RGB ( '',0.7921568627450980005, 0.8196078431372548767, 0.9333333333333333481 ) ;
#223 = CARTESIAN_POINT ( 'NONE',  ( 0.000000000000000000, 0.000000000000000000, -0.2500000000000000000 ) ) ;
#224 = DIRECTION ( 'NONE',  ( -1.000000000000000000, -6.123233995736763571E-17, 0.000000000000000000 ) ) ;
#225 = CYLINDRICAL_SURFACE ( 'NONE', #163, 0.2500000000000000555 ) ;
#226 = ORIENTED_EDGE ( 'NONE', *, *, #38, .F. ) ;
#227 = PRESENTATION_LAYER_ASSIGNMENT (  '', '', ( #289 ) ) ;
#228 = FILL_AREA_STYLE ('',( #76 ) ) ;
#229 = FILL_AREA_STYLE ('',( #208 ) ) ;
#230 =( NAMED_UNIT ( * ) PLANE_ANGLE_UNIT ( ) SI_UNIT ( $, .RADIAN. ) );
#231 = DIRECTION ( 'NONE',  ( -6.123233995736763571E-17, 1.000000000000000000, -0.000000000000000000 ) ) ;
#232 = MECHANICAL_DESIGN_GEOMETRIC_PRESENTATION_REPRESENTATION (  '', ( #301 ), #201 ) ;
#233 = EDGE_LOOP ( 'NONE', ( #298, #65 ) ) ;
#234 = CARTESIAN_POINT ( 'NONE',  ( 0.2499999999999999167, 4.000000000000000000, 3.061616997868383634E-17 ) ) ;
#235 =( LENGTH_UNIT ( ) NAMED_UNIT ( * ) SI_UNIT ( $, .METRE. ) );
#236 = DIRECTION ( 'NONE',  ( -6.123233995736763571E-17, 1.000000000000000000, -0.000000000000000000 ) ) ;
#237 = LENGTH_MEASURE_WITH_UNIT ( LENGTH_MEASURE( 0.02539999999999999897 ), #95 );
#238 =( GEOMETRIC_REPRESENTATION_CONTEXT ( 3 ) GLOBAL_UNCERTAINTY_ASSIGNED_CONTEXT ( ( #212 ) ) GLOBAL_UNIT_ASSIGNED_CONTEXT ( ( #59, #14, #178 ) ) REPRESENTATION_CONTEXT ( 'NONE', 'WORKASPACE' ) );
#239 = CARTESIAN_POINT ( 'NONE',  ( 3.061616997868383018E-17, 2.000000000000000000, 0.2500000000000000000 ) ) ;
#240 = CARTESIAN_POINT ( 'NONE',  ( -0.2500000000000002220, 4.000000000000000000, 0.000000000000000000 ) ) ;
#241 = DIRECTION ( 'NONE',  ( -0.000000000000000000, -1.000000000000000000, -0.000000000000000000 ) ) ;
#242 = SURFACE_STYLE_FILL_AREA ( #192 ) ;
#243 = CARTESIAN_POINT ( 'NONE',  ( 4.686749320818301603E-34, 2.000000000000000000, 0.000000000000000000 ) ) ;
#244 = MECHANICAL_DESIGN_GEOMETRIC_PRESENTATION_REPRESENTATION (  '', ( #25 ), #295 ) ;
#245 = LENGTH_MEASURE_WITH_UNIT ( LENGTH_MEASURE( 0.02539999999999999897 ), #191 );
#246 = EDGE_LOOP ( 'NONE', ( #226, #74, #300, #197 ) ) ;
#247 = LENGTH_MEASURE_WITH_UNIT ( LENGTH_MEASURE( 0.02539999999999999897 ), #264 );
#248 = ADVANCED_FACE ( 'NONE', ( #72 ), #149, .F. ) ;
#249 = ORIENTED_EDGE ( 'NONE', *, *, #277, .F. ) ;
#250 = DIMENSIONAL_EXPONENTS ( 1.000000000000000000, 0.000000000000000000, 0.000000000000000000, 0.000000000000000000, 0.000000000000000000, 0.000000000000000000, 0.000000000000000000 ) ;
#251 = CARTESIAN_POINT ( 'NONE',  ( -0.2500000000000000000, 2.000000000000000000, 0.000000000000000000 ) ) ;
#252 =( CONVERSION_BASED_UNIT ( 'INCH', #87 ) LENGTH_UNIT ( ) NAMED_UNIT ( #13 ) );
#253 =( CONVERSION_BASED_UNIT ( 'INCH', #269 ) LENGTH_UNIT ( ) NAMED_UNIT ( #55 ) );
#254 = PRESENTATION_LAYER_ASSIGNMENT (  '', '', ( #4 ) ) ;
#255 = PRESENTATION_LAYER_ASSIGNMENT (  '', '', ( #280 ) ) ;
#256 = ORIENTED_EDGE ( 'NONE', *, *, #71, .T. ) ;
#257 = FILL_AREA_STYLE_COLOUR ( '', #120 ) ;
#258 = PRODUCT_CONTEXT ( 'NONE', #155, 'mechanical' ) ;
#259 = UNCERTAINTY_MEASURE_WITH_UNIT (LENGTH_MEASURE( 1.000000000000000082E-05 ), #252, 'distance_accuracy_value', 'NONE');
#260 = DIRECTION ( 'NONE',  ( 0.000000000000000000, -1.000000000000000000, -0.000000000000000000 ) ) ;
#261 = SURFACE_STYLE_USAGE ( .BOTH. , #165 ) ;
#262 = CIRCLE ( 'NONE', #129, 0.2500000000000000000 ) ;
#263 = MECHANICAL_DESIGN_GEOMETRIC_PRESENTATION_REPRESENTATION (  '', ( #280 ), #17 ) ;
#264 =( LENGTH_UNIT ( ) NAMED_UNIT ( * ) SI_UNIT ( $, .METRE. ) );
#265 = CIRCLE ( 'NONE', #41, 0.2500000000000000000 ) ;
#266 = SURFACE_STYLE_FILL_AREA ( #228 ) ;
#267 = ORIENTED_EDGE ( 'NONE', *, *, #71, .F. ) ;
#268 = ADVANCED_FACE ( 'NONE', ( #5 ), #31, .T. ) ;
#269 = LENGTH_MEASURE_WITH_UNIT ( LENGTH_MEASURE( 0.02539999999999999897 ), #235 );
#270 = CIRCLE ( 'NONE', #121, 0.2500000000000000000 ) ;
#271 = SURFACE_STYLE_USAGE ( .BOTH. , #138 ) ;
#272 = CARTESIAN_POINT ( 'NONE',  ( 0.000000000000000000, 2.000000000000000000, 0.000000000000000000 ) ) ;
#273 = DIRECTION ( 'NONE',  ( 0.000000000000000000, 0.000000000000000000, -1.000000000000000000 ) ) ;
#274 = DIRECTION ( 'NONE',  ( -1.000000000000000000, 0.000000000000000000, 0.000000000000000000 ) ) ;
#275 = DIMENSIONAL_EXPONENTS ( 1.000000000000000000, 0.000000000000000000, 0.000000000000000000, 0.000000000000000000, 0.000000000000000000, 0.000000000000000000, 0.000000000000000000 ) ;
#276 = VERTEX_POINT ( 'NONE', #251 ) ;
#277 = EDGE_CURVE ( 'NONE', #18, #157, #176, .T. ) ;
#278 = AXIS2_PLACEMENT_3D ( 'NONE', #132, #231, #207 ) ;
#279 = CARTESIAN_POINT ( 'NONE',  ( -1.224646799147352714E-16, 4.000000000000000000, 0.000000000000000000 ) ) ;
#280 = STYLED_ITEM ( 'NONE', ( #287 ), #268 ) ;
#281 = DIRECTION ( 'NONE',  ( -6.123233995736763571E-17, 1.000000000000000000, -0.000000000000000000 ) ) ;
#282 = EDGE_CURVE ( 'NONE', #154, #291, #116, .T. ) ;
#283 = UNCERTAINTY_MEASURE_WITH_UNIT (LENGTH_MEASURE( 1.000000000000000082E-05 ), #73, 'distance_accuracy_value', 'NONE');
#284 = DIRECTION ( 'NONE',  ( -1.000000000000000000, 0.000000000000000000, 0.000000000000000000 ) ) ;
#285 = CYLINDRICAL_SURFACE ( 'NONE', #209, 0.2500000000000000555 ) ;
#286 = EDGE_CURVE ( 'NONE', #276, #151, #115, .T. ) ;
#287 = PRESENTATION_STYLE_ASSIGNMENT (( #193 ) ) ;
#288 = ORIENTED_EDGE ( 'NONE', *, *, #49, .F. ) ;
#289 = STYLED_ITEM ( 'NONE', ( #133 ), #29 ) ;
#290 = CARTESIAN_POINT ( 'NONE',  ( 0.000000000000000000, 2.000000000000000000, 0.000000000000000000 ) ) ;
#291 = VERTEX_POINT ( 'NONE', #131 ) ;
#292 =( NAMED_UNIT ( * ) SI_UNIT ( $, .STERADIAN. ) SOLID_ANGLE_UNIT ( ) );
#293 = ORIENTED_EDGE ( 'NONE', *, *, #286, .F. ) ;
#294 = CLOSED_SHELL ( 'NONE', ( #80, #248, #218, #63 ) ) ;
#295 =( GEOMETRIC_REPRESENTATION_CONTEXT ( 3 ) GLOBAL_UNCERTAINTY_ASSIGNED_CONTEXT ( ( #22 ) ) GLOBAL_UNIT_ASSIGNED_CONTEXT ( ( #35, #128, #56 ) ) REPRESENTATION_CONTEXT ( 'NONE', 'WORKASPACE' ) );
#296 = CARTESIAN_POINT ( 'NONE',  ( 0.000000000000000000, 0.000000000000000000, 0.000000000000000000 ) ) ;
#297 =( CONVERSION_BASED_UNIT ( 'INCH', #110 ) LENGTH_UNIT ( ) NAMED_UNIT ( #107 ) );
#298 = ORIENTED_EDGE ( 'NONE', *, *, #282, .T. ) ;
#299 = DIRECTION ( 'NONE',  ( -0.000000000000000000, -1.000000000000000000, -0.000000000000000000 ) ) ;
#300 = ORIENTED_EDGE ( 'NONE', *, *, #127, .T. ) ;
#301 = STYLED_ITEM ( 'NONE', ( #216 ), #50 ) ;
#302 = MECHANICAL_DESIGN_GEOMETRIC_PRESENTATION_REPRESENTATION (  '', ( #182 ), #238 ) ;
#303 = DIRECTION ( 'NONE',  ( -0.000000000000000000, -1.000000000000000000, -0.000000000000000000 ) ) ;
#304 = LINE ( 'NONE', #240, #136 ) ;
#305 =( NAMED_UNIT ( * ) SI_UNIT ( $, .STERADIAN. ) SOLID_ANGLE_UNIT ( ) );
#306 = PRODUCT_DEFINITION ( 'UNKNOWN', '', #309, #75 ) ;
#307 = FILL_AREA_STYLE ('',( #112 ) ) ;
#308 = MANIFOLD_SOLID_BREP ( 'Revolve - Cutting Edge', #3 ) ;
#309 = PRODUCT_DEFINITION_FORMATION_WITH_SPECIFIED_SOURCE ( 'ANY', '', #79, .NOT_KNOWN. ) ;
ENDSEC;
END-ISO-10303-21;
