ISO-10303-21;
HEADER;
FILE_DESCRIPTION (( 'STEP AP214' ),
    '1' );
FILE_NAME ('Micro_BMR-011-2.STEP',
    '2021-09-03T13:40:15',
    ( '' ),
    ( '' ),
    'SwSTEP 2.0',
    'SolidWorks 2020',
    '' );
FILE_SCHEMA (( 'AUTOMOTIVE_DESIGN' ));
ENDSEC;

DATA;
#1 = FILL_AREA_STYLE ('',( #43 ) ) ;
#2 = ORIENTED_EDGE ( 'NONE', *, *, #49, .T. ) ;
#3 = DIRECTION ( 'NONE',  ( 0.0000000000000000000, 1.000000000000000000, 0.0000000000000000000 ) ) ;
#4 = DIRECTION ( 'NONE',  ( 0.0000000000000000000, 0.0000000000000000000, 1.000000000000000000 ) ) ;
#5 = CARTESIAN_POINT ( 'NONE',  ( 0.005494500000000005456, 0.0000000000000000000, 0.03300000000000000155 ) ) ;
#6 = DIRECTION ( 'NONE',  ( -1.000000000000000000, 0.0000000000000000000, 0.0000000000000000000 ) ) ;
#7 = CARTESIAN_POINT ( 'NONE',  ( 0.0000000000000000000, 0.0000000000000000000, 1.500000000000000222 ) ) ;
#8 = AXIS2_PLACEMENT_3D ( 'NONE', #164, #57, #210 ) ;
#9 = MECHANICAL_DESIGN_GEOMETRIC_PRESENTATION_REPRESENTATION (  '', ( #25 ), #80 ) ;
#10 = CARTESIAN_POINT ( 'NONE',  ( 4.363346198811338976E-17, 0.0000000000000000000, 0.3562942557682157729 ) ) ;
#11 = LENGTH_MEASURE_WITH_UNIT ( LENGTH_MEASURE( 0.02539999999999999897 ), #243 );
#12 = LINE ( 'NONE', #92, #247 ) ;
#13 = VECTOR ( 'NONE', #161, 39.37007874015748143 ) ;
#14 = CARTESIAN_POINT ( 'NONE',  ( 6.728821837915133930E-19, 0.0000000000000000000, 0.005494500000000000252 ) ) ;
#15 = DIRECTION ( 'NONE',  ( -0.0000000000000000000, -0.0000000000000000000, -1.000000000000000000 ) ) ;
#16 =( LENGTH_UNIT ( ) NAMED_UNIT ( * ) SI_UNIT ( $, .METRE. ) );
#17 = DIMENSIONAL_EXPONENTS ( 1.000000000000000000, 0.0000000000000000000, 0.0000000000000000000, 0.0000000000000000000, 0.0000000000000000000, 0.0000000000000000000, 0.0000000000000000000 ) ;
#18 = AXIS2_PLACEMENT_3D ( 'NONE', #86, #234, #255 ) ;
#19 = MECHANICAL_DESIGN_GEOMETRIC_PRESENTATION_REPRESENTATION (  '', ( #75 ), #323 ) ;
#20 = DIRECTION ( 'NONE',  ( 0.0000000000000000000, 0.0000000000000000000, 1.000000000000000000 ) ) ;
#21 = EDGE_LOOP ( 'NONE', ( #77, #280, #182, #50 ) ) ;
#22 = VERTEX_POINT ( 'NONE', #71 ) ;
#23 =( NAMED_UNIT ( * ) SI_UNIT ( $, .STERADIAN. ) SOLID_ANGLE_UNIT ( ) );
#24 = ORIENTED_EDGE ( 'NONE', *, *, #94, .F. ) ;
#25 = STYLED_ITEM ( 'NONE', ( #152 ), #306 ) ;
#26 = ORIENTED_EDGE ( 'NONE', *, *, #44, .T. ) ;
#27 = ORIENTED_EDGE ( 'NONE', *, *, #108, .F. ) ;
#28 = DIRECTION ( 'NONE',  ( 1.000000000000000000, 0.0000000000000000000, 0.0000000000000000000 ) ) ;
#29 = EDGE_CURVE ( 'NONE', #201, #298, #274, .T. ) ;
#30 = DIRECTION ( 'NONE',  ( 0.0000000000000000000, 0.0000000000000000000, -1.000000000000000000 ) ) ;
#31 = CARTESIAN_POINT ( 'NONE',  ( 0.0000000000000000000, 0.0000000000000000000, 1.500000000000000222 ) ) ;
#32 = DIRECTION ( 'NONE',  ( -1.224646799147353454E-16, -0.0000000000000000000, -1.000000000000000000 ) ) ;
#33 = EDGE_CURVE ( 'NONE', #316, #64, #191, .T. ) ;
#34 = CARTESIAN_POINT ( 'NONE',  ( 4.041334437186266650E-18, 0.0000000000000000000, 0.03300000000000000155 ) ) ;
#35 = AXIS2_PLACEMENT_3D ( 'NONE', #284, #259, #6 ) ;
#36 = PRESENTATION_LAYER_ASSIGNMENT (  '', '', ( #75 ) ) ;
#37 = PRESENTATION_STYLE_ASSIGNMENT (( #59 ) ) ;
#38 = UNCERTAINTY_MEASURE_WITH_UNIT (LENGTH_MEASURE( 1.000000000000000082E-05 ), #276, 'distance_accuracy_value', 'NONE');
#39 = DIRECTION ( 'NONE',  ( 1.000000000000000000, 0.0000000000000000000, 0.0000000000000000000 ) ) ;
#40 = DIRECTION ( 'NONE',  ( 1.000000000000000000, 0.0000000000000000000, 0.0000000000000000000 ) ) ;
#41 = CIRCLE ( 'NONE', #171, 0.005494500000000001119 ) ;
#42 = AXIS2_PLACEMENT_3D ( 'NONE', #214, #241, #168 ) ;
#43 = FILL_AREA_STYLE_COLOUR ( '', #195 ) ;
#44 = EDGE_CURVE ( 'NONE', #249, #201, #285, .T. ) ;
#45 = EDGE_LOOP ( 'NONE', ( #52, #65, #203, #159 ) ) ;
#46 = ORIENTED_EDGE ( 'NONE', *, *, #130, .F. ) ;
#47 = AXIS2_PLACEMENT_3D ( 'NONE', #309, #143, #139 ) ;
#48 = ORIENTED_EDGE ( 'NONE', *, *, #279, .F. ) ;
#49 = EDGE_CURVE ( 'NONE', #201, #249, #278, .T. ) ;
#50 = ORIENTED_EDGE ( 'NONE', *, *, #244, .F. ) ;
#51 = ORIENTED_EDGE ( 'NONE', *, *, #188, .F. ) ;
#52 = ORIENTED_EDGE ( 'NONE', *, *, #140, .F. ) ;
#53 = DIRECTION ( 'NONE',  ( 1.000000000000000000, 0.0000000000000000000, 0.0000000000000000000 ) ) ;
#54 = CARTESIAN_POINT ( 'NONE',  ( 0.0000000000000000000, 0.0000000000000000000, 1.500000000000000222 ) ) ;
#55 = AXIS2_PLACEMENT_3D ( 'NONE', #175, #20, #317 ) ;
#56 = DIRECTION ( 'NONE',  ( 1.224646799147353207E-16, 1.000000000000000000, -0.0000000000000000000 ) ) ;
#57 = DIRECTION ( 'NONE',  ( 1.224646799147353454E-16, 0.0000000000000000000, 1.000000000000000000 ) ) ;
#58 = FACE_OUTER_BOUND ( 'NONE', #248, .T. ) ;
#59 = SURFACE_STYLE_USAGE ( .BOTH. , #262 ) ;
#60 = CIRCLE ( 'NONE', #232, 0.06250000000000002776 ) ;
#61 = AXIS2_PLACEMENT_3D ( 'NONE', #174, #219, #95 ) ;
#62 = ORIENTED_EDGE ( 'NONE', *, *, #244, .T. ) ;
#63 = CYLINDRICAL_SURFACE ( 'NONE', #47, 0.06250000000000002776 ) ;
#64 = VERTEX_POINT ( 'NONE', #230 ) ;
#65 = ORIENTED_EDGE ( 'NONE', *, *, #279, .T. ) ;
#66 = DIRECTION ( 'NONE',  ( -0.7071067811865462405, 0.0000000000000000000, -0.7071067811865486830 ) ) ;
#67 = AXIS2_PLACEMENT_3D ( 'NONE', #131, #3, #53 ) ;
#68 = PRESENTATION_LAYER_ASSIGNMENT (  '', '', ( #25 ) ) ;
#69 = EDGE_CURVE ( 'NONE', #299, #267, #187, .T. ) ;
#70 = PLANE ( 'NONE',  #162 ) ;
#71 = CARTESIAN_POINT ( 'NONE',  ( 0.06250000000000006939, 7.654042494670963708E-18, 0.3562942557682157729 ) ) ;
#72 = ORIENTED_EDGE ( 'NONE', *, *, #33, .F. ) ;
#73 = AXIS2_PLACEMENT_3D ( 'NONE', #282, #113, #82 ) ;
#74 = ADVANCED_FACE ( 'NONE', ( #85 ), #286, .T. ) ;
#75 = STYLED_ITEM ( 'NONE', ( #37 ), #223 ) ;
#76 = LENGTH_MEASURE_WITH_UNIT ( LENGTH_MEASURE( 0.02539999999999999897 ), #16 );
#77 = ORIENTED_EDGE ( 'NONE', *, *, #29, .F. ) ;
#78 = ORIENTED_EDGE ( 'NONE', *, *, #236, .F. ) ;
#79 = EDGE_LOOP ( 'NONE', ( #51, #62, #181, #269 ) ) ;
#80 =( GEOMETRIC_REPRESENTATION_CONTEXT ( 3 ) GLOBAL_UNCERTAINTY_ASSIGNED_CONTEXT ( ( #38 ) ) GLOBAL_UNIT_ASSIGNED_CONTEXT ( ( #276, #273, #23 ) ) REPRESENTATION_CONTEXT ( 'NONE', 'WORKASPACE' ) );
#81 = LINE ( 'NONE', #254, #114 ) ;
#82 = DIRECTION ( 'NONE',  ( -1.000000000000000000, 0.0000000000000000000, 1.224646799147353454E-16 ) ) ;
#83 = CONICAL_SURFACE ( 'NONE', #256, 0.04750000000000064587, 0.7853981633974466137 ) ;
#84 = AXIS2_PLACEMENT_3D ( 'NONE', #10, #290, #40 ) ;
#85 = FACE_OUTER_BOUND ( 'NONE', #225, .T. ) ;
#86 = CARTESIAN_POINT ( 'NONE',  ( 6.728821837915133930E-19, 0.0000000000000000000, 0.005494500000000000252 ) ) ;
#87 = CARTESIAN_POINT ( 'NONE',  ( 0.005494500000000005456, 0.0000000000000000000, 0.03300000000000000155 ) ) ;
#88 = CIRCLE ( 'NONE', #127, 0.06250000000000002776 ) ;
#89 = CYLINDRICAL_SURFACE ( 'NONE', #233, 0.005494500000000001987 ) ;
#90 = CIRCLE ( 'NONE', #84, 0.06250000000000002776 ) ;
#91 = EDGE_CURVE ( 'NONE', #64, #267, #119, .T. ) ;
#92 = CARTESIAN_POINT ( 'NONE',  ( -0.005494499999999996782, 6.728821837915133930E-19, 0.03300000000000000155 ) ) ;
#93 = FILL_AREA_STYLE ('',( #310 ) ) ;
#94 = EDGE_CURVE ( 'NONE', #107, #298, #60, .T. ) ;
#95 = DIRECTION ( 'NONE',  ( 1.000000000000000000, 0.0000000000000000000, 0.0000000000000000000 ) ) ;
#96 = DIMENSIONAL_EXPONENTS ( 1.000000000000000000, 0.0000000000000000000, 0.0000000000000000000, 0.0000000000000000000, 0.0000000000000000000, 0.0000000000000000000, 0.0000000000000000000 ) ;
#97 = CARTESIAN_POINT ( 'NONE',  ( 1.009323275687270041E-18, 0.0000000000000000000, 0.0000000000000000000 ) ) ;
#98 = ORIENTED_EDGE ( 'NONE', *, *, #33, .T. ) ;
#99 = EDGE_LOOP ( 'NONE', ( #72, #199, #318 ) ) ;
#100 = SURFACE_SIDE_STYLE ('',( #294 ) ) ;
#101 = EDGE_CURVE ( 'NONE', #204, #22, #135, .T. ) ;
#102 = ORIENTED_EDGE ( 'NONE', *, *, #108, .T. ) ;
#103 =( GEOMETRIC_REPRESENTATION_CONTEXT ( 3 ) GLOBAL_UNCERTAINTY_ASSIGNED_CONTEXT ( ( #217 ) ) GLOBAL_UNIT_ASSIGNED_CONTEXT ( ( #315, #150, #106 ) ) REPRESENTATION_CONTEXT ( 'NONE', 'WORKASPACE' ) );
#104 = PRODUCT_CONTEXT ( 'NONE', #242, 'mechanical' ) ;
#105 = EDGE_LOOP ( 'NONE', ( #169, #221, #24, #250 ) ) ;
#106 =( NAMED_UNIT ( * ) SI_UNIT ( $, .STERADIAN. ) SOLID_ANGLE_UNIT ( ) );
#107 = VERTEX_POINT ( 'NONE', #165 ) ;
#108 = EDGE_CURVE ( 'NONE', #204, #299, #211, .T. ) ;
#109 = FACE_OUTER_BOUND ( 'NONE', #45, .T. ) ;
#110 = CONICAL_SURFACE ( 'NONE', #128, 0.005494500000000001119, 0.1745329251994338637 ) ;
#111 = FACE_OUTER_BOUND ( 'NONE', #99, .T. ) ;
#112 = DIRECTION ( 'NONE',  ( -1.224646799147353454E-16, -0.0000000000000000000, -1.000000000000000000 ) ) ;
#113 = DIRECTION ( 'NONE',  ( -1.224646799147353454E-16, -0.0000000000000000000, -1.000000000000000000 ) ) ;
#114 = VECTOR ( 'NONE', #208, 39.37007874015748143 ) ;
#115 = CARTESIAN_POINT ( 'NONE',  ( -0.005494500000000001987, 0.0000000000000000000, 6.728821837915135856E-19 ) ) ;
#116 = DIRECTION ( 'NONE',  ( 0.0000000000000000000, 0.0000000000000000000, 1.000000000000000000 ) ) ;
#117 = ADVANCED_FACE ( 'NONE', ( #300 ), #83, .T. ) ;
#118 =( CONVERSION_BASED_UNIT ( 'INCH', #11 ) LENGTH_UNIT ( ) NAMED_UNIT ( #319 ) );
#119 = CIRCLE ( 'NONE', #8, 0.005494500000000001987 ) ;
#120 = LINE ( 'NONE', #289, #158 ) ;
#121 = FACE_OUTER_BOUND ( 'NONE', #245, .T. ) ;
#122 = VECTOR ( 'NONE', #297, 39.37007874015748854 ) ;
#123 = ORIENTED_EDGE ( 'NONE', *, *, #283, .T. ) ;
#124 = CARTESIAN_POINT ( 'NONE',  ( 0.005494500000000001987, 6.728821837915134893E-19, -6.728821837915135856E-19 ) ) ;
#125 = ORIENTED_EDGE ( 'NONE', *, *, #69, .F. ) ;
#126 = DIRECTION ( 'NONE',  ( 0.0000000000000000000, 0.0000000000000000000, 1.000000000000000000 ) ) ;
#127 = AXIS2_PLACEMENT_3D ( 'NONE', #260, #32, #28 ) ;
#128 = AXIS2_PLACEMENT_3D ( 'NONE', #34, #263, #39 ) ;
#129 = CARTESIAN_POINT ( 'NONE',  ( 0.0000000000000000000, 0.0000000000000000000, 1.500000000000000222 ) ) ;
#130 = EDGE_CURVE ( 'NONE', #148, #22, #88, .T. ) ;
#131 = CARTESIAN_POINT ( 'NONE',  ( 6.728821837915133930E-19, 0.0000000000000000000, 0.005494500000000000252 ) ) ;
#132 = DIRECTION ( 'NONE',  ( -0.0000000000000000000, -0.0000000000000000000, -1.000000000000000000 ) ) ;
#133 = CONICAL_SURFACE ( 'NONE', #206, 0.005494500000000001119, 0.1745329251994338637 ) ;
#134 = ADVANCED_FACE ( 'NONE', ( #111 ), #237, .T. ) ;
#135 = LINE ( 'NONE', #5, #322 ) ;
#136 = DIRECTION ( 'NONE',  ( 1.224646799147353454E-16, 0.0000000000000000000, 1.000000000000000000 ) ) ;
#137 = CARTESIAN_POINT ( 'NONE',  ( 0.0000000000000000000, 0.0000000000000000000, 1.485000000000000764 ) ) ;
#138 = AXIS2_PLACEMENT_3D ( 'NONE', #7, #132, #213 ) ;
#139 = DIRECTION ( 'NONE',  ( -1.000000000000000000, 0.0000000000000000000, 0.0000000000000000000 ) ) ;
#140 = EDGE_CURVE ( 'NONE', #299, #204, #41, .T. ) ;
#141 = CARTESIAN_POINT ( 'NONE',  ( -0.005494500000000001119, 0.0000000000000000000, 0.005494500000000001119 ) ) ;
#142 = AXIS2_PLACEMENT_3D ( 'NONE', #129, #126, #228 ) ;
#143 = DIRECTION ( 'NONE',  ( -0.0000000000000000000, -0.0000000000000000000, -1.000000000000000000 ) ) ;
#144 =( NAMED_UNIT ( * ) SI_UNIT ( $, .STERADIAN. ) SOLID_ANGLE_UNIT ( ) );
#145 = SURFACE_STYLE_USAGE ( .BOTH. , #100 ) ;
#146 =( LENGTH_UNIT ( ) NAMED_UNIT ( * ) SI_UNIT ( $, .METRE. ) );
#147 = PRODUCT_DEFINITION_FORMATION_WITH_SPECIFIED_SOURCE ( 'ANY', '', #207, .NOT_KNOWN. ) ;
#148 = VERTEX_POINT ( 'NONE', #189 ) ;
#149 = PRODUCT_RELATED_PRODUCT_CATEGORY ( 'part', '', ( #207 ) ) ;
#150 =( NAMED_UNIT ( * ) PLANE_ANGLE_UNIT ( ) SI_UNIT ( $, .RADIAN. ) );
#151 = ORIENTED_EDGE ( 'NONE', *, *, #291, .T. ) ;
#152 = PRESENTATION_STYLE_ASSIGNMENT (( #145 ) ) ;
#153 = DIRECTION ( 'NONE',  ( 0.0000000000000000000, -1.000000000000000000, 0.0000000000000000000 ) ) ;
#154 = CARTESIAN_POINT ( 'NONE',  ( -0.005494499999999996782, 4.163462339231237636E-18, 0.03300000000000000155 ) ) ;
#155 = ADVANCED_FACE ( 'NONE', ( #287 ), #209, .T. ) ;
#156 = ORIENTED_EDGE ( 'NONE', *, *, #308, .F. ) ;
#157 = AXIS2_PLACEMENT_3D ( 'NONE', #252, #153, #325 ) ;
#158 = VECTOR ( 'NONE', #15, 39.37007874015748143 ) ;
#159 = ORIENTED_EDGE ( 'NONE', *, *, #101, .F. ) ;
#160 = CARTESIAN_POINT ( 'NONE',  ( 4.041334437186266650E-18, 0.0000000000000000000, 0.03300000000000000155 ) ) ;
#161 = DIRECTION ( 'NONE',  ( -1.224646799147353454E-16, -0.0000000000000000000, -1.000000000000000000 ) ) ;
#162 = AXIS2_PLACEMENT_3D ( 'NONE', #170, #116, #172 ) ;
#163 = EDGE_CURVE ( 'NONE', #316, #267, #261, .T. ) ;
#164 = CARTESIAN_POINT ( 'NONE',  ( 6.728821837915133930E-19, 0.0000000000000000000, 0.005494500000000000252 ) ) ;
#165 = CARTESIAN_POINT ( 'NONE',  ( -0.06250000000000002776, 0.0000000000000000000, 1.485000000000000764 ) ) ;
#166 = CARTESIAN_POINT ( 'NONE',  ( 6.728821837915133930E-19, 0.0000000000000000000, 0.005494500000000000252 ) ) ;
#167 = ADVANCED_FACE ( 'NONE', ( #58 ), #235, .T. ) ;
#168 = DIRECTION ( 'NONE',  ( -1.000000000000000000, 0.0000000000000000000, 0.0000000000000000000 ) ) ;
#169 = ORIENTED_EDGE ( 'NONE', *, *, #49, .F. ) ;
#170 = CARTESIAN_POINT ( 'NONE',  ( 0.0000000000000000000, 0.0000000000000000000, 1.500000000000000222 ) ) ;
#171 = AXIS2_PLACEMENT_3D ( 'NONE', #183, #112, #281 ) ;
#172 = DIRECTION ( 'NONE',  ( 1.000000000000000000, 0.0000000000000000000, -0.0000000000000000000 ) ) ;
#173 = CONICAL_SURFACE ( 'NONE', #42, 0.04750000000000064587, 0.7853981633974466137 ) ;
#174 = CARTESIAN_POINT ( 'NONE',  ( 0.0000000000000000000, 0.0000000000000000000, 1.485000000000000764 ) ) ;
#175 = CARTESIAN_POINT ( 'NONE',  ( 0.0000000000000000000, 0.0000000000000000000, 0.0000000000000000000 ) ) ;
#176 = ADVANCED_FACE ( 'NONE', ( #109 ), #133, .T. ) ;
#177 = EDGE_LOOP ( 'NONE', ( #156, #102, #179, #151 ) ) ;
#178 = ORIENTED_EDGE ( 'NONE', *, *, #91, .T. ) ;
#179 = ORIENTED_EDGE ( 'NONE', *, *, #69, .T. ) ;
#180 = CARTESIAN_POINT ( 'NONE',  ( 0.06250000000000002776, 7.654042494670959086E-18, 1.485000000000000764 ) ) ;
#181 = ORIENTED_EDGE ( 'NONE', *, *, #236, .T. ) ;
#182 = ORIENTED_EDGE ( 'NONE', *, *, #231, .T. ) ;
#183 = CARTESIAN_POINT ( 'NONE',  ( 4.041334437186266650E-18, 0.0000000000000000000, 0.03300000000000000155 ) ) ;
#184 = DIRECTION ( 'NONE',  ( 1.000000000000000000, 0.0000000000000000000, 0.0000000000000000000 ) ) ;
#185 = DIRECTION ( 'NONE',  ( -1.000000000000000000, 1.224646799147353207E-16, 0.0000000000000000000 ) ) ;
#186 = VECTOR ( 'NONE', #66, 39.37007874015748854 ) ;
#187 = LINE ( 'NONE', #115, #13 ) ;
#188 = EDGE_CURVE ( 'NONE', #298, #22, #81, .T. ) ;
#189 = CARTESIAN_POINT ( 'NONE',  ( -0.06249999999999997918, 0.0000000000000000000, 0.3562942557682157729 ) ) ;
#190 = CARTESIAN_POINT ( 'NONE',  ( 0.0000000000000000000, 0.0000000000000000000, 0.0000000000000000000 ) ) ;
#191 = CIRCLE ( 'NONE', #157, 0.005494500000000000252 ) ;
#192 = DIRECTION ( 'NONE',  ( -0.1736481776669311639, 2.126576849575783008E-17, 0.9848077530122080203 ) ) ;
#193 = SURFACE_STYLE_FILL_AREA ( #93 ) ;
#194 = CARTESIAN_POINT ( 'NONE',  ( -0.04750000000000064587, 0.0000000000000000000, 1.500000000000000222 ) ) ;
#195 = COLOUR_RGB ( '',0.7921568627450980005, 0.8196078431372548767, 0.9333333333333333481 ) ;
#196 = ADVANCED_FACE ( 'NONE', ( #301 ), #63, .T. ) ;
#197 = ORIENTED_EDGE ( 'NONE', *, *, #140, .T. ) ;
#198 = DIRECTION ( 'NONE',  ( 1.224646799147353454E-16, 0.0000000000000000000, 1.000000000000000000 ) ) ;
#199 = ORIENTED_EDGE ( 'NONE', *, *, #163, .T. ) ;
#200 = CLOSED_SHELL ( 'NONE', ( #134, #212, #176, #220, #74, #196, #216, #117, #257, #155, #167 ) ) ;
#201 = VERTEX_POINT ( 'NONE', #288 ) ;
#202 = APPLICATION_PROTOCOL_DEFINITION ( 'draft international standard', 'automotive_design', 1998, #275 ) ;
#203 = ORIENTED_EDGE ( 'NONE', *, *, #130, .T. ) ;
#204 = VERTEX_POINT ( 'NONE', #87 ) ;
#205 = DIRECTION ( 'NONE',  ( 1.000000000000000000, 0.0000000000000000000, 0.0000000000000000000 ) ) ;
#206 = AXIS2_PLACEMENT_3D ( 'NONE', #160, #136, #205 ) ;
#207 = PRODUCT ( 'Micro_BMR-011-2', 'Micro_BMR-011-2', '', ( #104 ) ) ;
#208 = DIRECTION ( 'NONE',  ( -0.0000000000000000000, -0.0000000000000000000, -1.000000000000000000 ) ) ;
#209 = CYLINDRICAL_SURFACE ( 'NONE', #73, 0.005494500000000001987 ) ;
#210 = DIRECTION ( 'NONE',  ( -1.000000000000000000, 0.0000000000000000000, 1.942175125170811635E-16 ) ) ;
#211 = CIRCLE ( 'NONE', #35, 0.005494500000000001119 ) ;
#212 = ADVANCED_FACE ( 'NONE', ( #215 ), #89, .T. ) ;
#213 = DIRECTION ( 'NONE',  ( -1.000000000000000000, 0.0000000000000000000, 0.0000000000000000000 ) ) ;
#214 = CARTESIAN_POINT ( 'NONE',  ( 0.0000000000000000000, 0.0000000000000000000, 1.500000000000000222 ) ) ;
#215 = FACE_OUTER_BOUND ( 'NONE', #272, .T. ) ;
#216 = ADVANCED_FACE ( 'NONE', ( #121 ), #70, .T. ) ;
#217 = UNCERTAINTY_MEASURE_WITH_UNIT (LENGTH_MEASURE( 1.000000000000000082E-05 ), #315, 'distance_accuracy_value', 'NONE');
#218 = DIRECTION ( 'NONE',  ( -1.000000000000000000, 0.0000000000000000000, 1.224646799147353454E-16 ) ) ;
#219 = DIRECTION ( 'NONE',  ( 0.0000000000000000000, 0.0000000000000000000, -1.000000000000000000 ) ) ;
#220 = ADVANCED_FACE ( 'NONE', ( #240 ), #173, .T. ) ;
#221 = ORIENTED_EDGE ( 'NONE', *, *, #29, .T. ) ;
#222 = ORIENTED_EDGE ( 'NONE', *, *, #291, .F. ) ;
#223 = MANIFOLD_SOLID_BREP ( 'Fillet1', #200 ) ;
#224 = DIRECTION ( 'NONE',  ( -1.224646799147353454E-16, -0.0000000000000000000, -1.000000000000000000 ) ) ;
#225 = EDGE_LOOP ( 'NONE', ( #277, #321, #46, #78 ) ) ;
#226 = APPLICATION_PROTOCOL_DEFINITION ( 'draft international standard', 'automotive_design', 1998, #242 ) ;
#227 = VECTOR ( 'NONE', #224, 39.37007874015748143 ) ;
#228 = DIRECTION ( 'NONE',  ( 1.000000000000000000, 0.0000000000000000000, 0.0000000000000000000 ) ) ;
#229 = CARTESIAN_POINT ( 'NONE',  ( 0.04750000000000064587, 5.817072295950006528E-18, 1.500000000000000222 ) ) ;
#230 = CARTESIAN_POINT ( 'NONE',  ( 0.005494500000000002854, 6.728821837915134893E-19, 0.005494499999999998517 ) ) ;
#231 = EDGE_CURVE ( 'NONE', #249, #107, #264, .T. ) ;
#232 = AXIS2_PLACEMENT_3D ( 'NONE', #137, #30, #258 ) ;
#233 = AXIS2_PLACEMENT_3D ( 'NONE', #190, #239, #218 ) ;
#234 = DIRECTION ( 'NONE',  ( 0.0000000000000000000, 1.000000000000000000, 0.0000000000000000000 ) ) ;
#235 = SPHERICAL_SURFACE ( 'NONE', #67, 0.005494500000000000252 ) ;
#236 = EDGE_CURVE ( 'NONE', #107, #148, #120, .T. ) ;
#237 = SPHERICAL_SURFACE ( 'NONE', #18, 0.005494500000000000252 ) ;
#238 = UNCERTAINTY_MEASURE_WITH_UNIT (LENGTH_MEASURE( 1.000000000000000082E-05 ), #118, 'distance_accuracy_value', 'NONE');
#239 = DIRECTION ( 'NONE',  ( -1.224646799147353454E-16, -0.0000000000000000000, -1.000000000000000000 ) ) ;
#240 = FACE_OUTER_BOUND ( 'NONE', #105, .T. ) ;
#241 = DIRECTION ( 'NONE',  ( 0.0000000000000000000, 0.0000000000000000000, -1.000000000000000000 ) ) ;
#242 = APPLICATION_CONTEXT ( 'automotive_design' ) ;
#243 =( LENGTH_UNIT ( ) NAMED_UNIT ( * ) SI_UNIT ( $, .METRE. ) );
#244 = EDGE_CURVE ( 'NONE', #298, #107, #314, .T. ) ;
#245 = EDGE_LOOP ( 'NONE', ( #26, #2 ) ) ;
#246 = CIRCLE ( 'NONE', #305, 0.005494500000000001987 ) ;
#247 = VECTOR ( 'NONE', #192, 39.37007874015747433 ) ;
#248 = EDGE_LOOP ( 'NONE', ( #296, #98, #222 ) ) ;
#249 = VERTEX_POINT ( 'NONE', #194 ) ;
#250 = ORIENTED_EDGE ( 'NONE', *, *, #231, .F. ) ;
#251 = SHAPE_DEFINITION_REPRESENTATION ( #303, #306 ) ;
#252 = CARTESIAN_POINT ( 'NONE',  ( 6.728821837915133930E-19, 0.0000000000000000000, 0.005494500000000000252 ) ) ;
#253 = ORIENTED_EDGE ( 'NONE', *, *, #101, .T. ) ;
#254 = CARTESIAN_POINT ( 'NONE',  ( 0.06250000000000002776, 7.654042494670959086E-18, 1.500000000000000222 ) ) ;
#255 = DIRECTION ( 'NONE',  ( 1.000000000000000000, 0.0000000000000000000, 0.0000000000000000000 ) ) ;
#256 = AXIS2_PLACEMENT_3D ( 'NONE', #31, #302, #307 ) ;
#257 = ADVANCED_FACE ( 'NONE', ( #293 ), #110, .T. ) ;
#258 = DIRECTION ( 'NONE',  ( 1.000000000000000000, 0.0000000000000000000, 0.0000000000000000000 ) ) ;
#259 = DIRECTION ( 'NONE',  ( -1.224646799147353454E-16, -0.0000000000000000000, -1.000000000000000000 ) ) ;
#260 = CARTESIAN_POINT ( 'NONE',  ( 4.363346198811338976E-17, 0.0000000000000000000, 0.3562942557682157729 ) ) ;
#261 = CIRCLE ( 'NONE', #270, 0.005494500000000000252 ) ;
#262 = SURFACE_SIDE_STYLE ('',( #193 ) ) ;
#263 = DIRECTION ( 'NONE',  ( 1.224646799147353454E-16, 0.0000000000000000000, 1.000000000000000000 ) ) ;
#264 = LINE ( 'NONE', #313, #186 ) ;
#265 = AXIS2_PLACEMENT_3D ( 'NONE', #54, #4, #184 ) ;
#266 = PRODUCT_DEFINITION_CONTEXT ( 'detailed design', #275, 'design' ) ;
#267 = VERTEX_POINT ( 'NONE', #141 ) ;
#268 = LINE ( 'NONE', #124, #227 ) ;
#269 = ORIENTED_EDGE ( 'NONE', *, *, #283, .F. ) ;
#270 = AXIS2_PLACEMENT_3D ( 'NONE', #166, #56, #185 ) ;
#271 = COLOUR_RGB ( '',0.7921568627450980005, 0.8196078431372548767, 0.9333333333333333481 ) ;
#272 = EDGE_LOOP ( 'NONE', ( #197, #292, #178, #125 ) ) ;
#273 =( NAMED_UNIT ( * ) PLANE_ANGLE_UNIT ( ) SI_UNIT ( $, .RADIAN. ) );
#274 = LINE ( 'NONE', #229, #122 ) ;
#275 = APPLICATION_CONTEXT ( 'automotive_design' ) ;
#276 =( CONVERSION_BASED_UNIT ( 'INCH', #76 ) LENGTH_UNIT ( ) NAMED_UNIT ( #17 ) );
#277 = ORIENTED_EDGE ( 'NONE', *, *, #94, .T. ) ;
#278 = CIRCLE ( 'NONE', #265, 0.04750000000000064587 ) ;
#279 = EDGE_CURVE ( 'NONE', #299, #148, #12, .T. ) ;
#280 = ORIENTED_EDGE ( 'NONE', *, *, #44, .F. ) ;
#281 = DIRECTION ( 'NONE',  ( -1.000000000000000000, 0.0000000000000000000, 0.0000000000000000000 ) ) ;
#282 = CARTESIAN_POINT ( 'NONE',  ( 0.0000000000000000000, 0.0000000000000000000, 0.0000000000000000000 ) ) ;
#283 = EDGE_CURVE ( 'NONE', #22, #148, #90, .T. ) ;
#284 = CARTESIAN_POINT ( 'NONE',  ( 4.041334437186266650E-18, 0.0000000000000000000, 0.03300000000000000155 ) ) ;
#285 = CIRCLE ( 'NONE', #142, 0.04750000000000064587 ) ;
#286 = CYLINDRICAL_SURFACE ( 'NONE', #138, 0.06250000000000002776 ) ;
#287 = FACE_OUTER_BOUND ( 'NONE', #177, .T. ) ;
#288 = CARTESIAN_POINT ( 'NONE',  ( 0.04750000000000064587, 6.735557395310483192E-18, 1.500000000000000222 ) ) ;
#289 = CARTESIAN_POINT ( 'NONE',  ( -0.06250000000000002776, 0.0000000000000000000, 1.500000000000000222 ) ) ;
#290 = DIRECTION ( 'NONE',  ( -1.224646799147353454E-16, -0.0000000000000000000, -1.000000000000000000 ) ) ;
#291 = EDGE_CURVE ( 'NONE', #267, #64, #246, .T. ) ;
#292 = ORIENTED_EDGE ( 'NONE', *, *, #308, .T. ) ;
#293 = FACE_OUTER_BOUND ( 'NONE', #295, .T. ) ;
#294 = SURFACE_STYLE_FILL_AREA ( #1 ) ;
#295 = EDGE_LOOP ( 'NONE', ( #48, #27, #253, #123 ) ) ;
#296 = ORIENTED_EDGE ( 'NONE', *, *, #163, .F. ) ;
#297 = DIRECTION ( 'NONE',  ( 0.7071067811865462405, 8.659560562354916834E-17, -0.7071067811865486830 ) ) ;
#298 = VERTEX_POINT ( 'NONE', #180 ) ;
#299 = VERTEX_POINT ( 'NONE', #154 ) ;
#300 = FACE_OUTER_BOUND ( 'NONE', #21, .T. ) ;
#301 = FACE_OUTER_BOUND ( 'NONE', #79, .T. ) ;
#302 = DIRECTION ( 'NONE',  ( 0.0000000000000000000, 0.0000000000000000000, -1.000000000000000000 ) ) ;
#303 = PRODUCT_DEFINITION_SHAPE ( 'NONE', 'NONE',  #311 ) ;
#304 = DIRECTION ( 'NONE',  ( 0.1736481776669313581, 0.0000000000000000000, 0.9848077530122077983 ) ) ;
#305 = AXIS2_PLACEMENT_3D ( 'NONE', #14, #198, #324 ) ;
#306 = ADVANCED_BREP_SHAPE_REPRESENTATION ( 'Micro_BMR-011-2', ( #223, #55 ), #103 ) ;
#307 = DIRECTION ( 'NONE',  ( -1.000000000000000000, 0.0000000000000000000, 0.0000000000000000000 ) ) ;
#308 = EDGE_CURVE ( 'NONE', #204, #64, #268, .T. ) ;
#309 = CARTESIAN_POINT ( 'NONE',  ( 0.0000000000000000000, 0.0000000000000000000, 1.500000000000000222 ) ) ;
#310 = FILL_AREA_STYLE_COLOUR ( '', #271 ) ;
#311 = PRODUCT_DEFINITION ( 'UNKNOWN', '', #147, #266 ) ;
#312 =( NAMED_UNIT ( * ) PLANE_ANGLE_UNIT ( ) SI_UNIT ( $, .RADIAN. ) );
#313 = CARTESIAN_POINT ( 'NONE',  ( -0.04750000000000064587, 0.0000000000000000000, 1.500000000000000222 ) ) ;
#314 = CIRCLE ( 'NONE', #61, 0.06250000000000002776 ) ;
#315 =( CONVERSION_BASED_UNIT ( 'INCH', #320 ) LENGTH_UNIT ( ) NAMED_UNIT ( #96 ) );
#316 = VERTEX_POINT ( 'NONE', #97 ) ;
#317 = DIRECTION ( 'NONE',  ( 1.000000000000000000, 0.0000000000000000000, 0.0000000000000000000 ) ) ;
#318 = ORIENTED_EDGE ( 'NONE', *, *, #91, .F. ) ;
#319 = DIMENSIONAL_EXPONENTS ( 1.000000000000000000, 0.0000000000000000000, 0.0000000000000000000, 0.0000000000000000000, 0.0000000000000000000, 0.0000000000000000000, 0.0000000000000000000 ) ;
#320 = LENGTH_MEASURE_WITH_UNIT ( LENGTH_MEASURE( 0.02539999999999999897 ), #146 );
#321 = ORIENTED_EDGE ( 'NONE', *, *, #188, .T. ) ;
#322 = VECTOR ( 'NONE', #304, 39.37007874015748143 ) ;
#323 =( GEOMETRIC_REPRESENTATION_CONTEXT ( 3 ) GLOBAL_UNCERTAINTY_ASSIGNED_CONTEXT ( ( #238 ) ) GLOBAL_UNIT_ASSIGNED_CONTEXT ( ( #118, #312, #144 ) ) REPRESENTATION_CONTEXT ( 'NONE', 'WORKASPACE' ) );
#324 = DIRECTION ( 'NONE',  ( -1.000000000000000000, 0.0000000000000000000, 1.942175125170811635E-16 ) ) ;
#325 = DIRECTION ( 'NONE',  ( 0.0000000000000000000, 0.0000000000000000000, -1.000000000000000000 ) ) ;
ENDSEC;
END-ISO-10303-21;
