ISO-10303-21;
HEADER;
FILE_DESCRIPTION (( 'STEP AP214' ),
    '1' );
FILE_NAME ('Micro_BMR-035-2X.STEP',
    '2021-09-03T14:09:00',
    ( '' ),
    ( '' ),
    'SwSTEP 2.0',
    'SolidWorks 2020',
    '' );
FILE_SCHEMA (( 'AUTOMOTIVE_DESIGN' ));
ENDSEC;

DATA;
#1 = DIRECTION ( 'NONE',  ( -1.224646799147353454E-16, -0.0000000000000000000, -1.000000000000000000 ) ) ;
#2 = AXIS2_PLACEMENT_3D ( 'NONE', #322, #75, #125 ) ;
#3 = CARTESIAN_POINT ( 'NONE',  ( -0.01748249999999999110, 2.140988766609360927E-18, 0.1049999999999999961 ) ) ;
#4 = DIRECTION ( 'NONE',  ( -1.000000000000000000, 0.0000000000000000000, 1.224646799147353454E-16 ) ) ;
#5 = ORIENTED_EDGE ( 'NONE', *, *, #12, .T. ) ;
#6 = CIRCLE ( 'NONE', #110, 0.06250000000000002776 ) ;
#7 = PRESENTATION_STYLE_ASSIGNMENT (( #120 ) ) ;
#8 = ORIENTED_EDGE ( 'NONE', *, *, #118, .F. ) ;
#9 = CARTESIAN_POINT ( 'NONE',  ( 2.140988766609360927E-18, 0.0000000000000000000, 0.01748250000000000151 ) ) ;
#10 = ORIENTED_EDGE ( 'NONE', *, *, #86, .F. ) ;
#11 = UNCERTAINTY_MEASURE_WITH_UNIT (LENGTH_MEASURE( 1.000000000000000082E-05 ), #283, 'distance_accuracy_value', 'NONE');
#12 = EDGE_CURVE ( 'NONE', #117, #89, #139, .T. ) ;
#13 = EDGE_LOOP ( 'NONE', ( #119, #172, #8, #30 ) ) ;
#14 = EDGE_CURVE ( 'NONE', #266, #218, #92, .T. ) ;
#15 = DIRECTION ( 'NONE',  ( 0.0000000000000000000, 1.000000000000000000, 0.0000000000000000000 ) ) ;
#16 = CIRCLE ( 'NONE', #149, 0.01748250000000000151 ) ;
#17 = AXIS2_PLACEMENT_3D ( 'NONE', #49, #157, #252 ) ;
#18 = CARTESIAN_POINT ( 'NONE',  ( 2.140988766609360927E-18, 0.0000000000000000000, 0.01748250000000000151 ) ) ;
#19 = FACE_OUTER_BOUND ( 'NONE', #141, .T. ) ;
#20 = DIRECTION ( 'NONE',  ( -1.224646799147353454E-16, -0.0000000000000000000, -1.000000000000000000 ) ) ;
#21 = EDGE_CURVE ( 'NONE', #89, #117, #279, .T. ) ;
#22 = AXIS2_PLACEMENT_3D ( 'NONE', #82, #184, #165 ) ;
#23 = PRESENTATION_LAYER_ASSIGNMENT (  '', '', ( #131 ) ) ;
#24 = CARTESIAN_POINT ( 'NONE',  ( -0.01748249999999999110, 4.897515630640160392E-18, 0.1049999999999999961 ) ) ;
#25 = SURFACE_SIDE_STYLE ('',( #81 ) ) ;
#26 = EDGE_CURVE ( 'NONE', #60, #89, #317, .T. ) ;
#27 = DIRECTION ( 'NONE',  ( -0.1736481776669311639, 2.126576849575783008E-17, 0.9848077530122080203 ) ) ;
#28 = LINE ( 'NONE', #65, #103 ) ;
#29 =( LENGTH_UNIT ( ) NAMED_UNIT ( * ) SI_UNIT ( $, .METRE. ) );
#30 = ORIENTED_EDGE ( 'NONE', *, *, #169, .F. ) ;
#31 = EDGE_CURVE ( 'NONE', #37, #89, #302, .T. ) ;
#32 = EDGE_LOOP ( 'NONE', ( #144, #278, #242, #58 ) ) ;
#33 = APPLICATION_CONTEXT ( 'automotive_design' ) ;
#34 = SURFACE_SIDE_STYLE ('',( #88 ) ) ;
#35 = EDGE_LOOP ( 'NONE', ( #173, #240, #216, #53 ) ) ;
#36 = DIRECTION ( 'NONE',  ( 0.0000000000000000000, 0.0000000000000000000, 1.000000000000000000 ) ) ;
#37 = VERTEX_POINT ( 'NONE', #41 ) ;
#38 = VERTEX_POINT ( 'NONE', #226 ) ;
#39 = CONICAL_SURFACE ( 'NONE', #158, 0.04750000000000064587, 0.7853981633974466137 ) ;
#40 = AXIS2_PLACEMENT_3D ( 'NONE', #303, #183, #55 ) ;
#41 = CARTESIAN_POINT ( 'NONE',  ( 3.211483149914040620E-18, 0.0000000000000000000, 0.0000000000000000000 ) ) ;
#42 = DIRECTION ( 'NONE',  ( -1.224646799147353454E-16, -0.0000000000000000000, -1.000000000000000000 ) ) ;
#43 = DIRECTION ( 'NONE',  ( 1.000000000000000000, 0.0000000000000000000, 0.0000000000000000000 ) ) ;
#44 = CARTESIAN_POINT ( 'NONE',  ( 0.0000000000000000000, 0.0000000000000000000, 1.485000000000000764 ) ) ;
#45 = CARTESIAN_POINT ( 'NONE',  ( 2.140988766609360927E-18, 0.0000000000000000000, 0.01748250000000000151 ) ) ;
#46 = ADVANCED_FACE ( 'NONE', ( #19 ), #202, .T. ) ;
#47 = ADVANCED_FACE ( 'NONE', ( #293 ), #221, .T. ) ;
#48 = UNCERTAINTY_MEASURE_WITH_UNIT (LENGTH_MEASURE( 1.000000000000000082E-05 ), #111, 'distance_accuracy_value', 'NONE');
#49 = CARTESIAN_POINT ( 'NONE',  ( 0.0000000000000000000, 0.0000000000000000000, 1.500000000000000222 ) ) ;
#50 = COLOUR_RGB ( '',0.7921568627450980005, 0.8196078431372548767, 0.9333333333333333481 ) ;
#51 = LINE ( 'NONE', #3, #243 ) ;
#52 = PRODUCT_DEFINITION_FORMATION_WITH_SPECIFIED_SOURCE ( 'ANY', '', #236, .NOT_KNOWN. ) ;
#53 = ORIENTED_EDGE ( 'NONE', *, *, #74, .F. ) ;
#54 = LINE ( 'NONE', #135, #312 ) ;
#55 = DIRECTION ( 'NONE',  ( 1.000000000000000000, 0.0000000000000000000, 0.0000000000000000000 ) ) ;
#56 = LENGTH_MEASURE_WITH_UNIT ( LENGTH_MEASURE( 0.02539999999999999897 ), #254 );
#57 = DIRECTION ( 'NONE',  ( 0.7071067811865462405, 8.659560562354916834E-17, -0.7071067811865486830 ) ) ;
#58 = ORIENTED_EDGE ( 'NONE', *, *, #315, .F. ) ;
#59 =( NAMED_UNIT ( * ) SI_UNIT ( $, .STERADIAN. ) SOLID_ANGLE_UNIT ( ) );
#60 = VERTEX_POINT ( 'NONE', #67 ) ;
#61 = ORIENTED_EDGE ( 'NONE', *, *, #74, .T. ) ;
#62 = AXIS2_PLACEMENT_3D ( 'NONE', #320, #15, #43 ) ;
#63 =( NAMED_UNIT ( * ) PLANE_ANGLE_UNIT ( ) SI_UNIT ( $, .RADIAN. ) );
#64 = ORIENTED_EDGE ( 'NONE', *, *, #270, .T. ) ;
#65 = CARTESIAN_POINT ( 'NONE',  ( -0.04750000000000064587, 0.0000000000000000000, 1.500000000000000222 ) ) ;
#66 = DIRECTION ( 'NONE',  ( -1.000000000000000000, 0.0000000000000000000, 1.220795792964510544E-16 ) ) ;
#67 = CARTESIAN_POINT ( 'NONE',  ( 0.01748250000000001539, 0.0000000000000000000, 0.1049999999999999961 ) ) ;
#68 = EDGE_CURVE ( 'NONE', #195, #60, #116, .T. ) ;
#69 = AXIS2_PLACEMENT_3D ( 'NONE', #197, #204, #297 ) ;
#70 = DIRECTION ( 'NONE',  ( 1.224646799147353454E-16, 0.0000000000000000000, 1.000000000000000000 ) ) ;
#71 = CARTESIAN_POINT ( 'NONE',  ( 0.01748250000000000151, 2.140988766609360157E-18, -2.140988766609360927E-18 ) ) ;
#72 = CARTESIAN_POINT ( 'NONE',  ( 0.0000000000000000000, 0.0000000000000000000, 1.500000000000000222 ) ) ;
#73 = AXIS2_PLACEMENT_3D ( 'NONE', #106, #160, #105 ) ;
#74 = EDGE_CURVE ( 'NONE', #266, #38, #170, .T. ) ;
#75 = DIRECTION ( 'NONE',  ( 0.0000000000000000000, 1.000000000000000000, 0.0000000000000000000 ) ) ;
#76 = ADVANCED_FACE ( 'NONE', ( #151 ), #296, .T. ) ;
#77 = CYLINDRICAL_SURFACE ( 'NONE', #17, 0.06250000000000002776 ) ;
#78 = CARTESIAN_POINT ( 'NONE',  ( 4.412487276957844211E-17, 0.0000000000000000000, 0.3603069293146390351 ) ) ;
#79 = AXIS2_PLACEMENT_3D ( 'NONE', #9, #311, #66 ) ;
#80 = AXIS2_PLACEMENT_3D ( 'NONE', #223, #42, #177 ) ;
#81 = SURFACE_STYLE_FILL_AREA ( #256 ) ;
#82 = CARTESIAN_POINT ( 'NONE',  ( 0.0000000000000000000, 0.0000000000000000000, 1.500000000000000222 ) ) ;
#83 = CARTESIAN_POINT ( 'NONE',  ( 0.0000000000000000000, 0.0000000000000000000, 0.0000000000000000000 ) ) ;
#84 = CIRCLE ( 'NONE', #22, 0.04750000000000064587 ) ;
#85 = ORIENTED_EDGE ( 'NONE', *, *, #118, .T. ) ;
#86 = EDGE_CURVE ( 'NONE', #37, #117, #16, .T. ) ;
#87 = VECTOR ( 'NONE', #57, 39.37007874015748854 ) ;
#88 = SURFACE_STYLE_FILL_AREA ( #140 ) ;
#89 = VERTEX_POINT ( 'NONE', #245 ) ;
#90 = SHAPE_DEFINITION_REPRESENTATION ( #104, #220 ) ;
#91 = ORIENTED_EDGE ( 'NONE', *, *, #14, .F. ) ;
#92 = LINE ( 'NONE', #290, #109 ) ;
#93 = AXIS2_PLACEMENT_3D ( 'NONE', #295, #70, #175 ) ;
#94 =( GEOMETRIC_REPRESENTATION_CONTEXT ( 3 ) GLOBAL_UNCERTAINTY_ASSIGNED_CONTEXT ( ( #11 ) ) GLOBAL_UNIT_ASSIGNED_CONTEXT ( ( #283, #259, #59 ) ) REPRESENTATION_CONTEXT ( 'NONE', 'WORKASPACE' ) );
#95 = ORIENTED_EDGE ( 'NONE', *, *, #68, .F. ) ;
#96 = PRODUCT_DEFINITION_CONTEXT ( 'detailed design', #33, 'design' ) ;
#97 = DIRECTION ( 'NONE',  ( 0.0000000000000000000, 0.0000000000000000000, -1.000000000000000000 ) ) ;
#98 = DIRECTION ( 'NONE',  ( -0.0000000000000000000, -0.0000000000000000000, -1.000000000000000000 ) ) ;
#99 = EDGE_CURVE ( 'NONE', #60, #218, #272, .T. ) ;
#100 = DIRECTION ( 'NONE',  ( -1.000000000000000000, 0.0000000000000000000, 0.0000000000000000000 ) ) ;
#101 = DIRECTION ( 'NONE',  ( -1.000000000000000000, 0.0000000000000000000, 1.220795792964510544E-16 ) ) ;
#102 = FACE_OUTER_BOUND ( 'NONE', #284, .T. ) ;
#103 = VECTOR ( 'NONE', #146, 39.37007874015748854 ) ;
#104 = PRODUCT_DEFINITION_SHAPE ( 'NONE', 'NONE',  #189 ) ;
#105 = DIRECTION ( 'NONE',  ( 1.000000000000000000, 0.0000000000000000000, -0.0000000000000000000 ) ) ;
#106 = CARTESIAN_POINT ( 'NONE',  ( 0.0000000000000000000, 0.0000000000000000000, 1.500000000000000222 ) ) ;
#107 = CARTESIAN_POINT ( 'NONE',  ( 0.0000000000000000000, 0.0000000000000000000, 1.500000000000000222 ) ) ;
#108 = PRODUCT_RELATED_PRODUCT_CATEGORY ( 'part', '', ( #236 ) ) ;
#109 = VECTOR ( 'NONE', #192, 39.37007874015748143 ) ;
#110 = AXIS2_PLACEMENT_3D ( 'NONE', #78, #1, #276 ) ;
#111 =( CONVERSION_BASED_UNIT ( 'INCH', #56 ) LENGTH_UNIT ( ) NAMED_UNIT ( #159 ) );
#112 = LINE ( 'NONE', #209, #228 ) ;
#113 = ADVANCED_FACE ( 'NONE', ( #102 ), #222, .T. ) ;
#114 = CARTESIAN_POINT ( 'NONE',  ( 0.0000000000000000000, 0.0000000000000000000, 1.500000000000000222 ) ) ;
#115 =( CONVERSION_BASED_UNIT ( 'INCH', #237 ) LENGTH_UNIT ( ) NAMED_UNIT ( #258 ) );
#116 = CIRCLE ( 'NONE', #264, 0.01748250000000000151 ) ;
#117 = VERTEX_POINT ( 'NONE', #198 ) ;
#118 = EDGE_CURVE ( 'NONE', #263, #218, #294, .T. ) ;
#119 = ORIENTED_EDGE ( 'NONE', *, *, #137, .T. ) ;
#120 = SURFACE_STYLE_USAGE ( .BOTH. , #34 ) ;
#121 = EDGE_LOOP ( 'NONE', ( #95, #187, #85, #265 ) ) ;
#122 =( LENGTH_UNIT ( ) NAMED_UNIT ( * ) SI_UNIT ( $, .METRE. ) );
#123 = EDGE_LOOP ( 'NONE', ( #308, #306, #213, #314 ) ) ;
#124 = STYLED_ITEM ( 'NONE', ( #229 ), #208 ) ;
#125 = DIRECTION ( 'NONE',  ( 1.000000000000000000, 0.0000000000000000000, 0.0000000000000000000 ) ) ;
#126 = CARTESIAN_POINT ( 'NONE',  ( 0.04750000000000064587, 6.735557395310483192E-18, 1.500000000000000222 ) ) ;
#127 = DIRECTION ( 'NONE',  ( -1.224646799147353454E-16, -0.0000000000000000000, -1.000000000000000000 ) ) ;
#128 = DIRECTION ( 'NONE',  ( -1.224646799147353454E-16, -0.0000000000000000000, -1.000000000000000000 ) ) ;
#129 = DIRECTION ( 'NONE',  ( 1.000000000000000000, 0.0000000000000000000, 0.0000000000000000000 ) ) ;
#130 = FACE_OUTER_BOUND ( 'NONE', #167, .T. ) ;
#131 = STYLED_ITEM ( 'NONE', ( #7 ), #220 ) ;
#132 = PLANE ( 'NONE',  #73 ) ;
#133 = DIRECTION ( 'NONE',  ( -1.000000000000000000, 0.0000000000000000000, 0.0000000000000000000 ) ) ;
#134 = ADVANCED_FACE ( 'NONE', ( #153 ), #191, .T. ) ;
#135 = CARTESIAN_POINT ( 'NONE',  ( -0.06250000000000002776, 0.0000000000000000000, 1.500000000000000222 ) ) ;
#136 = AXIS2_PLACEMENT_3D ( 'NONE', #225, #98, #100 ) ;
#137 = EDGE_CURVE ( 'NONE', #38, #266, #233, .T. ) ;
#138 = CARTESIAN_POINT ( 'NONE',  ( 0.04750000000000064587, 5.817072295950006528E-18, 1.500000000000000222 ) ) ;
#139 = CIRCLE ( 'NONE', #79, 0.01748250000000000151 ) ;
#140 = FILL_AREA_STYLE ('',( #193 ) ) ;
#141 = EDGE_LOOP ( 'NONE', ( #286, #171, #64, #5 ) ) ;
#142 = AXIS2_PLACEMENT_3D ( 'NONE', #156, #178, #271 ) ;
#143 = ORIENTED_EDGE ( 'NONE', *, *, #12, .F. ) ;
#144 = ORIENTED_EDGE ( 'NONE', *, *, #281, .F. ) ;
#145 = ADVANCED_FACE ( 'NONE', ( #316 ), #154, .T. ) ;
#146 = DIRECTION ( 'NONE',  ( -0.7071067811865462405, 0.0000000000000000000, -0.7071067811865486830 ) ) ;
#147 = ORIENTED_EDGE ( 'NONE', *, *, #86, .T. ) ;
#148 = VERTEX_POINT ( 'NONE', #126 ) ;
#149 = AXIS2_PLACEMENT_3D ( 'NONE', #18, #269, #249 ) ;
#150 = ADVANCED_FACE ( 'NONE', ( #152 ), #39, .T. ) ;
#151 = FACE_OUTER_BOUND ( 'NONE', #13, .T. ) ;
#152 = FACE_OUTER_BOUND ( 'NONE', #35, .T. ) ;
#153 = FACE_OUTER_BOUND ( 'NONE', #32, .T. ) ;
#154 = CONICAL_SURFACE ( 'NONE', #93, 0.01748250000000000151, 0.1745329251994338637 ) ;
#155 = AXIS2_PLACEMENT_3D ( 'NONE', #114, #36, #166 ) ;
#156 = CARTESIAN_POINT ( 'NONE',  ( 2.140988766609360927E-18, 0.0000000000000000000, 0.01748250000000000151 ) ) ;
#157 = DIRECTION ( 'NONE',  ( -0.0000000000000000000, -0.0000000000000000000, -1.000000000000000000 ) ) ;
#158 = AXIS2_PLACEMENT_3D ( 'NONE', #107, #180, #277 ) ;
#159 = DIMENSIONAL_EXPONENTS ( 1.000000000000000000, 0.0000000000000000000, 0.0000000000000000000, 0.0000000000000000000, 0.0000000000000000000, 0.0000000000000000000, 0.0000000000000000000 ) ;
#160 = DIRECTION ( 'NONE',  ( 0.0000000000000000000, 0.0000000000000000000, 1.000000000000000000 ) ) ;
#161 = ORIENTED_EDGE ( 'NONE', *, *, #31, .T. ) ;
#162 = DIRECTION ( 'NONE',  ( -0.0000000000000000000, -0.0000000000000000000, -1.000000000000000000 ) ) ;
#163 = CARTESIAN_POINT ( 'NONE',  ( -0.06249999999999997918, 0.0000000000000000000, 0.3603069293146390351 ) ) ;
#164 = MECHANICAL_DESIGN_GEOMETRIC_PRESENTATION_REPRESENTATION (  '', ( #124 ), #239 ) ;
#165 = DIRECTION ( 'NONE',  ( 1.000000000000000000, 0.0000000000000000000, 0.0000000000000000000 ) ) ;
#166 = DIRECTION ( 'NONE',  ( 1.000000000000000000, 0.0000000000000000000, 0.0000000000000000000 ) ) ;
#167 = EDGE_LOOP ( 'NONE', ( #255, #292 ) ) ;
#168 = ORIENTED_EDGE ( 'NONE', *, *, #31, .F. ) ;
#169 = EDGE_CURVE ( 'NONE', #38, #263, #54, .T. ) ;
#170 = CIRCLE ( 'NONE', #212, 0.06250000000000002776 ) ;
#171 = ORIENTED_EDGE ( 'NONE', *, *, #205, .T. ) ;
#172 = ORIENTED_EDGE ( 'NONE', *, *, #14, .T. ) ;
#173 = ORIENTED_EDGE ( 'NONE', *, *, #325, .F. ) ;
#174 = EDGE_CURVE ( 'NONE', #218, #263, #6, .T. ) ;
#175 = DIRECTION ( 'NONE',  ( 1.000000000000000000, 0.0000000000000000000, 0.0000000000000000000 ) ) ;
#176 = DIRECTION ( 'NONE',  ( 1.224646799147353454E-16, 0.0000000000000000000, 1.000000000000000000 ) ) ;
#177 = DIRECTION ( 'NONE',  ( -1.000000000000000000, 0.0000000000000000000, 1.224646799147353454E-16 ) ) ;
#178 = DIRECTION ( 'NONE',  ( 0.0000000000000000000, -1.000000000000000000, 0.0000000000000000000 ) ) ;
#179 = DIRECTION ( 'NONE',  ( 0.0000000000000000000, 0.0000000000000000000, -1.000000000000000000 ) ) ;
#180 = DIRECTION ( 'NONE',  ( 0.0000000000000000000, 0.0000000000000000000, -1.000000000000000000 ) ) ;
#181 = CARTESIAN_POINT ( 'NONE',  ( 1.285879139104721102E-17, 0.0000000000000000000, 0.1049999999999999961 ) ) ;
#182 =( NAMED_UNIT ( * ) SI_UNIT ( $, .STERADIAN. ) SOLID_ANGLE_UNIT ( ) );
#183 = DIRECTION ( 'NONE',  ( 1.224646799147353454E-16, 0.0000000000000000000, 1.000000000000000000 ) ) ;
#184 = DIRECTION ( 'NONE',  ( 0.0000000000000000000, 0.0000000000000000000, 1.000000000000000000 ) ) ;
#185 = CONICAL_SURFACE ( 'NONE', #40, 0.01748250000000000151, 0.1745329251994338637 ) ;
#186 = DIRECTION ( 'NONE',  ( -1.224646799147353454E-16, -0.0000000000000000000, -1.000000000000000000 ) ) ;
#187 = ORIENTED_EDGE ( 'NONE', *, *, #200, .T. ) ;
#188 = ORIENTED_EDGE ( 'NONE', *, *, #270, .F. ) ;
#189 = PRODUCT_DEFINITION ( 'UNKNOWN', '', #52, #96 ) ;
#190 = ORIENTED_EDGE ( 'NONE', *, *, #26, .T. ) ;
#191 = CONICAL_SURFACE ( 'NONE', #274, 0.04750000000000064587, 0.7853981633974466137 ) ;
#192 = DIRECTION ( 'NONE',  ( -0.0000000000000000000, -0.0000000000000000000, -1.000000000000000000 ) ) ;
#193 = FILL_AREA_STYLE_COLOUR ( '', #201 ) ;
#194 = ADVANCED_FACE ( 'NONE', ( #130 ), #132, .T. ) ;
#195 = VERTEX_POINT ( 'NONE', #24 ) ;
#196 = APPLICATION_CONTEXT ( 'automotive_design' ) ;
#197 = CARTESIAN_POINT ( 'NONE',  ( 4.412487276957844211E-17, 0.0000000000000000000, 0.3603069293146390351 ) ) ;
#198 = CARTESIAN_POINT ( 'NONE',  ( -0.01748249999999999804, 0.0000000000000000000, 0.01748250000000000151 ) ) ;
#199 = CIRCLE ( 'NONE', #257, 0.01748250000000000151 ) ;
#200 = EDGE_CURVE ( 'NONE', #195, #263, #51, .T. ) ;
#201 = COLOUR_RGB ( '',0.7921568627450980005, 0.8196078431372548767, 0.9333333333333333481 ) ;
#202 = CYLINDRICAL_SURFACE ( 'NONE', #80, 0.01748250000000000151 ) ;
#203 = CARTESIAN_POINT ( 'NONE',  ( 0.0000000000000000000, 0.0000000000000000000, 1.485000000000000764 ) ) ;
#204 = DIRECTION ( 'NONE',  ( -1.224646799147353454E-16, -0.0000000000000000000, -1.000000000000000000 ) ) ;
#205 = EDGE_CURVE ( 'NONE', #60, #195, #199, .T. ) ;
#206 = CYLINDRICAL_SURFACE ( 'NONE', #318, 0.01748250000000000151 ) ;
#207 = FACE_OUTER_BOUND ( 'NONE', #123, .T. ) ;
#208 = MANIFOLD_SOLID_BREP ( 'Fillet1', #250 ) ;
#209 = CARTESIAN_POINT ( 'NONE',  ( -0.01748250000000000151, 0.0000000000000000000, 2.140988766609360927E-18 ) ) ;
#210 = DIRECTION ( 'NONE',  ( 1.000000000000000000, 0.0000000000000000000, 0.0000000000000000000 ) ) ;
#211 = ORIENTED_EDGE ( 'NONE', *, *, #21, .T. ) ;
#212 = AXIS2_PLACEMENT_3D ( 'NONE', #203, #97, #129 ) ;
#213 = ORIENTED_EDGE ( 'NONE', *, *, #99, .T. ) ;
#214 = ORIENTED_EDGE ( 'NONE', *, *, #169, .T. ) ;
#215 = LINE ( 'NONE', #138, #87 ) ;
#216 = ORIENTED_EDGE ( 'NONE', *, *, #315, .T. ) ;
#217 = VECTOR ( 'NONE', #127, 39.37007874015748143 ) ;
#218 = VERTEX_POINT ( 'NONE', #323 ) ;
#219 = AXIS2_PLACEMENT_3D ( 'NONE', #83, #313, #210 ) ;
#220 = ADVANCED_BREP_SHAPE_REPRESENTATION ( 'Micro_BMR-035-2X', ( #208, #219 ), #94 ) ;
#221 = SPHERICAL_SURFACE ( 'NONE', #2, 0.01748250000000000151 ) ;
#222 = SPHERICAL_SURFACE ( 'NONE', #62, 0.01748250000000000151 ) ;
#223 = CARTESIAN_POINT ( 'NONE',  ( 0.0000000000000000000, 0.0000000000000000000, 0.0000000000000000000 ) ) ;
#224 = AXIS2_PLACEMENT_3D ( 'NONE', #45, #176, #101 ) ;
#225 = CARTESIAN_POINT ( 'NONE',  ( 0.0000000000000000000, 0.0000000000000000000, 1.500000000000000222 ) ) ;
#226 = CARTESIAN_POINT ( 'NONE',  ( -0.06250000000000002776, 0.0000000000000000000, 1.485000000000000764 ) ) ;
#227 = FACE_OUTER_BOUND ( 'NONE', #309, .T. ) ;
#228 = VECTOR ( 'NONE', #304, 39.37007874015748143 ) ;
#229 = PRESENTATION_STYLE_ASSIGNMENT (( #301 ) ) ;
#230 = FILL_AREA_STYLE_COLOUR ( '', #50 ) ;
#231 =( NAMED_UNIT ( * ) PLANE_ANGLE_UNIT ( ) SI_UNIT ( $, .RADIAN. ) );
#232 = DIMENSIONAL_EXPONENTS ( 1.000000000000000000, 0.0000000000000000000, 0.0000000000000000000, 0.0000000000000000000, 0.0000000000000000000, 0.0000000000000000000, 0.0000000000000000000 ) ;
#233 = CIRCLE ( 'NONE', #248, 0.06250000000000002776 ) ;
#234 = CARTESIAN_POINT ( 'NONE',  ( 0.06250000000000002776, 7.654042494670959086E-18, 1.485000000000000764 ) ) ;
#235 = LENGTH_MEASURE_WITH_UNIT ( LENGTH_MEASURE( 0.02539999999999999897 ), #29 );
#236 = PRODUCT ( 'Micro_BMR-035-2X', 'Micro_BMR-035-2X', '', ( #305 ) ) ;
#237 = LENGTH_MEASURE_WITH_UNIT ( LENGTH_MEASURE( 0.02539999999999999897 ), #122 );
#238 = ORIENTED_EDGE ( 'NONE', *, *, #68, .T. ) ;
#239 =( GEOMETRIC_REPRESENTATION_CONTEXT ( 3 ) GLOBAL_UNCERTAINTY_ASSIGNED_CONTEXT ( ( #48 ) ) GLOBAL_UNIT_ASSIGNED_CONTEXT ( ( #111, #231, #182 ) ) REPRESENTATION_CONTEXT ( 'NONE', 'WORKASPACE' ) );
#240 = ORIENTED_EDGE ( 'NONE', *, *, #321, .F. ) ;
#241 = EDGE_LOOP ( 'NONE', ( #238, #190, #211, #188 ) ) ;
#242 = ORIENTED_EDGE ( 'NONE', *, *, #137, .F. ) ;
#243 = VECTOR ( 'NONE', #27, 39.37007874015747433 ) ;
#244 = VERTEX_POINT ( 'NONE', #280 ) ;
#245 = CARTESIAN_POINT ( 'NONE',  ( 0.01748250000000000151, 2.140988766609360157E-18, 0.01748249999999999804 ) ) ;
#246 = CARTESIAN_POINT ( 'NONE',  ( 0.01748250000000001539, 0.0000000000000000000, 0.1049999999999999961 ) ) ;
#247 = CARTESIAN_POINT ( 'NONE',  ( 1.285879139104721102E-17, 0.0000000000000000000, 0.1049999999999999961 ) ) ;
#248 = AXIS2_PLACEMENT_3D ( 'NONE', #44, #179, #251 ) ;
#249 = DIRECTION ( 'NONE',  ( -1.000000000000000000, 1.224646799147352961E-16, 0.0000000000000000000 ) ) ;
#250 = CLOSED_SHELL ( 'NONE', ( #113, #307, #145, #134, #76, #300, #194, #150, #260, #46, #47 ) ) ;
#251 = DIRECTION ( 'NONE',  ( 1.000000000000000000, 0.0000000000000000000, 0.0000000000000000000 ) ) ;
#252 = DIRECTION ( 'NONE',  ( -1.000000000000000000, 0.0000000000000000000, 0.0000000000000000000 ) ) ;
#253 = MECHANICAL_DESIGN_GEOMETRIC_PRESENTATION_REPRESENTATION (  '', ( #131 ), #282 ) ;
#254 =( LENGTH_UNIT ( ) NAMED_UNIT ( * ) SI_UNIT ( $, .METRE. ) );
#255 = ORIENTED_EDGE ( 'NONE', *, *, #321, .T. ) ;
#256 = FILL_AREA_STYLE ('',( #230 ) ) ;
#257 = AXIS2_PLACEMENT_3D ( 'NONE', #181, #20, #133 ) ;
#258 = DIMENSIONAL_EXPONENTS ( 1.000000000000000000, 0.0000000000000000000, 0.0000000000000000000, 0.0000000000000000000, 0.0000000000000000000, 0.0000000000000000000, 0.0000000000000000000 ) ;
#259 =( NAMED_UNIT ( * ) PLANE_ANGLE_UNIT ( ) SI_UNIT ( $, .RADIAN. ) );
#260 = ADVANCED_FACE ( 'NONE', ( #207 ), #185, .T. ) ;
#261 = EDGE_LOOP ( 'NONE', ( #10, #161, #143 ) ) ;
#262 = APPLICATION_PROTOCOL_DEFINITION ( 'draft international standard', 'automotive_design', 1998, #33 ) ;
#263 = VERTEX_POINT ( 'NONE', #163 ) ;
#264 = AXIS2_PLACEMENT_3D ( 'NONE', #247, #128, #319 ) ;
#265 = ORIENTED_EDGE ( 'NONE', *, *, #99, .F. ) ;
#266 = VERTEX_POINT ( 'NONE', #234 ) ;
#267 = ORIENTED_EDGE ( 'NONE', *, *, #21, .F. ) ;
#268 = VECTOR ( 'NONE', #275, 39.37007874015748143 ) ;
#269 = DIRECTION ( 'NONE',  ( 1.224646799147353207E-16, 1.000000000000000000, -0.0000000000000000000 ) ) ;
#270 = EDGE_CURVE ( 'NONE', #195, #117, #112, .T. ) ;
#271 = DIRECTION ( 'NONE',  ( 0.0000000000000000000, 0.0000000000000000000, -1.000000000000000000 ) ) ;
#272 = LINE ( 'NONE', #246, #268 ) ;
#273 = DIRECTION ( 'NONE',  ( -1.000000000000000000, 0.0000000000000000000, 0.0000000000000000000 ) ) ;
#274 = AXIS2_PLACEMENT_3D ( 'NONE', #72, #298, #273 ) ;
#275 = DIRECTION ( 'NONE',  ( 0.1736481776669313581, 0.0000000000000000000, 0.9848077530122077983 ) ) ;
#276 = DIRECTION ( 'NONE',  ( 1.000000000000000000, 0.0000000000000000000, 0.0000000000000000000 ) ) ;
#277 = DIRECTION ( 'NONE',  ( -1.000000000000000000, 0.0000000000000000000, 0.0000000000000000000 ) ) ;
#278 = ORIENTED_EDGE ( 'NONE', *, *, #325, .T. ) ;
#279 = CIRCLE ( 'NONE', #224, 0.01748250000000000151 ) ;
#280 = CARTESIAN_POINT ( 'NONE',  ( -0.04750000000000064587, 0.0000000000000000000, 1.500000000000000222 ) ) ;
#281 = EDGE_CURVE ( 'NONE', #148, #244, #84, .T. ) ;
#282 =( GEOMETRIC_REPRESENTATION_CONTEXT ( 3 ) GLOBAL_UNCERTAINTY_ASSIGNED_CONTEXT ( ( #285 ) ) GLOBAL_UNIT_ASSIGNED_CONTEXT ( ( #115, #63, #287 ) ) REPRESENTATION_CONTEXT ( 'NONE', 'WORKASPACE' ) );
#283 =( CONVERSION_BASED_UNIT ( 'INCH', #235 ) LENGTH_UNIT ( ) NAMED_UNIT ( #232 ) );
#284 = EDGE_LOOP ( 'NONE', ( #168, #147, #267 ) ) ;
#285 = UNCERTAINTY_MEASURE_WITH_UNIT (LENGTH_MEASURE( 1.000000000000000082E-05 ), #115, 'distance_accuracy_value', 'NONE');
#286 = ORIENTED_EDGE ( 'NONE', *, *, #26, .F. ) ;
#287 =( NAMED_UNIT ( * ) SI_UNIT ( $, .STERADIAN. ) SOLID_ANGLE_UNIT ( ) );
#288 = ORIENTED_EDGE ( 'NONE', *, *, #174, .F. ) ;
#289 = CIRCLE ( 'NONE', #155, 0.04750000000000064587 ) ;
#290 = CARTESIAN_POINT ( 'NONE',  ( 0.06250000000000002776, 7.654042494670959086E-18, 1.500000000000000222 ) ) ;
#291 = CARTESIAN_POINT ( 'NONE',  ( 0.0000000000000000000, 0.0000000000000000000, 0.0000000000000000000 ) ) ;
#292 = ORIENTED_EDGE ( 'NONE', *, *, #281, .T. ) ;
#293 = FACE_OUTER_BOUND ( 'NONE', #261, .T. ) ;
#294 = CIRCLE ( 'NONE', #69, 0.06250000000000002776 ) ;
#295 = CARTESIAN_POINT ( 'NONE',  ( 1.285879139104721102E-17, 0.0000000000000000000, 0.1049999999999999961 ) ) ;
#296 = CYLINDRICAL_SURFACE ( 'NONE', #136, 0.06250000000000002776 ) ;
#297 = DIRECTION ( 'NONE',  ( 1.000000000000000000, 0.0000000000000000000, 0.0000000000000000000 ) ) ;
#298 = DIRECTION ( 'NONE',  ( 0.0000000000000000000, 0.0000000000000000000, -1.000000000000000000 ) ) ;
#299 = PRESENTATION_LAYER_ASSIGNMENT (  '', '', ( #124 ) ) ;
#300 = ADVANCED_FACE ( 'NONE', ( #227 ), #77, .T. ) ;
#301 = SURFACE_STYLE_USAGE ( .BOTH. , #25 ) ;
#302 = CIRCLE ( 'NONE', #142, 0.01748250000000000151 ) ;
#303 = CARTESIAN_POINT ( 'NONE',  ( 1.285879139104721102E-17, 0.0000000000000000000, 0.1049999999999999961 ) ) ;
#304 = DIRECTION ( 'NONE',  ( -1.224646799147353454E-16, -0.0000000000000000000, -1.000000000000000000 ) ) ;
#305 = PRODUCT_CONTEXT ( 'NONE', #196, 'mechanical' ) ;
#306 = ORIENTED_EDGE ( 'NONE', *, *, #205, .F. ) ;
#307 = ADVANCED_FACE ( 'NONE', ( #324 ), #206, .T. ) ;
#308 = ORIENTED_EDGE ( 'NONE', *, *, #200, .F. ) ;
#309 = EDGE_LOOP ( 'NONE', ( #91, #61, #214, #288 ) ) ;
#310 = APPLICATION_PROTOCOL_DEFINITION ( 'draft international standard', 'automotive_design', 1998, #196 ) ;
#311 = DIRECTION ( 'NONE',  ( 1.224646799147353454E-16, 0.0000000000000000000, 1.000000000000000000 ) ) ;
#312 = VECTOR ( 'NONE', #162, 39.37007874015748143 ) ;
#313 = DIRECTION ( 'NONE',  ( 0.0000000000000000000, 0.0000000000000000000, 1.000000000000000000 ) ) ;
#314 = ORIENTED_EDGE ( 'NONE', *, *, #174, .T. ) ;
#315 = EDGE_CURVE ( 'NONE', #244, #38, #28, .T. ) ;
#316 = FACE_OUTER_BOUND ( 'NONE', #121, .T. ) ;
#317 = LINE ( 'NONE', #71, #217 ) ;
#318 = AXIS2_PLACEMENT_3D ( 'NONE', #291, #186, #4 ) ;
#319 = DIRECTION ( 'NONE',  ( -1.000000000000000000, 0.0000000000000000000, 0.0000000000000000000 ) ) ;
#320 = CARTESIAN_POINT ( 'NONE',  ( 2.140988766609360927E-18, 0.0000000000000000000, 0.01748250000000000151 ) ) ;
#321 = EDGE_CURVE ( 'NONE', #244, #148, #289, .T. ) ;
#322 = CARTESIAN_POINT ( 'NONE',  ( 2.140988766609360927E-18, 0.0000000000000000000, 0.01748250000000000151 ) ) ;
#323 = CARTESIAN_POINT ( 'NONE',  ( 0.06250000000000006939, 7.654042494670963708E-18, 0.3603069293146390351 ) ) ;
#324 = FACE_OUTER_BOUND ( 'NONE', #241, .T. ) ;
#325 = EDGE_CURVE ( 'NONE', #148, #266, #215, .T. ) ;
ENDSEC;
END-ISO-10303-21;
