ISO-10303-21;
HEADER;
FILE_DESCRIPTION (( 'STEP AP214' ),
    '1' );
FILE_NAME ('44322W.STEP',
    '2023-06-22T20:07:23',
    ( '' ),
    ( '' ),
    'SwSTEP 2.0',
    'SolidWorks 2023',
    '' );
FILE_SCHEMA (( 'AUTOMOTIVE_DESIGN' ));
ENDSEC;

DATA;
#1 = SURFACE_STYLE_USAGE ( .BOTH. , #117 ) ;
#2 = FACE_OUTER_BOUND ( 'NONE', #232, .T. ) ;
#3 =( GEOMETRIC_REPRESENTATION_CONTEXT ( 3 ) GLOBAL_UNCERTAINTY_ASSIGNED_CONTEXT ( ( #146 ) ) GLOBAL_UNIT_ASSIGNED_CONTEXT ( ( #150, #111, #34 ) ) REPRESENTATION_CONTEXT ( 'NONE', 'WORKASPACE' ) );
#4 = PRESENTATION_LAYER_ASSIGNMENT (  '', '', ( #156 ) ) ;
#5 = DIRECTION ( 'NONE',  ( 0.000000000000000000, 0.000000000000000000, -1.000000000000000000 ) ) ;
#6 = SURFACE_SIDE_STYLE ('',( #195 ) ) ;
#7 = FACE_OUTER_BOUND ( 'NONE', #289, .T. ) ;
#8 = UNCERTAINTY_MEASURE_WITH_UNIT (LENGTH_MEASURE( 1.000000000000000082E-05 ), #28, 'distance_accuracy_value', 'NONE');
#9 = PLANE ( 'NONE',  #292 ) ;
#10 = CARTESIAN_POINT ( 'NONE',  ( -6.123233995736759873E-17, 3.500000000000000000, 0.000000000000000000 ) ) ;
#11 = CLOSED_SHELL ( 'NONE', ( #277, #142, #15, #72 ) ) ;
#12 = EDGE_CURVE ( 'NONE', #96, #206, #247, .T. ) ;
#13 =( NAMED_UNIT ( * ) PLANE_ANGLE_UNIT ( ) SI_UNIT ( $, .RADIAN. ) );
#14 = ORIENTED_EDGE ( 'NONE', *, *, #12, .F. ) ;
#15 = ADVANCED_FACE ( 'NONE', ( #265 ), #214, .T. ) ;
#16 = STYLED_ITEM ( 'NONE', ( #41 ), #64 ) ;
#17 = FILL_AREA_STYLE_COLOUR ( '', #130 ) ;
#18 = CARTESIAN_POINT ( 'NONE',  ( 0.000000000000000000, 1.250000000000000000, 0.000000000000000000 ) ) ;
#19 = PRODUCT_DEFINITION ( 'UNKNOWN', '', #209, #46 ) ;
#20 = ORIENTED_EDGE ( 'NONE', *, *, #158, .F. ) ;
#21 = PRESENTATION_LAYER_ASSIGNMENT (  '', '', ( #155 ) ) ;
#22 = AXIS2_PLACEMENT_3D ( 'NONE', #188, #143, #269 ) ;
#23 = DIRECTION ( 'NONE',  ( -0.000000000000000000, -1.000000000000000000, -0.000000000000000000 ) ) ;
#24 = DIRECTION ( 'NONE',  ( 0.000000000000000000, 0.000000000000000000, -1.000000000000000000 ) ) ;
#25 = CARTESIAN_POINT ( 'NONE',  ( 0.000000000000000000, 1.250000000000000000, 0.000000000000000000 ) ) ;
#26 = CARTESIAN_POINT ( 'NONE',  ( 0.000000000000000000, 1.250000000000000000, -0.3125000000000000000 ) ) ;
#27 = LINE ( 'NONE', #120, #36 ) ;
#28 =( CONVERSION_BASED_UNIT ( 'INCH', #186 ) LENGTH_UNIT ( ) NAMED_UNIT ( #91 ) );
#29 = AXIS2_PLACEMENT_3D ( 'NONE', #18, #23, #24 ) ;
#30 = PRESENTATION_LAYER_ASSIGNMENT (  '', '', ( #300 ) ) ;
#31 = DIRECTION ( 'NONE',  ( -2.721437331438560389E-17, 1.000000000000000000, -0.000000000000000000 ) ) ;
#32 = PLANE ( 'NONE',  #175 ) ;
#33 = DIRECTION ( 'NONE',  ( -2.721437331438560389E-17, 1.000000000000000000, -0.000000000000000000 ) ) ;
#34 =( NAMED_UNIT ( * ) SI_UNIT ( $, .STERADIAN. ) SOLID_ANGLE_UNIT ( ) );
#35 = FACE_OUTER_BOUND ( 'NONE', #308, .T. ) ;
#36 = VECTOR ( 'NONE', #215, 39.37007874015748143 ) ;
#37 = CYLINDRICAL_SURFACE ( 'NONE', #293, 0.3125000000000000000 ) ;
#38 =( CONVERSION_BASED_UNIT ( 'INCH', #284 ) LENGTH_UNIT ( ) NAMED_UNIT ( #257 ) );
#39 = VERTEX_POINT ( 'NONE', #287 ) ;
#40 = DIRECTION ( 'NONE',  ( -0.000000000000000000, -1.000000000000000000, -0.000000000000000000 ) ) ;
#41 = PRESENTATION_STYLE_ASSIGNMENT (( #165 ) ) ;
#42 = DIMENSIONAL_EXPONENTS ( 1.000000000000000000, 0.000000000000000000, 0.000000000000000000, 0.000000000000000000, 0.000000000000000000, 0.000000000000000000, 0.000000000000000000 ) ;
#43 = LINE ( 'NONE', #194, #82 ) ;
#44 = SURFACE_STYLE_FILL_AREA ( #266 ) ;
#45 = CARTESIAN_POINT ( 'NONE',  ( 0.000000000000000000, 0.000000000000000000, 0.000000000000000000 ) ) ;
#46 = PRODUCT_DEFINITION_CONTEXT ( 'detailed design', #144, 'design' ) ;
#47 = ORIENTED_EDGE ( 'NONE', *, *, #68, .T. ) ;
#48 = DIRECTION ( 'NONE',  ( 0.000000000000000000, -1.000000000000000000, -0.000000000000000000 ) ) ;
#49 = CARTESIAN_POINT ( 'NONE',  ( 0.3125000000000000000, 3.500000000000000000, 0.000000000000000000 ) ) ;
#50 = PRESENTATION_STYLE_ASSIGNMENT (( #167 ) ) ;
#51 = CARTESIAN_POINT ( 'NONE',  ( 3.827021247335478926E-17, 0.000000000000000000, 0.3125000000000000000 ) ) ;
#52 = SURFACE_STYLE_USAGE ( .BOTH. , #6 ) ;
#53 = CARTESIAN_POINT ( 'NONE',  ( 0.000000000000000000, 0.000000000000000000, 0.000000000000000000 ) ) ;
#54 = COLOUR_RGB ( '',0.7921568627450980005, 0.8196078431372548767, 0.9333333333333333481 ) ;
#55 = COLOUR_RGB ( '',1.000000000000000000, 0.000000000000000000, 0.000000000000000000 ) ;
#56 = DIRECTION ( 'NONE',  ( -0.000000000000000000, -1.000000000000000000, -0.000000000000000000 ) ) ;
#57 = FILL_AREA_STYLE_COLOUR ( '', #55 ) ;
#58 = PRODUCT ( '44322W', '44322W', '', ( #104 ) ) ;
#59 = LINE ( 'NONE', #93, #137 ) ;
#60 = DIRECTION ( 'NONE',  ( -2.721437331438560389E-17, 1.000000000000000000, -0.000000000000000000 ) ) ;
#61 = ORIENTED_EDGE ( 'NONE', *, *, #138, .T. ) ;
#62 = MECHANICAL_DESIGN_GEOMETRIC_PRESENTATION_REPRESENTATION (  '', ( #156 ), #275 ) ;
#63 = ORIENTED_EDGE ( 'NONE', *, *, #74, .F. ) ;
#64 = MANIFOLD_SOLID_BREP ( 'Revolve - Tool Body (Straight Shanked)', #11 ) ;
#65 = VERTEX_POINT ( 'NONE', #51 ) ;
#66 = DIRECTION ( 'NONE',  ( -1.000000000000000000, -2.721437331438560697E-17, 0.000000000000000000 ) ) ;
#67 =( GEOMETRIC_REPRESENTATION_CONTEXT ( 3 ) GLOBAL_UNCERTAINTY_ASSIGNED_CONTEXT ( ( #95 ) ) GLOBAL_UNIT_ASSIGNED_CONTEXT ( ( #203, #301, #302 ) ) REPRESENTATION_CONTEXT ( 'NONE', 'WORKASPACE' ) );
#68 = EDGE_CURVE ( 'NONE', #39, #139, #43, .T. ) ;
#69 = PRESENTATION_STYLE_ASSIGNMENT (( #224 ) ) ;
#70 = DIMENSIONAL_EXPONENTS ( 1.000000000000000000, 0.000000000000000000, 0.000000000000000000, 0.000000000000000000, 0.000000000000000000, 0.000000000000000000, 0.000000000000000000 ) ;
#71 = VERTEX_POINT ( 'NONE', #174 ) ;
#72 = ADVANCED_FACE ( 'NONE', ( #170 ), #32, .F. ) ;
#73 = STYLED_ITEM ( 'NONE', ( #50 ), #212 ) ;
#74 = EDGE_CURVE ( 'NONE', #206, #229, #197, .T. ) ;
#75 = FILL_AREA_STYLE ('',( #17 ) ) ;
#76 = ORIENTED_EDGE ( 'NONE', *, *, #126, .F. ) ;
#77 = DIRECTION ( 'NONE',  ( -0.000000000000000000, -1.000000000000000000, -0.000000000000000000 ) ) ;
#78 =( GEOMETRIC_REPRESENTATION_CONTEXT ( 3 ) GLOBAL_UNCERTAINTY_ASSIGNED_CONTEXT ( ( #8 ) ) GLOBAL_UNIT_ASSIGNED_CONTEXT ( ( #28, #133, #135 ) ) REPRESENTATION_CONTEXT ( 'NONE', 'WORKASPACE' ) );
#79 = DIRECTION ( 'NONE',  ( -2.721437331438560389E-17, 1.000000000000000000, -0.000000000000000000 ) ) ;
#80 = LENGTH_MEASURE_WITH_UNIT ( LENGTH_MEASURE( 0.02539999999999999897 ), #98 );
#81 =( LENGTH_UNIT ( ) NAMED_UNIT ( * ) SI_UNIT ( $, .METRE. ) );
#82 = VECTOR ( 'NONE', #276, 39.37007874015748143 ) ;
#83 =( CONVERSION_BASED_UNIT ( 'INCH', #202 ) LENGTH_UNIT ( ) NAMED_UNIT ( #110 ) );
#84 = SHAPE_DEFINITION_REPRESENTATION ( #278, #204 ) ;
#85 = AXIS2_PLACEMENT_3D ( 'NONE', #239, #118, #185 ) ;
#86 = FILL_AREA_STYLE ('',( #261 ) ) ;
#87 = SURFACE_SIDE_STYLE ('',( #128 ) ) ;
#88 = ORIENTED_EDGE ( 'NONE', *, *, #12, .T. ) ;
#89 = CLOSED_SHELL ( 'NONE', ( #124, #295, #264, #212 ) ) ;
#90 = AXIS2_PLACEMENT_3D ( 'NONE', #45, #48, #140 ) ;
#91 = DIMENSIONAL_EXPONENTS ( 1.000000000000000000, 0.000000000000000000, 0.000000000000000000, 0.000000000000000000, 0.000000000000000000, 0.000000000000000000, 0.000000000000000000 ) ;
#92 = ORIENTED_EDGE ( 'NONE', *, *, #237, .T. ) ;
#93 = CARTESIAN_POINT ( 'NONE',  ( -0.3125000000000000555, 3.500000000000000000, 0.000000000000000000 ) ) ;
#94 = SURFACE_SIDE_STYLE ('',( #44 ) ) ;
#95 = UNCERTAINTY_MEASURE_WITH_UNIT (LENGTH_MEASURE( 1.000000000000000082E-05 ), #203, 'distance_accuracy_value', 'NONE');
#96 = VERTEX_POINT ( 'NONE', #190 ) ;
#97 = DIRECTION ( 'NONE',  ( 1.000000000000000000, 2.721437331438560697E-17, 0.000000000000000000 ) ) ;
#98 =( LENGTH_UNIT ( ) NAMED_UNIT ( * ) SI_UNIT ( $, .METRE. ) );
#99 = FILL_AREA_STYLE ('',( #127 ) ) ;
#100 = CARTESIAN_POINT ( 'NONE',  ( 0.000000000000000000, 1.250000000000000000, 0.000000000000000000 ) ) ;
#101 =( CONVERSION_BASED_UNIT ( 'INCH', #219 ) LENGTH_UNIT ( ) NAMED_UNIT ( #42 ) );
#102 = CYLINDRICAL_SURFACE ( 'NONE', #309, 0.3125000000000000000 ) ;
#103 = PRESENTATION_LAYER_ASSIGNMENT (  '', '', ( #305 ) ) ;
#104 = PRODUCT_CONTEXT ( 'NONE', #192, 'mechanical' ) ;
#105 = ORIENTED_EDGE ( 'NONE', *, *, #119, .T. ) ;
#106 = ORIENTED_EDGE ( 'NONE', *, *, #189, .T. ) ;
#107 = EDGE_LOOP ( 'NONE', ( #288, #254 ) ) ;
#108 = ORIENTED_EDGE ( 'NONE', *, *, #189, .F. ) ;
#109 =( LENGTH_UNIT ( ) NAMED_UNIT ( * ) SI_UNIT ( $, .METRE. ) );
#110 = DIMENSIONAL_EXPONENTS ( 1.000000000000000000, 0.000000000000000000, 0.000000000000000000, 0.000000000000000000, 0.000000000000000000, 0.000000000000000000, 0.000000000000000000 ) ;
#111 =( NAMED_UNIT ( * ) PLANE_ANGLE_UNIT ( ) SI_UNIT ( $, .RADIAN. ) );
#112 = AXIS2_PLACEMENT_3D ( 'NONE', #100, #79, #272 ) ;
#113 = AXIS2_PLACEMENT_3D ( 'NONE', #10, #123, #121 ) ;
#114 = SURFACE_SIDE_STYLE ('',( #162 ) ) ;
#115 = CARTESIAN_POINT ( 'NONE',  ( 0.000000000000000000, 0.000000000000000000, -0.3125000000000000000 ) ) ;
#116 = CIRCLE ( 'NONE', #141, 0.3125000000000000000 ) ;
#117 = SURFACE_SIDE_STYLE ('',( #245 ) ) ;
#118 = DIRECTION ( 'NONE',  ( -2.721437331438560389E-17, 1.000000000000000000, -0.000000000000000000 ) ) ;
#119 = EDGE_CURVE ( 'NONE', #96, #65, #27, .T. ) ;
#120 = CARTESIAN_POINT ( 'NONE',  ( 3.827021247335478926E-17, 0.000000000000000000, 0.3125000000000000000 ) ) ;
#121 = DIRECTION ( 'NONE',  ( -1.000000000000000000, 0.000000000000000000, 0.000000000000000000 ) ) ;
#122 = PRESENTATION_LAYER_ASSIGNMENT (  '', '', ( #73 ) ) ;
#123 = DIRECTION ( 'NONE',  ( -2.721437331438560389E-17, 1.000000000000000000, -0.000000000000000000 ) ) ;
#124 = ADVANCED_FACE ( 'NONE', ( #2 ), #37, .T. ) ;
#125 = DIRECTION ( 'NONE',  ( -0.000000000000000000, -1.000000000000000000, -0.000000000000000000 ) ) ;
#126 = EDGE_CURVE ( 'NONE', #226, #39, #200, .T. ) ;
#127 = FILL_AREA_STYLE_COLOUR ( '', #148 ) ;
#128 = SURFACE_STYLE_FILL_AREA ( #86 ) ;
#129 = CARTESIAN_POINT ( 'NONE',  ( 0.000000000000000000, 0.000000000000000000, 0.000000000000000000 ) ) ;
#130 = COLOUR_RGB ( '',1.000000000000000000, 0.000000000000000000, 0.000000000000000000 ) ;
#131 = LENGTH_MEASURE_WITH_UNIT ( LENGTH_MEASURE( 0.02539999999999999897 ), #258 );
#132 =( NAMED_UNIT ( * ) SI_UNIT ( $, .STERADIAN. ) SOLID_ANGLE_UNIT ( ) );
#133 =( NAMED_UNIT ( * ) PLANE_ANGLE_UNIT ( ) SI_UNIT ( $, .RADIAN. ) );
#134 =( LENGTH_UNIT ( ) NAMED_UNIT ( * ) SI_UNIT ( $, .METRE. ) );
#135 =( NAMED_UNIT ( * ) SI_UNIT ( $, .STERADIAN. ) SOLID_ANGLE_UNIT ( ) );
#136 = LENGTH_MEASURE_WITH_UNIT ( LENGTH_MEASURE( 0.02539999999999999897 ), #109 );
#137 = VECTOR ( 'NONE', #251, 39.37007874015748143 ) ;
#138 = EDGE_CURVE ( 'NONE', #71, #139, #234, .T. ) ;
#139 = VERTEX_POINT ( 'NONE', #307 ) ;
#140 = DIRECTION ( 'NONE',  ( 0.000000000000000000, 0.000000000000000000, -1.000000000000000000 ) ) ;
#141 = AXIS2_PLACEMENT_3D ( 'NONE', #183, #40, #199 ) ;
#142 = ADVANCED_FACE ( 'NONE', ( #35 ), #9, .F. ) ;
#143 = DIRECTION ( 'NONE',  ( -0.000000000000000000, -1.000000000000000000, -0.000000000000000000 ) ) ;
#144 = APPLICATION_CONTEXT ( 'automotive_design' ) ;
#145 =( NAMED_UNIT ( * ) SI_UNIT ( $, .STERADIAN. ) SOLID_ANGLE_UNIT ( ) );
#146 = UNCERTAINTY_MEASURE_WITH_UNIT (LENGTH_MEASURE( 1.000000000000000082E-05 ), #150, 'distance_accuracy_value', 'NONE');
#147 = AXIS2_PLACEMENT_3D ( 'NONE', #25, #163, #262 ) ;
#148 = COLOUR_RGB ( '',1.000000000000000000, 0.000000000000000000, 0.000000000000000000 ) ;
#149 = DIRECTION ( 'NONE',  ( 0.000000000000000000, 0.000000000000000000, -1.000000000000000000 ) ) ;
#150 =( CONVERSION_BASED_UNIT ( 'INCH', #136 ) LENGTH_UNIT ( ) NAMED_UNIT ( #70 ) );
#151 = SURFACE_STYLE_FILL_AREA ( #279 ) ;
#152 = UNCERTAINTY_MEASURE_WITH_UNIT (LENGTH_MEASURE( 1.000000000000000082E-05 ), #83, 'distance_accuracy_value', 'NONE');
#153 = ORIENTED_EDGE ( 'NONE', *, *, #158, .T. ) ;
#154 = EDGE_CURVE ( 'NONE', #65, #229, #116, .T. ) ;
#155 = STYLED_ITEM ( 'NONE', ( #69 ), #164 ) ;
#156 = STYLED_ITEM ( 'NONE', ( #243 ), #264 ) ;
#157 = APPLICATION_PROTOCOL_DEFINITION ( 'draft international standard', 'automotive_design', 1998, #192 ) ;
#158 = EDGE_CURVE ( 'NONE', #226, #71, #59, .T. ) ;
#159 = ORIENTED_EDGE ( 'NONE', *, *, #68, .F. ) ;
#160 =( GEOMETRIC_REPRESENTATION_CONTEXT ( 3 ) GLOBAL_UNCERTAINTY_ASSIGNED_CONTEXT ( ( #270 ) ) GLOBAL_UNIT_ASSIGNED_CONTEXT ( ( #101, #222, #242 ) ) REPRESENTATION_CONTEXT ( 'NONE', 'WORKASPACE' ) );
#161 = AXIS2_PLACEMENT_3D ( 'NONE', #53, #125, #149 ) ;
#162 = SURFACE_STYLE_FILL_AREA ( #235 ) ;
#163 = DIRECTION ( 'NONE',  ( -0.000000000000000000, -1.000000000000000000, -0.000000000000000000 ) ) ;
#164 = MANIFOLD_SOLID_BREP ( 'Revolve - Cutting Edge', #89 ) ;
#165 = SURFACE_STYLE_USAGE ( .BOTH. , #114 ) ;
#166 = CIRCLE ( 'NONE', #29, 0.3125000000000000000 ) ;
#167 = SURFACE_STYLE_USAGE ( .BOTH. , #94 ) ;
#168 = ORIENTED_EDGE ( 'NONE', *, *, #236, .F. ) ;
#169 = FACE_OUTER_BOUND ( 'NONE', #107, .T. ) ;
#170 = FACE_OUTER_BOUND ( 'NONE', #280, .T. ) ;
#171 = FILL_AREA_STYLE_COLOUR ( '', #207 ) ;
#172 = MECHANICAL_DESIGN_GEOMETRIC_PRESENTATION_REPRESENTATION (  '', ( #305 ), #299 ) ;
#173 = PRESENTATION_STYLE_ASSIGNMENT (( #1 ) ) ;
#174 = CARTESIAN_POINT ( 'NONE',  ( -0.3125000000000001665, 3.500000000000000000, 0.000000000000000000 ) ) ;
#175 = AXIS2_PLACEMENT_3D ( 'NONE', #49, #273, #97 ) ;
#176 =( GEOMETRIC_REPRESENTATION_CONTEXT ( 3 ) GLOBAL_UNCERTAINTY_ASSIGNED_CONTEXT ( ( #211 ) ) GLOBAL_UNIT_ASSIGNED_CONTEXT ( ( #38, #13, #132 ) ) REPRESENTATION_CONTEXT ( 'NONE', 'WORKASPACE' ) );
#177 = CARTESIAN_POINT ( 'NONE',  ( 0.000000000000000000, 0.000000000000000000, -0.3125000000000000000 ) ) ;
#178 = PLANE ( 'NONE',  #306 ) ;
#179 = CARTESIAN_POINT ( 'NONE',  ( 0.000000000000000000, 1.250000000000000000, 0.000000000000000000 ) ) ;
#180 = CIRCLE ( 'NONE', #259, 0.3125000000000000000 ) ;
#181 = ORIENTED_EDGE ( 'NONE', *, *, #154, .F. ) ;
#182 = ORIENTED_EDGE ( 'NONE', *, *, #271, .T. ) ;
#183 = CARTESIAN_POINT ( 'NONE',  ( 0.000000000000000000, 0.000000000000000000, 0.000000000000000000 ) ) ;
#184 = DIMENSIONAL_EXPONENTS ( 1.000000000000000000, 0.000000000000000000, 0.000000000000000000, 0.000000000000000000, 0.000000000000000000, 0.000000000000000000, 0.000000000000000000 ) ;
#185 = DIRECTION ( 'NONE',  ( -1.000000000000000000, 0.000000000000000000, 0.000000000000000000 ) ) ;
#186 = LENGTH_MEASURE_WITH_UNIT ( LENGTH_MEASURE( 0.02539999999999999897 ), #286 );
#187 = CIRCLE ( 'NONE', #22, 0.3125000000000000000 ) ;
#188 = CARTESIAN_POINT ( 'NONE',  ( 0.000000000000000000, 0.000000000000000000, 0.000000000000000000 ) ) ;
#189 = EDGE_CURVE ( 'NONE', #206, #96, #166, .T. ) ;
#190 = CARTESIAN_POINT ( 'NONE',  ( 3.827021247335478926E-17, 1.250000000000000000, 0.3125000000000000000 ) ) ;
#191 = AXIS2_PLACEMENT_3D ( 'NONE', #248, #31, #283 ) ;
#192 = APPLICATION_CONTEXT ( 'automotive_design' ) ;
#193 =( NAMED_UNIT ( * ) SI_UNIT ( $, .STERADIAN. ) SOLID_ANGLE_UNIT ( ) );
#194 = CARTESIAN_POINT ( 'NONE',  ( 0.3124999999999999445, 3.500000000000000000, 3.827021247335478926E-17 ) ) ;
#195 = SURFACE_STYLE_FILL_AREA ( #99 ) ;
#196 =( CONVERSION_BASED_UNIT ( 'INCH', #80 ) LENGTH_UNIT ( ) NAMED_UNIT ( #263 ) );
#197 = LINE ( 'NONE', #177, #217 ) ;
#198 = CARTESIAN_POINT ( 'NONE',  ( -6.123233995736759873E-17, 3.500000000000000000, 0.000000000000000000 ) ) ;
#199 = DIRECTION ( 'NONE',  ( 0.000000000000000000, 0.000000000000000000, -1.000000000000000000 ) ) ;
#200 = CIRCLE ( 'NONE', #112, 0.3125000000000000000 ) ;
#201 = MECHANICAL_DESIGN_GEOMETRIC_PRESENTATION_REPRESENTATION (  '', ( #300 ), #176 ) ;
#202 = LENGTH_MEASURE_WITH_UNIT ( LENGTH_MEASURE( 0.02539999999999999897 ), #81 );
#203 =( CONVERSION_BASED_UNIT ( 'INCH', #131 ) LENGTH_UNIT ( ) NAMED_UNIT ( #184 ) );
#204 = ADVANCED_BREP_SHAPE_REPRESENTATION ( '44322W', ( #164, #64, #218 ), #67 ) ;
#205 = EDGE_LOOP ( 'NONE', ( #108, #14 ) ) ;
#206 = VERTEX_POINT ( 'NONE', #26 ) ;
#207 = COLOUR_RGB ( '',1.000000000000000000, 0.000000000000000000, 0.000000000000000000 ) ;
#208 = DIRECTION ( 'NONE',  ( 0.000000000000000000, 1.000000000000000000, 0.000000000000000000 ) ) ;
#209 = PRODUCT_DEFINITION_FORMATION_WITH_SPECIFIED_SOURCE ( 'ANY', '', #58, .NOT_KNOWN. ) ;
#210 = ORIENTED_EDGE ( 'NONE', *, *, #237, .F. ) ;
#211 = UNCERTAINTY_MEASURE_WITH_UNIT (LENGTH_MEASURE( 1.000000000000000082E-05 ), #38, 'distance_accuracy_value', 'NONE');
#212 = ADVANCED_FACE ( 'NONE', ( #169 ), #240, .T. ) ;
#213 = PRODUCT_RELATED_PRODUCT_CATEGORY ( 'part', '', ( #58 ) ) ;
#214 = CYLINDRICAL_SURFACE ( 'NONE', #85, 0.3125000000000000000 ) ;
#215 = DIRECTION ( 'NONE',  ( -0.000000000000000000, -1.000000000000000000, -0.000000000000000000 ) ) ;
#216 = FACE_OUTER_BOUND ( 'NONE', #228, .T. ) ;
#217 = VECTOR ( 'NONE', #56, 39.37007874015748143 ) ;
#218 = AXIS2_PLACEMENT_3D ( 'NONE', #129, #297, #281 ) ;
#219 = LENGTH_MEASURE_WITH_UNIT ( LENGTH_MEASURE( 0.02539999999999999897 ), #134 );
#220 = CYLINDRICAL_SURFACE ( 'NONE', #161, 0.3125000000000000000 ) ;
#221 = DIRECTION ( 'NONE',  ( -1.000000000000000000, 0.000000000000000000, 0.000000000000000000 ) ) ;
#222 =( NAMED_UNIT ( * ) PLANE_ANGLE_UNIT ( ) SI_UNIT ( $, .RADIAN. ) );
#223 = PRESENTATION_STYLE_ASSIGNMENT (( #250 ) ) ;
#224 = SURFACE_STYLE_USAGE ( .BOTH. , #87 ) ;
#225 = MECHANICAL_DESIGN_GEOMETRIC_PRESENTATION_REPRESENTATION (  '', ( #73 ), #78 ) ;
#226 = VERTEX_POINT ( 'NONE', #238 ) ;
#227 = DIRECTION ( 'NONE',  ( 0.000000000000000000, -0.000000000000000000, 1.000000000000000000 ) ) ;
#228 = EDGE_LOOP ( 'NONE', ( #256, #88, #303, #181 ) ) ;
#229 = VERTEX_POINT ( 'NONE', #115 ) ;
#230 = MECHANICAL_DESIGN_GEOMETRIC_PRESENTATION_REPRESENTATION (  '', ( #155 ), #3 ) ;
#231 = EDGE_LOOP ( 'NONE', ( #159, #182, #153, #210 ) ) ;
#232 = EDGE_LOOP ( 'NONE', ( #106, #105, #168, #63 ) ) ;
#233 = DIRECTION ( 'NONE',  ( -2.721437331438560697E-17, 1.000000000000000000, 0.000000000000000000 ) ) ;
#234 = CIRCLE ( 'NONE', #191, 0.3125000000000000555 ) ;
#235 = FILL_AREA_STYLE ('',( #285 ) ) ;
#236 = EDGE_CURVE ( 'NONE', #229, #65, #187, .T. ) ;
#237 = EDGE_CURVE ( 'NONE', #139, #71, #253, .T. ) ;
#238 = CARTESIAN_POINT ( 'NONE',  ( -0.3125000000000000000, 1.250000000000000000, 0.000000000000000000 ) ) ;
#239 = CARTESIAN_POINT ( 'NONE',  ( -6.123233995736759873E-17, 3.500000000000000000, 0.000000000000000000 ) ) ;
#240 = PLANE ( 'NONE',  #90 ) ;
#241 = UNCERTAINTY_MEASURE_WITH_UNIT (LENGTH_MEASURE( 1.000000000000000082E-05 ), #196, 'distance_accuracy_value', 'NONE');
#242 =( NAMED_UNIT ( * ) SI_UNIT ( $, .STERADIAN. ) SOLID_ANGLE_UNIT ( ) );
#243 = PRESENTATION_STYLE_ASSIGNMENT (( #52 ) ) ;
#244 = SURFACE_SIDE_STYLE ('',( #151 ) ) ;
#245 = SURFACE_STYLE_FILL_AREA ( #75 ) ;
#246 =( NAMED_UNIT ( * ) PLANE_ANGLE_UNIT ( ) SI_UNIT ( $, .RADIAN. ) );
#247 = CIRCLE ( 'NONE', #147, 0.3125000000000000000 ) ;
#248 = CARTESIAN_POINT ( 'NONE',  ( -6.123233995736759873E-17, 3.500000000000000000, 0.000000000000000000 ) ) ;
#249 = CARTESIAN_POINT ( 'NONE',  ( 0.000000000000000000, 1.250000000000000000, 0.000000000000000000 ) ) ;
#250 = SURFACE_STYLE_USAGE ( .BOTH. , #244 ) ;
#251 = DIRECTION ( 'NONE',  ( -2.721437331438560697E-17, 1.000000000000000000, -0.000000000000000000 ) ) ;
#252 = MECHANICAL_DESIGN_GEOMETRIC_PRESENTATION_REPRESENTATION (  '', ( #16 ), #160 ) ;
#253 = CIRCLE ( 'NONE', #113, 0.3125000000000000555 ) ;
#254 = ORIENTED_EDGE ( 'NONE', *, *, #154, .T. ) ;
#255 = APPLICATION_PROTOCOL_DEFINITION ( 'draft international standard', 'automotive_design', 1998, #144 ) ;
#256 = ORIENTED_EDGE ( 'NONE', *, *, #119, .F. ) ;
#257 = DIMENSIONAL_EXPONENTS ( 1.000000000000000000, 0.000000000000000000, 0.000000000000000000, 0.000000000000000000, 0.000000000000000000, 0.000000000000000000, 0.000000000000000000 ) ;
#258 =( LENGTH_UNIT ( ) NAMED_UNIT ( * ) SI_UNIT ( $, .METRE. ) );
#259 = AXIS2_PLACEMENT_3D ( 'NONE', #249, #33, #221 ) ;
#260 = ORIENTED_EDGE ( 'NONE', *, *, #138, .F. ) ;
#261 = FILL_AREA_STYLE_COLOUR ( '', #54 ) ;
#262 = DIRECTION ( 'NONE',  ( 0.000000000000000000, 0.000000000000000000, -1.000000000000000000 ) ) ;
#263 = DIMENSIONAL_EXPONENTS ( 1.000000000000000000, 0.000000000000000000, 0.000000000000000000, 0.000000000000000000, 0.000000000000000000, 0.000000000000000000, 0.000000000000000000 ) ;
#264 = ADVANCED_FACE ( 'NONE', ( #216 ), #220, .T. ) ;
#265 = FACE_OUTER_BOUND ( 'NONE', #231, .T. ) ;
#266 = FILL_AREA_STYLE ('',( #171 ) ) ;
#267 = COLOUR_RGB ( '',0.7921568627450980005, 0.8196078431372548767, 0.9333333333333333481 ) ;
#268 =( LENGTH_UNIT ( ) NAMED_UNIT ( * ) SI_UNIT ( $, .METRE. ) );
#269 = DIRECTION ( 'NONE',  ( 0.000000000000000000, 0.000000000000000000, -1.000000000000000000 ) ) ;
#270 = UNCERTAINTY_MEASURE_WITH_UNIT (LENGTH_MEASURE( 1.000000000000000082E-05 ), #101, 'distance_accuracy_value', 'NONE');
#271 = EDGE_CURVE ( 'NONE', #39, #226, #180, .T. ) ;
#272 = DIRECTION ( 'NONE',  ( -1.000000000000000000, 0.000000000000000000, 0.000000000000000000 ) ) ;
#273 = DIRECTION ( 'NONE',  ( 2.721437331438560697E-17, -1.000000000000000000, 0.000000000000000000 ) ) ;
#274 = PRESENTATION_LAYER_ASSIGNMENT (  '', '', ( #16 ) ) ;
#275 =( GEOMETRIC_REPRESENTATION_CONTEXT ( 3 ) GLOBAL_UNCERTAINTY_ASSIGNED_CONTEXT ( ( #152 ) ) GLOBAL_UNIT_ASSIGNED_CONTEXT ( ( #83, #246, #193 ) ) REPRESENTATION_CONTEXT ( 'NONE', 'WORKASPACE' ) );
#276 = DIRECTION ( 'NONE',  ( -2.721437331438560697E-17, 1.000000000000000000, -0.000000000000000000 ) ) ;
#277 = ADVANCED_FACE ( 'NONE', ( #7 ), #102, .T. ) ;
#278 = PRODUCT_DEFINITION_SHAPE ( 'NONE', 'NONE',  #19 ) ;
#279 = FILL_AREA_STYLE ('',( #57 ) ) ;
#280 = EDGE_LOOP ( 'NONE', ( #61, #92 ) ) ;
#281 = DIRECTION ( 'NONE',  ( 1.000000000000000000, 0.000000000000000000, 0.000000000000000000 ) ) ;
#282 = ORIENTED_EDGE ( 'NONE', *, *, #271, .F. ) ;
#283 = DIRECTION ( 'NONE',  ( -1.000000000000000000, 0.000000000000000000, 0.000000000000000000 ) ) ;
#284 = LENGTH_MEASURE_WITH_UNIT ( LENGTH_MEASURE( 0.02539999999999999897 ), #268 );
#285 = FILL_AREA_STYLE_COLOUR ( '', #267 ) ;
#286 =( LENGTH_UNIT ( ) NAMED_UNIT ( * ) SI_UNIT ( $, .METRE. ) );
#287 = CARTESIAN_POINT ( 'NONE',  ( 0.3125000000000000000, 1.250000000000000000, 3.827021247335478926E-17 ) ) ;
#288 = ORIENTED_EDGE ( 'NONE', *, *, #236, .T. ) ;
#289 = EDGE_LOOP ( 'NONE', ( #298, #47, #260, #20 ) ) ;
#290 = CARTESIAN_POINT ( 'NONE',  ( 0.000000000000000000, 0.000000000000000000, 0.000000000000000000 ) ) ;
#291 = DIRECTION ( 'NONE',  ( -1.000000000000000000, 0.000000000000000000, 0.000000000000000000 ) ) ;
#292 = AXIS2_PLACEMENT_3D ( 'NONE', #304, #233, #66 ) ;
#293 = AXIS2_PLACEMENT_3D ( 'NONE', #290, #77, #5 ) ;
#294 =( NAMED_UNIT ( * ) PLANE_ANGLE_UNIT ( ) SI_UNIT ( $, .RADIAN. ) );
#295 = ADVANCED_FACE ( 'NONE', ( #296 ), #178, .T. ) ;
#296 = FACE_OUTER_BOUND ( 'NONE', #205, .T. ) ;
#297 = DIRECTION ( 'NONE',  ( 0.000000000000000000, 0.000000000000000000, 1.000000000000000000 ) ) ;
#298 = ORIENTED_EDGE ( 'NONE', *, *, #126, .T. ) ;
#299 =( GEOMETRIC_REPRESENTATION_CONTEXT ( 3 ) GLOBAL_UNCERTAINTY_ASSIGNED_CONTEXT ( ( #241 ) ) GLOBAL_UNIT_ASSIGNED_CONTEXT ( ( #196, #294, #145 ) ) REPRESENTATION_CONTEXT ( 'NONE', 'WORKASPACE' ) );
#300 = STYLED_ITEM ( 'NONE', ( #223 ), #295 ) ;
#301 =( NAMED_UNIT ( * ) PLANE_ANGLE_UNIT ( ) SI_UNIT ( $, .RADIAN. ) );
#302 =( NAMED_UNIT ( * ) SI_UNIT ( $, .STERADIAN. ) SOLID_ANGLE_UNIT ( ) );
#303 = ORIENTED_EDGE ( 'NONE', *, *, #74, .T. ) ;
#304 = CARTESIAN_POINT ( 'NONE',  ( 1.157222054523036369E-34, 1.250000000000000000, 0.000000000000000000 ) ) ;
#305 = STYLED_ITEM ( 'NONE', ( #173 ), #124 ) ;
#306 = AXIS2_PLACEMENT_3D ( 'NONE', #179, #208, #227 ) ;
#307 = CARTESIAN_POINT ( 'NONE',  ( 0.3125000000000000000, 3.500000000000000000, 3.827021247335478926E-17 ) ) ;
#308 = EDGE_LOOP ( 'NONE', ( #76, #282 ) ) ;
#309 = AXIS2_PLACEMENT_3D ( 'NONE', #198, #60, #291 ) ;
ENDSEC;
END-ISO-10303-21;
