ISO-10303-21;
HEADER;
FILE_DESCRIPTION (( 'STEP AP214' ),
    '1' );
FILE_NAME ('03705.STEP',
    '2023-06-22T15:40:59',
    ( '' ),
    ( '' ),
    'SwSTEP 2.0',
    'SolidWorks 2023',
    '' );
FILE_SCHEMA (( 'AUTOMOTIVE_DESIGN' ));
ENDSEC;

DATA;
#1 = DIRECTION ( 'NONE',  ( -1.000000000000000000, 0.000000000000000000, 0.000000000000000000 ) ) ;
#2 = STYLED_ITEM ( 'NONE', ( #120 ), #92 ) ;
#3 = FACE_OUTER_BOUND ( 'NONE', #15, .T. ) ;
#4 = ORIENTED_EDGE ( 'NONE', *, *, #7, .F. ) ;
#5 = STYLED_ITEM ( 'NONE', ( #105 ), #147 ) ;
#6 = DIRECTION ( 'NONE',  ( -0.000000000000000000, -1.000000000000000000, -0.000000000000000000 ) ) ;
#7 = EDGE_CURVE ( 'NONE', #298, #63, #183, .T. ) ;
#8 = FILL_AREA_STYLE ('',( #102 ) ) ;
#9 = EDGE_CURVE ( 'NONE', #262, #69, #174, .T. ) ;
#10 = PRESENTATION_STYLE_ASSIGNMENT (( #140 ) ) ;
#11 =( CONVERSION_BASED_UNIT ( 'INCH', #40 ) LENGTH_UNIT ( ) NAMED_UNIT ( #158 ) );
#12 = EDGE_CURVE ( 'NONE', #18, #63, #170, .T. ) ;
#13 = PRESENTATION_LAYER_ASSIGNMENT (  '', '', ( #2 ) ) ;
#14 = AXIS2_PLACEMENT_3D ( 'NONE', #103, #58, #301 ) ;
#15 = EDGE_LOOP ( 'NONE', ( #211, #238, #4, #73 ) ) ;
#16 = SURFACE_STYLE_FILL_AREA ( #59 ) ;
#17 = FACE_OUTER_BOUND ( 'NONE', #221, .T. ) ;
#18 = VERTEX_POINT ( 'NONE', #223 ) ;
#19 = SURFACE_STYLE_USAGE ( .BOTH. , #243 ) ;
#20 =( LENGTH_UNIT ( ) NAMED_UNIT ( * ) SI_UNIT ( $, .METRE. ) );
#21 = VERTEX_POINT ( 'NONE', #48 ) ;
#22 = DIRECTION ( 'NONE',  ( -0.000000000000000000, -1.000000000000000000, -0.000000000000000000 ) ) ;
#23 = UNCERTAINTY_MEASURE_WITH_UNIT (LENGTH_MEASURE( 1.000000000000000082E-05 ), #108, 'distance_accuracy_value', 'NONE');
#24 = AXIS2_PLACEMENT_3D ( 'NONE', #265, #66, #42 ) ;
#25 = ORIENTED_EDGE ( 'NONE', *, *, #61, .F. ) ;
#26 = APPLICATION_PROTOCOL_DEFINITION ( 'draft international standard', 'automotive_design', 1998, #275 ) ;
#27 =( NAMED_UNIT ( * ) SI_UNIT ( $, .STERADIAN. ) SOLID_ANGLE_UNIT ( ) );
#28 = ADVANCED_FACE ( 'NONE', ( #3 ), #44, .T. ) ;
#29 = DIRECTION ( 'NONE',  ( 0.000000000000000000, 0.000000000000000000, -1.000000000000000000 ) ) ;
#30 = COLOUR_RGB ( '',1.000000000000000000, 0.000000000000000000, 0.000000000000000000 ) ;
#31 =( LENGTH_UNIT ( ) NAMED_UNIT ( * ) SI_UNIT ( $, .METRE. ) );
#32 = CARTESIAN_POINT ( 'NONE',  ( 0.000000000000000000, 0.000000000000000000, 0.000000000000000000 ) ) ;
#33 = DIRECTION ( 'NONE',  ( -2.449293598294703764E-17, 1.000000000000000000, -0.000000000000000000 ) ) ;
#34 = LENGTH_MEASURE_WITH_UNIT ( LENGTH_MEASURE( 0.02539999999999999897 ), #31 );
#35 = APPLICATION_CONTEXT ( 'automotive_design' ) ;
#36 = MECHANICAL_DESIGN_GEOMETRIC_PRESENTATION_REPRESENTATION (  '', ( #2 ), #51 ) ;
#37 = COLOUR_RGB ( '',1.000000000000000000, 0.000000000000000000, 0.000000000000000000 ) ;
#38 = DIRECTION ( 'NONE',  ( -2.449293598294704072E-17, 1.000000000000000000, -0.000000000000000000 ) ) ;
#39 = COLOUR_RGB ( '',1.000000000000000000, 0.000000000000000000, 0.000000000000000000 ) ;
#40 = LENGTH_MEASURE_WITH_UNIT ( LENGTH_MEASURE( 0.02539999999999999897 ), #182 );
#41 = DIRECTION ( 'NONE',  ( 0.000000000000000000, -1.000000000000000000, -0.000000000000000000 ) ) ;
#42 = DIRECTION ( 'NONE',  ( -1.000000000000000000, 0.000000000000000000, 0.000000000000000000 ) ) ;
#43 = CARTESIAN_POINT ( 'NONE',  ( 0.000000000000000000, 4.000000000000000000, -0.3750000000000000555 ) ) ;
#44 = CYLINDRICAL_SURFACE ( 'NONE', #235, 0.3750000000000001110 ) ;
#45 = PRESENTATION_LAYER_ASSIGNMENT (  '', '', ( #5 ) ) ;
#46 = AXIS2_PLACEMENT_3D ( 'NONE', #32, #76, #52 ) ;
#47 = CARTESIAN_POINT ( 'NONE',  ( -0.3750000000000001665, 6.500000000000000000, 0.000000000000000000 ) ) ;
#48 = CARTESIAN_POINT ( 'NONE',  ( 4.592425496802575451E-17, 0.000000000000000000, 0.3750000000000000555 ) ) ;
#49 = DIRECTION ( 'NONE',  ( -2.449293598294704072E-17, 1.000000000000000000, -0.000000000000000000 ) ) ;
#50 = EDGE_LOOP ( 'NONE', ( #71, #109 ) ) ;
#51 =( GEOMETRIC_REPRESENTATION_CONTEXT ( 3 ) GLOBAL_UNCERTAINTY_ASSIGNED_CONTEXT ( ( #95 ) ) GLOBAL_UNIT_ASSIGNED_CONTEXT ( ( #252, #104, #200 ) ) REPRESENTATION_CONTEXT ( 'NONE', 'WORKASPACE' ) );
#52 = DIRECTION ( 'NONE',  ( 1.000000000000000000, 0.000000000000000000, 0.000000000000000000 ) ) ;
#53 = CIRCLE ( 'NONE', #24, 0.3750000000000000555 ) ;
#54 = PRESENTATION_LAYER_ASSIGNMENT (  '', '', ( #98 ) ) ;
#55 = CARTESIAN_POINT ( 'NONE',  ( 0.000000000000000000, 0.000000000000000000, 0.000000000000000000 ) ) ;
#56 = PRODUCT_DEFINITION ( 'UNKNOWN', '', #85, #62 ) ;
#57 = CARTESIAN_POINT ( 'NONE',  ( 0.3750000000000000555, 6.500000000000000000, 0.000000000000000000 ) ) ;
#58 = DIRECTION ( 'NONE',  ( -0.000000000000000000, -1.000000000000000000, -0.000000000000000000 ) ) ;
#59 = FILL_AREA_STYLE ('',( #259 ) ) ;
#60 = AXIS2_PLACEMENT_3D ( 'NONE', #307, #281, #193 ) ;
#61 = EDGE_CURVE ( 'NONE', #18, #289, #53, .T. ) ;
#62 = PRODUCT_DEFINITION_CONTEXT ( 'detailed design', #35, 'design' ) ;
#63 = VERTEX_POINT ( 'NONE', #165 ) ;
#64 = FACE_OUTER_BOUND ( 'NONE', #287, .T. ) ;
#65 =( GEOMETRIC_REPRESENTATION_CONTEXT ( 3 ) GLOBAL_UNCERTAINTY_ASSIGNED_CONTEXT ( ( #213 ) ) GLOBAL_UNIT_ASSIGNED_CONTEXT ( ( #282, #268, #143 ) ) REPRESENTATION_CONTEXT ( 'NONE', 'WORKASPACE' ) );
#66 = DIRECTION ( 'NONE',  ( -2.449293598294704072E-17, 1.000000000000000000, -0.000000000000000000 ) ) ;
#67 = FILL_AREA_STYLE ('',( #306 ) ) ;
#68 = DIRECTION ( 'NONE',  ( 0.000000000000000000, 0.000000000000000000, -1.000000000000000000 ) ) ;
#69 = VERTEX_POINT ( 'NONE', #216 ) ;
#70 = DIRECTION ( 'NONE',  ( -2.449293598294704072E-17, 1.000000000000000000, -0.000000000000000000 ) ) ;
#71 = ORIENTED_EDGE ( 'NONE', *, *, #7, .T. ) ;
#72 = CARTESIAN_POINT ( 'NONE',  ( 0.000000000000000000, 0.000000000000000000, 0.000000000000000000 ) ) ;
#73 = ORIENTED_EDGE ( 'NONE', *, *, #119, .F. ) ;
#74 = CYLINDRICAL_SURFACE ( 'NONE', #137, 0.3750000000000000555 ) ;
#75 = PRODUCT_RELATED_PRODUCT_CATEGORY ( 'part', '', ( #134 ) ) ;
#76 = DIRECTION ( 'NONE',  ( 0.000000000000000000, 0.000000000000000000, 1.000000000000000000 ) ) ;
#77 = SURFACE_STYLE_FILL_AREA ( #154 ) ;
#78 = SURFACE_SIDE_STYLE ('',( #270 ) ) ;
#79 = MECHANICAL_DESIGN_GEOMETRIC_PRESENTATION_REPRESENTATION (  '', ( #98 ), #274 ) ;
#80 =( NAMED_UNIT ( * ) SI_UNIT ( $, .STERADIAN. ) SOLID_ANGLE_UNIT ( ) );
#81 = CARTESIAN_POINT ( 'NONE',  ( 7.582401355855259480E-33, 4.000000000000000000, 0.000000000000000000 ) ) ;
#82 =( CONVERSION_BASED_UNIT ( 'INCH', #202 ) LENGTH_UNIT ( ) NAMED_UNIT ( #189 ) );
#83 = MECHANICAL_DESIGN_GEOMETRIC_PRESENTATION_REPRESENTATION (  '', ( #5 ), #226 ) ;
#84 = ORIENTED_EDGE ( 'NONE', *, *, #258, .F. ) ;
#85 = PRODUCT_DEFINITION_FORMATION_WITH_SPECIFIED_SOURCE ( 'ANY', '', #134, .NOT_KNOWN. ) ;
#86 = SURFACE_SIDE_STYLE ('',( #16 ) ) ;
#87 = ADVANCED_FACE ( 'NONE', ( #190 ), #260, .T. ) ;
#88 = DIMENSIONAL_EXPONENTS ( 1.000000000000000000, 0.000000000000000000, 0.000000000000000000, 0.000000000000000000, 0.000000000000000000, 0.000000000000000000, 0.000000000000000000 ) ;
#89 =( GEOMETRIC_REPRESENTATION_CONTEXT ( 3 ) GLOBAL_UNCERTAINTY_ASSIGNED_CONTEXT ( ( #113 ) ) GLOBAL_UNIT_ASSIGNED_CONTEXT ( ( #82, #299, #155 ) ) REPRESENTATION_CONTEXT ( 'NONE', 'WORKASPACE' ) );
#90 = MECHANICAL_DESIGN_GEOMETRIC_PRESENTATION_REPRESENTATION (  '', ( #280 ), #89 ) ;
#91 = DIRECTION ( 'NONE',  ( -0.000000000000000000, -1.000000000000000000, -0.000000000000000000 ) ) ;
#92 = ADVANCED_FACE ( 'NONE', ( #121 ), #240, .T. ) ;
#93 = EDGE_LOOP ( 'NONE', ( #151, #150, #296, #194 ) ) ;
#94 = FILL_AREA_STYLE_COLOUR ( '', #37 ) ;
#95 = UNCERTAINTY_MEASURE_WITH_UNIT (LENGTH_MEASURE( 1.000000000000000082E-05 ), #252, 'distance_accuracy_value', 'NONE');
#96 = SURFACE_STYLE_FILL_AREA ( #288 ) ;
#97 = ORIENTED_EDGE ( 'NONE', *, *, #167, .T. ) ;
#98 = STYLED_ITEM ( 'NONE', ( #227 ), #166 ) ;
#99 = VERTEX_POINT ( 'NONE', #254 ) ;
#100 = PRODUCT_CONTEXT ( 'NONE', #275, 'mechanical' ) ;
#101 = EDGE_LOOP ( 'NONE', ( #148, #116 ) ) ;
#102 = FILL_AREA_STYLE_COLOUR ( '', #145 ) ;
#103 = CARTESIAN_POINT ( 'NONE',  ( 0.000000000000000000, 4.000000000000000000, 0.000000000000000000 ) ) ;
#104 =( NAMED_UNIT ( * ) PLANE_ANGLE_UNIT ( ) SI_UNIT ( $, .RADIAN. ) );
#105 = PRESENTATION_STYLE_ASSIGNMENT (( #181 ) ) ;
#106 = PLANE ( 'NONE',  #231 ) ;
#107 = MECHANICAL_DESIGN_GEOMETRIC_PRESENTATION_REPRESENTATION (  '', ( #162 ), #123 ) ;
#108 =( CONVERSION_BASED_UNIT ( 'INCH', #257 ) LENGTH_UNIT ( ) NAMED_UNIT ( #208 ) );
#109 = ORIENTED_EDGE ( 'NONE', *, *, #244, .T. ) ;
#110 = UNCERTAINTY_MEASURE_WITH_UNIT (LENGTH_MEASURE( 1.000000000000000082E-05 ), #173, 'distance_accuracy_value', 'NONE');
#111 = CLOSED_SHELL ( 'NONE', ( #147, #92, #276, #205 ) ) ;
#112 =( NAMED_UNIT ( * ) PLANE_ANGLE_UNIT ( ) SI_UNIT ( $, .RADIAN. ) );
#113 = UNCERTAINTY_MEASURE_WITH_UNIT (LENGTH_MEASURE( 1.000000000000000082E-05 ), #82, 'distance_accuracy_value', 'NONE');
#114 =( NAMED_UNIT ( * ) SI_UNIT ( $, .STERADIAN. ) SOLID_ANGLE_UNIT ( ) );
#115 = ADVANCED_BREP_SHAPE_REPRESENTATION ( '03705', ( #168, #166, #46 ), #146 ) ;
#116 = ORIENTED_EDGE ( 'NONE', *, *, #167, .F. ) ;
#117 = AXIS2_PLACEMENT_3D ( 'NONE', #184, #160, #255 ) ;
#118 = DIRECTION ( 'NONE',  ( 0.000000000000000000, 0.000000000000000000, -1.000000000000000000 ) ) ;
#119 = EDGE_CURVE ( 'NONE', #289, #298, #130, .T. ) ;
#120 = PRESENTATION_STYLE_ASSIGNMENT (( #19 ) ) ;
#121 = FACE_OUTER_BOUND ( 'NONE', #101, .T. ) ;
#122 = CARTESIAN_POINT ( 'NONE',  ( 0.3750000000000000555, 6.500000000000000000, 4.592425496802576068E-17 ) ) ;
#123 =( GEOMETRIC_REPRESENTATION_CONTEXT ( 3 ) GLOBAL_UNCERTAINTY_ASSIGNED_CONTEXT ( ( #23 ) ) GLOBAL_UNIT_ASSIGNED_CONTEXT ( ( #108, #186, #212 ) ) REPRESENTATION_CONTEXT ( 'NONE', 'WORKASPACE' ) );
#124 = LINE ( 'NONE', #225, #125 ) ;
#125 = VECTOR ( 'NONE', #6, 39.37007874015748143 ) ;
#126 = CIRCLE ( 'NONE', #14, 0.3750000000000000555 ) ;
#127 = SURFACE_STYLE_USAGE ( .BOTH. , #178 ) ;
#128 = ADVANCED_FACE ( 'NONE', ( #229 ), #106, .F. ) ;
#129 = APPLICATION_PROTOCOL_DEFINITION ( 'draft international standard', 'automotive_design', 1998, #35 ) ;
#130 = LINE ( 'NONE', #272, #242 ) ;
#131 = AXIS2_PLACEMENT_3D ( 'NONE', #197, #49, #196 ) ;
#132 = CIRCLE ( 'NONE', #232, 0.3750000000000000555 ) ;
#133 = FILL_AREA_STYLE ('',( #207 ) ) ;
#134 = PRODUCT ( '03705', '03705', '', ( #100 ) ) ;
#135 = ORIENTED_EDGE ( 'NONE', *, *, #258, .T. ) ;
#136 = PLANE ( 'NONE',  #236 ) ;
#137 = AXIS2_PLACEMENT_3D ( 'NONE', #55, #251, #29 ) ;
#138 = ORIENTED_EDGE ( 'NONE', *, *, #153, .F. ) ;
#139 = COLOUR_RGB ( '',0.7921568627450980005, 0.8196078431372548767, 0.9333333333333333481 ) ;
#140 = SURFACE_STYLE_USAGE ( .BOTH. , #277 ) ;
#141 = CARTESIAN_POINT ( 'NONE',  ( 1.124819836996391367E-34, 4.000000000000000000, 0.000000000000000000 ) ) ;
#142 = CARTESIAN_POINT ( 'NONE',  ( -6.123233995736759873E-17, 6.500000000000000000, 0.000000000000000000 ) ) ;
#143 =( NAMED_UNIT ( * ) SI_UNIT ( $, .STERADIAN. ) SOLID_ANGLE_UNIT ( ) );
#144 = SURFACE_STYLE_FILL_AREA ( #67 ) ;
#145 = COLOUR_RGB ( '',1.000000000000000000, 0.000000000000000000, 0.000000000000000000 ) ;
#146 =( GEOMETRIC_REPRESENTATION_CONTEXT ( 3 ) GLOBAL_UNCERTAINTY_ASSIGNED_CONTEXT ( ( #110 ) ) GLOBAL_UNIT_ASSIGNED_CONTEXT ( ( #173, #163, #114 ) ) REPRESENTATION_CONTEXT ( 'NONE', 'WORKASPACE' ) );
#147 = ADVANCED_FACE ( 'NONE', ( #175 ), #74, .T. ) ;
#148 = ORIENTED_EDGE ( 'NONE', *, *, #293, .F. ) ;
#149 = DIRECTION ( 'NONE',  ( -1.000000000000000000, -2.449293598294703764E-17, 0.000000000000000000 ) ) ;
#150 = ORIENTED_EDGE ( 'NONE', *, *, #61, .T. ) ;
#151 = ORIENTED_EDGE ( 'NONE', *, *, #12, .F. ) ;
#152 =( NAMED_UNIT ( * ) PLANE_ANGLE_UNIT ( ) SI_UNIT ( $, .RADIAN. ) );
#153 = EDGE_CURVE ( 'NONE', #99, #21, #124, .T. ) ;
#154 = FILL_AREA_STYLE ('',( #199 ) ) ;
#155 =( NAMED_UNIT ( * ) SI_UNIT ( $, .STERADIAN. ) SOLID_ANGLE_UNIT ( ) );
#156 = AXIS2_PLACEMENT_3D ( 'NONE', #72, #91, #303 ) ;
#157 = SURFACE_STYLE_USAGE ( .BOTH. , #86 ) ;
#158 = DIMENSIONAL_EXPONENTS ( 1.000000000000000000, 0.000000000000000000, 0.000000000000000000, 0.000000000000000000, 0.000000000000000000, 0.000000000000000000, 0.000000000000000000 ) ;
#159 = DIMENSIONAL_EXPONENTS ( 1.000000000000000000, 0.000000000000000000, 0.000000000000000000, 0.000000000000000000, 0.000000000000000000, 0.000000000000000000, 0.000000000000000000 ) ;
#160 = DIRECTION ( 'NONE',  ( -0.000000000000000000, -1.000000000000000000, -0.000000000000000000 ) ) ;
#161 = VECTOR ( 'NONE', #22, 39.37007874015748143 ) ;
#162 = STYLED_ITEM ( 'NONE', ( #237 ), #205 ) ;
#163 =( NAMED_UNIT ( * ) PLANE_ANGLE_UNIT ( ) SI_UNIT ( $, .RADIAN. ) );
#164 = DIMENSIONAL_EXPONENTS ( 1.000000000000000000, 0.000000000000000000, 0.000000000000000000, 0.000000000000000000, 0.000000000000000000, 0.000000000000000000, 0.000000000000000000 ) ;
#165 = CARTESIAN_POINT ( 'NONE',  ( 0.3750000000000000555, 6.500000000000000000, 4.592425496802576068E-17 ) ) ;
#166 = MANIFOLD_SOLID_BREP ( 'Revolve - Tool Body (Straight Shanked)', #187 ) ;
#167 = EDGE_CURVE ( 'NONE', #99, #262, #126, .T. ) ;
#168 = MANIFOLD_SOLID_BREP ( 'Revolve - Cutting Edge', #111 ) ;
#169 = PLANE ( 'NONE',  #304 ) ;
#170 = LINE ( 'NONE', #122, #286 ) ;
#171 = DIRECTION ( 'NONE',  ( -2.449293598294703764E-17, 1.000000000000000000, -0.000000000000000000 ) ) ;
#172 = ORIENTED_EDGE ( 'NONE', *, *, #9, .T. ) ;
#173 =( CONVERSION_BASED_UNIT ( 'INCH', #195 ) LENGTH_UNIT ( ) NAMED_UNIT ( #234 ) );
#174 = LINE ( 'NONE', #308, #161 ) ;
#175 = FACE_OUTER_BOUND ( 'NONE', #209, .T. ) ;
#176 = AXIS2_PLACEMENT_3D ( 'NONE', #214, #70, #309 ) ;
#177 = DIRECTION ( 'NONE',  ( 1.000000000000000000, 2.449293598294703764E-17, 0.000000000000000000 ) ) ;
#178 = SURFACE_SIDE_STYLE ('',( #77 ) ) ;
#179 = DIRECTION ( 'NONE',  ( 2.449293598294703764E-17, -1.000000000000000000, 0.000000000000000000 ) ) ;
#180 = STYLED_ITEM ( 'NONE', ( #217 ), #276 ) ;
#181 = SURFACE_STYLE_USAGE ( .BOTH. , #78 ) ;
#182 =( LENGTH_UNIT ( ) NAMED_UNIT ( * ) SI_UNIT ( $, .METRE. ) );
#183 = CIRCLE ( 'NONE', #131, 0.3750000000000001110 ) ;
#184 = CARTESIAN_POINT ( 'NONE',  ( 0.000000000000000000, 0.000000000000000000, 0.000000000000000000 ) ) ;
#185 = EDGE_CURVE ( 'NONE', #21, #69, #271, .T. ) ;
#186 =( NAMED_UNIT ( * ) PLANE_ANGLE_UNIT ( ) SI_UNIT ( $, .RADIAN. ) );
#187 = CLOSED_SHELL ( 'NONE', ( #28, #263, #87, #128 ) ) ;
#188 = CIRCLE ( 'NONE', #176, 0.3750000000000001110 ) ;
#189 = DIMENSIONAL_EXPONENTS ( 1.000000000000000000, 0.000000000000000000, 0.000000000000000000, 0.000000000000000000, 0.000000000000000000, 0.000000000000000000, 0.000000000000000000 ) ;
#190 = FACE_OUTER_BOUND ( 'NONE', #93, .T. ) ;
#191 = LENGTH_MEASURE_WITH_UNIT ( LENGTH_MEASURE( 0.02539999999999999897 ), #261 );
#192 =( LENGTH_UNIT ( ) NAMED_UNIT ( * ) SI_UNIT ( $, .METRE. ) );
#193 = DIRECTION ( 'NONE',  ( 0.000000000000000000, 0.000000000000000000, -1.000000000000000000 ) ) ;
#194 = ORIENTED_EDGE ( 'NONE', *, *, #244, .F. ) ;
#195 = LENGTH_MEASURE_WITH_UNIT ( LENGTH_MEASURE( 0.02539999999999999897 ), #20 );
#196 = DIRECTION ( 'NONE',  ( -1.000000000000000000, 0.000000000000000000, 0.000000000000000000 ) ) ;
#197 = CARTESIAN_POINT ( 'NONE',  ( -6.123233995736759873E-17, 6.500000000000000000, 0.000000000000000000 ) ) ;
#198 = AXIS2_PLACEMENT_3D ( 'NONE', #264, #241, #118 ) ;
#199 = FILL_AREA_STYLE_COLOUR ( '', #273 ) ;
#200 =( NAMED_UNIT ( * ) SI_UNIT ( $, .STERADIAN. ) SOLID_ANGLE_UNIT ( ) );
#201 = AXIS2_PLACEMENT_3D ( 'NONE', #142, #283, #1 ) ;
#202 = LENGTH_MEASURE_WITH_UNIT ( LENGTH_MEASURE( 0.02539999999999999897 ), #279 );
#203 = EDGE_CURVE ( 'NONE', #289, #18, #132, .T. ) ;
#204 = ORIENTED_EDGE ( 'NONE', *, *, #185, .F. ) ;
#205 = ADVANCED_FACE ( 'NONE', ( #64 ), #136, .T. ) ;
#206 = AXIS2_PLACEMENT_3D ( 'NONE', #290, #230, #292 ) ;
#207 = FILL_AREA_STYLE_COLOUR ( '', #139 ) ;
#208 = DIMENSIONAL_EXPONENTS ( 1.000000000000000000, 0.000000000000000000, 0.000000000000000000, 0.000000000000000000, 0.000000000000000000, 0.000000000000000000, 0.000000000000000000 ) ;
#209 = EDGE_LOOP ( 'NONE', ( #284, #300, #84, #278 ) ) ;
#210 = DIRECTION ( 'NONE',  ( -1.000000000000000000, 0.000000000000000000, 0.000000000000000000 ) ) ;
#211 = ORIENTED_EDGE ( 'NONE', *, *, #203, .T. ) ;
#212 =( NAMED_UNIT ( * ) SI_UNIT ( $, .STERADIAN. ) SOLID_ANGLE_UNIT ( ) );
#213 = UNCERTAINTY_MEASURE_WITH_UNIT (LENGTH_MEASURE( 1.000000000000000082E-05 ), #282, 'distance_accuracy_value', 'NONE');
#214 = CARTESIAN_POINT ( 'NONE',  ( -6.123233995736759873E-17, 6.500000000000000000, 0.000000000000000000 ) ) ;
#215 = PRESENTATION_LAYER_ASSIGNMENT (  '', '', ( #180 ) ) ;
#216 = CARTESIAN_POINT ( 'NONE',  ( 0.000000000000000000, 0.000000000000000000, -0.3750000000000000555 ) ) ;
#217 = PRESENTATION_STYLE_ASSIGNMENT (( #305 ) ) ;
#218 = PRODUCT_DEFINITION_SHAPE ( 'NONE', 'NONE',  #56 ) ;
#219 = UNCERTAINTY_MEASURE_WITH_UNIT (LENGTH_MEASURE( 1.000000000000000082E-05 ), #11, 'distance_accuracy_value', 'NONE');
#220 = CARTESIAN_POINT ( 'NONE',  ( 0.000000000000000000, 0.000000000000000000, 0.000000000000000000 ) ) ;
#221 = EDGE_LOOP ( 'NONE', ( #138, #97, #172, #204 ) ) ;
#222 = FACE_OUTER_BOUND ( 'NONE', #245, .T. ) ;
#223 = CARTESIAN_POINT ( 'NONE',  ( 0.3750000000000000555, 4.000000000000000000, 4.592425496802576068E-17 ) ) ;
#224 = DIRECTION ( 'NONE',  ( -1.000000000000000000, 0.000000000000000000, 0.000000000000000000 ) ) ;
#225 = CARTESIAN_POINT ( 'NONE',  ( 4.592425496802575451E-17, 0.000000000000000000, 0.3750000000000000555 ) ) ;
#226 =( GEOMETRIC_REPRESENTATION_CONTEXT ( 3 ) GLOBAL_UNCERTAINTY_ASSIGNED_CONTEXT ( ( #302 ) ) GLOBAL_UNIT_ASSIGNED_CONTEXT ( ( #250, #152, #27 ) ) REPRESENTATION_CONTEXT ( 'NONE', 'WORKASPACE' ) );
#227 = PRESENTATION_STYLE_ASSIGNMENT (( #127 ) ) ;
#228 = SHAPE_DEFINITION_REPRESENTATION ( #218, #115 ) ;
#229 = FACE_OUTER_BOUND ( 'NONE', #50, .T. ) ;
#230 = DIRECTION ( 'NONE',  ( 0.000000000000000000, 1.000000000000000000, 0.000000000000000000 ) ) ;
#231 = AXIS2_PLACEMENT_3D ( 'NONE', #57, #179, #177 ) ;
#232 = AXIS2_PLACEMENT_3D ( 'NONE', #81, #38, #210 ) ;
#233 =( LENGTH_UNIT ( ) NAMED_UNIT ( * ) SI_UNIT ( $, .METRE. ) );
#234 = DIMENSIONAL_EXPONENTS ( 1.000000000000000000, 0.000000000000000000, 0.000000000000000000, 0.000000000000000000, 0.000000000000000000, 0.000000000000000000, 0.000000000000000000 ) ;
#235 = AXIS2_PLACEMENT_3D ( 'NONE', #269, #248, #224 ) ;
#236 = AXIS2_PLACEMENT_3D ( 'NONE', #220, #41, #68 ) ;
#237 = PRESENTATION_STYLE_ASSIGNMENT (( #157 ) ) ;
#238 = ORIENTED_EDGE ( 'NONE', *, *, #12, .T. ) ;
#239 = DIRECTION ( 'NONE',  ( -2.449293598294703764E-17, 1.000000000000000000, 0.000000000000000000 ) ) ;
#240 = PLANE ( 'NONE',  #206 ) ;
#241 = DIRECTION ( 'NONE',  ( -0.000000000000000000, -1.000000000000000000, -0.000000000000000000 ) ) ;
#242 = VECTOR ( 'NONE', #33, 39.37007874015748143 ) ;
#243 = SURFACE_SIDE_STYLE ('',( #144 ) ) ;
#244 = EDGE_CURVE ( 'NONE', #63, #298, #188, .T. ) ;
#245 = EDGE_LOOP ( 'NONE', ( #247, #25 ) ) ;
#246 = CYLINDRICAL_SURFACE ( 'NONE', #60, 0.3750000000000000555 ) ;
#247 = ORIENTED_EDGE ( 'NONE', *, *, #203, .F. ) ;
#248 = DIRECTION ( 'NONE',  ( -2.449293598294704072E-17, 1.000000000000000000, -0.000000000000000000 ) ) ;
#249 = PRESENTATION_LAYER_ASSIGNMENT (  '', '', ( #280 ) ) ;
#250 =( CONVERSION_BASED_UNIT ( 'INCH', #34 ) LENGTH_UNIT ( ) NAMED_UNIT ( #164 ) );
#251 = DIRECTION ( 'NONE',  ( -0.000000000000000000, -1.000000000000000000, -0.000000000000000000 ) ) ;
#252 =( CONVERSION_BASED_UNIT ( 'INCH', #294 ) LENGTH_UNIT ( ) NAMED_UNIT ( #88 ) );
#253 = PRESENTATION_LAYER_ASSIGNMENT (  '', '', ( #162 ) ) ;
#254 = CARTESIAN_POINT ( 'NONE',  ( 4.592425496802575451E-17, 4.000000000000000000, 0.3750000000000000555 ) ) ;
#255 = DIRECTION ( 'NONE',  ( 0.000000000000000000, 0.000000000000000000, -1.000000000000000000 ) ) ;
#256 = MECHANICAL_DESIGN_GEOMETRIC_PRESENTATION_REPRESENTATION (  '', ( #180 ), #65 ) ;
#257 = LENGTH_MEASURE_WITH_UNIT ( LENGTH_MEASURE( 0.02539999999999999897 ), #233 );
#258 = EDGE_CURVE ( 'NONE', #69, #21, #295, .T. ) ;
#259 = FILL_AREA_STYLE_COLOUR ( '', #39 ) ;
#260 = CYLINDRICAL_SURFACE ( 'NONE', #201, 0.3750000000000001110 ) ;
#261 =( LENGTH_UNIT ( ) NAMED_UNIT ( * ) SI_UNIT ( $, .METRE. ) );
#262 = VERTEX_POINT ( 'NONE', #43 ) ;
#263 = ADVANCED_FACE ( 'NONE', ( #222 ), #169, .F. ) ;
#264 = CARTESIAN_POINT ( 'NONE',  ( 0.000000000000000000, 4.000000000000000000, 0.000000000000000000 ) ) ;
#265 = CARTESIAN_POINT ( 'NONE',  ( 7.582401355855259480E-33, 4.000000000000000000, 0.000000000000000000 ) ) ;
#266 = SURFACE_SIDE_STYLE ('',( #96 ) ) ;
#267 = ORIENTED_EDGE ( 'NONE', *, *, #185, .T. ) ;
#268 =( NAMED_UNIT ( * ) PLANE_ANGLE_UNIT ( ) SI_UNIT ( $, .RADIAN. ) );
#269 = CARTESIAN_POINT ( 'NONE',  ( -6.123233995736759873E-17, 6.500000000000000000, 0.000000000000000000 ) ) ;
#270 = SURFACE_STYLE_FILL_AREA ( #8 ) ;
#271 = CIRCLE ( 'NONE', #117, 0.3750000000000000555 ) ;
#272 = CARTESIAN_POINT ( 'NONE',  ( -0.3750000000000001665, 6.500000000000000000, 0.000000000000000000 ) ) ;
#273 = COLOUR_RGB ( '',0.7921568627450980005, 0.8196078431372548767, 0.9333333333333333481 ) ;
#274 =( GEOMETRIC_REPRESENTATION_CONTEXT ( 3 ) GLOBAL_UNCERTAINTY_ASSIGNED_CONTEXT ( ( #219 ) ) GLOBAL_UNIT_ASSIGNED_CONTEXT ( ( #11, #112, #80 ) ) REPRESENTATION_CONTEXT ( 'NONE', 'WORKASPACE' ) );
#275 = APPLICATION_CONTEXT ( 'automotive_design' ) ;
#276 = ADVANCED_FACE ( 'NONE', ( #17 ), #246, .T. ) ;
#277 = SURFACE_SIDE_STYLE ('',( #297 ) ) ;
#278 = ORIENTED_EDGE ( 'NONE', *, *, #9, .F. ) ;
#279 =( LENGTH_UNIT ( ) NAMED_UNIT ( * ) SI_UNIT ( $, .METRE. ) );
#280 = STYLED_ITEM ( 'NONE', ( #10 ), #168 ) ;
#281 = DIRECTION ( 'NONE',  ( -0.000000000000000000, -1.000000000000000000, -0.000000000000000000 ) ) ;
#282 =( CONVERSION_BASED_UNIT ( 'INCH', #191 ) LENGTH_UNIT ( ) NAMED_UNIT ( #159 ) );
#283 = DIRECTION ( 'NONE',  ( -2.449293598294704072E-17, 1.000000000000000000, -0.000000000000000000 ) ) ;
#284 = ORIENTED_EDGE ( 'NONE', *, *, #293, .T. ) ;
#285 = CARTESIAN_POINT ( 'NONE',  ( -0.3750000000000000555, 4.000000000000000000, 0.000000000000000000 ) ) ;
#286 = VECTOR ( 'NONE', #171, 39.37007874015748143 ) ;
#287 = EDGE_LOOP ( 'NONE', ( #135, #267 ) ) ;
#288 = FILL_AREA_STYLE ('',( #94 ) ) ;
#289 = VERTEX_POINT ( 'NONE', #285 ) ;
#290 = CARTESIAN_POINT ( 'NONE',  ( 0.000000000000000000, 4.000000000000000000, 0.000000000000000000 ) ) ;
#291 = CIRCLE ( 'NONE', #198, 0.3750000000000000555 ) ;
#292 = DIRECTION ( 'NONE',  ( 0.000000000000000000, -0.000000000000000000, 1.000000000000000000 ) ) ;
#293 = EDGE_CURVE ( 'NONE', #262, #99, #291, .T. ) ;
#294 = LENGTH_MEASURE_WITH_UNIT ( LENGTH_MEASURE( 0.02539999999999999897 ), #192 );
#295 = CIRCLE ( 'NONE', #156, 0.3750000000000000555 ) ;
#296 = ORIENTED_EDGE ( 'NONE', *, *, #119, .T. ) ;
#297 = SURFACE_STYLE_FILL_AREA ( #133 ) ;
#298 = VERTEX_POINT ( 'NONE', #47 ) ;
#299 =( NAMED_UNIT ( * ) PLANE_ANGLE_UNIT ( ) SI_UNIT ( $, .RADIAN. ) );
#300 = ORIENTED_EDGE ( 'NONE', *, *, #153, .T. ) ;
#301 = DIRECTION ( 'NONE',  ( 0.000000000000000000, 0.000000000000000000, -1.000000000000000000 ) ) ;
#302 = UNCERTAINTY_MEASURE_WITH_UNIT (LENGTH_MEASURE( 1.000000000000000082E-05 ), #250, 'distance_accuracy_value', 'NONE');
#303 = DIRECTION ( 'NONE',  ( 0.000000000000000000, 0.000000000000000000, -1.000000000000000000 ) ) ;
#304 = AXIS2_PLACEMENT_3D ( 'NONE', #141, #239, #149 ) ;
#305 = SURFACE_STYLE_USAGE ( .BOTH. , #266 ) ;
#306 = FILL_AREA_STYLE_COLOUR ( '', #30 ) ;
#307 = CARTESIAN_POINT ( 'NONE',  ( 0.000000000000000000, 0.000000000000000000, 0.000000000000000000 ) ) ;
#308 = CARTESIAN_POINT ( 'NONE',  ( 0.000000000000000000, 0.000000000000000000, -0.3750000000000000555 ) ) ;
#309 = DIRECTION ( 'NONE',  ( -1.000000000000000000, 0.000000000000000000, 0.000000000000000000 ) ) ;
ENDSEC;
END-ISO-10303-21;
