ISO-10303-21;
HEADER;
FILE_DESCRIPTION (( 'STEP AP214' ),
    '1' );
FILE_NAME ('26362.STEP',
    '2023-06-22T17:43:03',
    ( '' ),
    ( '' ),
    'SwSTEP 2.0',
    'SolidWorks 2023',
    '' );
FILE_SCHEMA (( 'AUTOMOTIVE_DESIGN' ));
ENDSEC;

DATA;
#1 =( NAMED_UNIT ( * ) PLANE_ANGLE_UNIT ( ) SI_UNIT ( $, .RADIAN. ) );
#2 = EDGE_CURVE ( 'NONE', #300, #123, #269, .T. ) ;
#3 = ORIENTED_EDGE ( 'NONE', *, *, #125, .T. ) ;
#4 =( NAMED_UNIT ( * ) PLANE_ANGLE_UNIT ( ) SI_UNIT ( $, .RADIAN. ) );
#5 = SURFACE_SIDE_STYLE ('',( #204 ) ) ;
#6 = COLOUR_RGB ( '',0.7921568627450980005, 0.8196078431372548767, 0.9333333333333333481 ) ;
#7 = PRODUCT_DEFINITION_CONTEXT ( 'detailed design', #192, 'design' ) ;
#8 = DIRECTION ( 'NONE',  ( -1.000000000000000000, 0.000000000000000000, 0.000000000000000000 ) ) ;
#9 = DIMENSIONAL_EXPONENTS ( 1.000000000000000000, 0.000000000000000000, 0.000000000000000000, 0.000000000000000000, 0.000000000000000000, 0.000000000000000000, 0.000000000000000000 ) ;
#10 = DIRECTION ( 'NONE',  ( -1.000000000000000000, 0.000000000000000000, 0.000000000000000000 ) ) ;
#11 = ORIENTED_EDGE ( 'NONE', *, *, #122, .T. ) ;
#12 = DIRECTION ( 'NONE',  ( -1.000000000000000000, 0.000000000000000000, 0.000000000000000000 ) ) ;
#13 = AXIS2_PLACEMENT_3D ( 'NONE', #113, #48, #199 ) ;
#14 = CARTESIAN_POINT ( 'NONE',  ( -0.3749999999999998335, 3.000000000000000444, 0.000000000000000000 ) ) ;
#15 = ORIENTED_EDGE ( 'NONE', *, *, #218, .T. ) ;
#16 = CARTESIAN_POINT ( 'NONE',  ( -0.3750000000000000555, 1.000000000000000000, 0.000000000000000000 ) ) ;
#17 = CARTESIAN_POINT ( 'NONE',  ( 0.000000000000000000, 0.000000000000000000, 0.000000000000000000 ) ) ;
#18 =( GEOMETRIC_REPRESENTATION_CONTEXT ( 3 ) GLOBAL_UNCERTAINTY_ASSIGNED_CONTEXT ( ( #231 ) ) GLOBAL_UNIT_ASSIGNED_CONTEXT ( ( #292, #224, #19 ) ) REPRESENTATION_CONTEXT ( 'NONE', 'WORKASPACE' ) );
#19 =( NAMED_UNIT ( * ) SI_UNIT ( $, .STERADIAN. ) SOLID_ANGLE_UNIT ( ) );
#20 = DIRECTION ( 'NONE',  ( 0.000000000000000000, 1.000000000000000000, 0.000000000000000000 ) ) ;
#21 = FILL_AREA_STYLE ('',( #271 ) ) ;
#22 = APPLICATION_PROTOCOL_DEFINITION ( 'draft international standard', 'automotive_design', 1998, #91 ) ;
#23 = AXIS2_PLACEMENT_3D ( 'NONE', #285, #219, #164 ) ;
#24 = PRODUCT_DEFINITION_FORMATION_WITH_SPECIFIED_SOURCE ( 'ANY', '', #26, .NOT_KNOWN. ) ;
#25 = SURFACE_STYLE_USAGE ( .BOTH. , #141 ) ;
#26 = PRODUCT ( '26362', '26362', '', ( #45 ) ) ;
#27 = CARTESIAN_POINT ( 'NONE',  ( 0.3750000000000001110, 3.000000000000000444, 4.592425496802573602E-17 ) ) ;
#28 = COLOUR_RGB ( '',1.000000000000000000, 0.000000000000000000, 0.000000000000000000 ) ;
#29 = ORIENTED_EDGE ( 'NONE', *, *, #270, .F. ) ;
#30 =( NAMED_UNIT ( * ) SI_UNIT ( $, .STERADIAN. ) SOLID_ANGLE_UNIT ( ) );
#31 = UNCERTAINTY_MEASURE_WITH_UNIT (LENGTH_MEASURE( 1.000000000000000082E-05 ), #114, 'distance_accuracy_value', 'NONE');
#32 = AXIS2_PLACEMENT_3D ( 'NONE', #193, #160, #12 ) ;
#33 = COLOUR_RGB ( '',1.000000000000000000, 0.000000000000000000, 0.000000000000000000 ) ;
#34 = UNCERTAINTY_MEASURE_WITH_UNIT (LENGTH_MEASURE( 1.000000000000000082E-05 ), #39, 'distance_accuracy_value', 'NONE');
#35 =( NAMED_UNIT ( * ) SI_UNIT ( $, .STERADIAN. ) SOLID_ANGLE_UNIT ( ) );
#36 = ADVANCED_FACE ( 'NONE', ( #135 ), #258, .F. ) ;
#37 = DIMENSIONAL_EXPONENTS ( 1.000000000000000000, 0.000000000000000000, 0.000000000000000000, 0.000000000000000000, 0.000000000000000000, 0.000000000000000000, 0.000000000000000000 ) ;
#38 = SURFACE_STYLE_FILL_AREA ( #137 ) ;
#39 =( CONVERSION_BASED_UNIT ( 'INCH', #256 ) LENGTH_UNIT ( ) NAMED_UNIT ( #37 ) );
#40 = DIRECTION ( 'NONE',  ( -6.123233995736763571E-17, -1.000000000000000000, 0.000000000000000000 ) ) ;
#41 = VECTOR ( 'NONE', #225, 39.37007874015748143 ) ;
#42 = CARTESIAN_POINT ( 'NONE',  ( 4.592425496802575451E-17, 0.000000000000000000, 0.3750000000000000555 ) ) ;
#43 = CYLINDRICAL_SURFACE ( 'NONE', #13, 0.3750000000000000555 ) ;
#44 = FILL_AREA_STYLE_COLOUR ( '', #28 ) ;
#45 = PRODUCT_CONTEXT ( 'NONE', #91, 'mechanical' ) ;
#46 = FACE_OUTER_BOUND ( 'NONE', #282, .T. ) ;
#47 = STYLED_ITEM ( 'NONE', ( #195 ), #180 ) ;
#48 = DIRECTION ( 'NONE',  ( -0.000000000000000000, -1.000000000000000000, -0.000000000000000000 ) ) ;
#49 = EDGE_CURVE ( 'NONE', #108, #189, #76, .T. ) ;
#50 = DIRECTION ( 'NONE',  ( 0.000000000000000000, 0.000000000000000000, -1.000000000000000000 ) ) ;
#51 = ORIENTED_EDGE ( 'NONE', *, *, #68, .T. ) ;
#52 = FILL_AREA_STYLE ('',( #124 ) ) ;
#53 = VERTEX_POINT ( 'NONE', #239 ) ;
#54 = LINE ( 'NONE', #183, #171 ) ;
#55 = AXIS2_PLACEMENT_3D ( 'NONE', #94, #20, #242 ) ;
#56 = PRESENTATION_LAYER_ASSIGNMENT (  '', '', ( #105 ) ) ;
#57 = SURFACE_STYLE_USAGE ( .BOTH. , #60 ) ;
#58 = CARTESIAN_POINT ( 'NONE',  ( 1.224646799147352714E-16, 3.000000000000000444, 0.000000000000000000 ) ) ;
#59 = DIMENSIONAL_EXPONENTS ( 1.000000000000000000, 0.000000000000000000, 0.000000000000000000, 0.000000000000000000, 0.000000000000000000, 0.000000000000000000, 0.000000000000000000 ) ;
#60 = SURFACE_SIDE_STYLE ('',( #81 ) ) ;
#61 = ORIENTED_EDGE ( 'NONE', *, *, #134, .T. ) ;
#62 = DIRECTION ( 'NONE',  ( -1.000000000000000000, 6.123233995736763571E-17, 0.000000000000000000 ) ) ;
#63 = AXIS2_PLACEMENT_3D ( 'NONE', #305, #83, #62 ) ;
#64 = DIRECTION ( 'NONE',  ( 6.123233995736763571E-17, 1.000000000000000000, -0.000000000000000000 ) ) ;
#65 = PRODUCT_DEFINITION ( 'UNKNOWN', '', #24, #7 ) ;
#66 = ORIENTED_EDGE ( 'NONE', *, *, #49, .T. ) ;
#67 = COLOUR_RGB ( '',0.7921568627450980005, 0.8196078431372548767, 0.9333333333333333481 ) ;
#68 = EDGE_CURVE ( 'NONE', #216, #53, #234, .T. ) ;
#69 =( LENGTH_UNIT ( ) NAMED_UNIT ( * ) SI_UNIT ( $, .METRE. ) );
#70 = SURFACE_SIDE_STYLE ('',( #71 ) ) ;
#71 = SURFACE_STYLE_FILL_AREA ( #240 ) ;
#72 = PRESENTATION_LAYER_ASSIGNMENT (  '', '', ( #190 ) ) ;
#73 = AXIS2_PLACEMENT_3D ( 'NONE', #214, #186, #10 ) ;
#74 = ORIENTED_EDGE ( 'NONE', *, *, #194, .T. ) ;
#75 = SURFACE_STYLE_USAGE ( .BOTH. , #5 ) ;
#76 = CIRCLE ( 'NONE', #120, 0.3749999999999998890 ) ;
#77 =( GEOMETRIC_REPRESENTATION_CONTEXT ( 3 ) GLOBAL_UNCERTAINTY_ASSIGNED_CONTEXT ( ( #298 ) ) GLOBAL_UNIT_ASSIGNED_CONTEXT ( ( #223, #119, #89 ) ) REPRESENTATION_CONTEXT ( 'NONE', 'WORKASPACE' ) );
#78 = SURFACE_STYLE_FILL_AREA ( #299 ) ;
#79 = MECHANICAL_DESIGN_GEOMETRIC_PRESENTATION_REPRESENTATION (  '', ( #138 ), #85 ) ;
#80 = DIRECTION ( 'NONE',  ( -0.000000000000000000, -1.000000000000000000, -0.000000000000000000 ) ) ;
#81 = SURFACE_STYLE_FILL_AREA ( #235 ) ;
#82 = EDGE_LOOP ( 'NONE', ( #74, #11, #230, #274 ) ) ;
#83 = DIRECTION ( 'NONE',  ( 6.123233995736763571E-17, 1.000000000000000000, -0.000000000000000000 ) ) ;
#84 = CARTESIAN_POINT ( 'NONE',  ( 0.000000000000000000, 1.000000000000000000, 0.000000000000000000 ) ) ;
#85 =( GEOMETRIC_REPRESENTATION_CONTEXT ( 3 ) GLOBAL_UNCERTAINTY_ASSIGNED_CONTEXT ( ( #228 ) ) GLOBAL_UNIT_ASSIGNED_CONTEXT ( ( #121, #4, #209 ) ) REPRESENTATION_CONTEXT ( 'NONE', 'WORKASPACE' ) );
#86 = ORIENTED_EDGE ( 'NONE', *, *, #194, .F. ) ;
#87 = SURFACE_STYLE_USAGE ( .BOTH. , #308 ) ;
#88 = PRESENTATION_STYLE_ASSIGNMENT (( #143 ) ) ;
#89 =( NAMED_UNIT ( * ) SI_UNIT ( $, .STERADIAN. ) SOLID_ANGLE_UNIT ( ) );
#90 = MECHANICAL_DESIGN_GEOMETRIC_PRESENTATION_REPRESENTATION (  '', ( #244 ), #18 ) ;
#91 = APPLICATION_CONTEXT ( 'automotive_design' ) ;
#92 = PRESENTATION_STYLE_ASSIGNMENT (( #167 ) ) ;
#93 =( CONVERSION_BASED_UNIT ( 'INCH', #169 ) LENGTH_UNIT ( ) NAMED_UNIT ( #205 ) );
#94 = CARTESIAN_POINT ( 'NONE',  ( 0.000000000000000000, 1.000000000000000000, 0.000000000000000000 ) ) ;
#95 = ADVANCED_FACE ( 'NONE', ( #191 ), #286, .T. ) ;
#96 = VERTEX_POINT ( 'NONE', #158 ) ;
#97 = DIRECTION ( 'NONE',  ( -0.000000000000000000, -1.000000000000000000, -0.000000000000000000 ) ) ;
#98 = PRESENTATION_LAYER_ASSIGNMENT (  '', '', ( #244 ) ) ;
#99 = FACE_OUTER_BOUND ( 'NONE', #101, .T. ) ;
#100 = STYLED_ITEM ( 'NONE', ( #157 ), #287 ) ;
#101 = EDGE_LOOP ( 'NONE', ( #232, #294, #261, #177 ) ) ;
#102 = EDGE_LOOP ( 'NONE', ( #233, #110 ) ) ;
#103 = DIRECTION ( 'NONE',  ( 1.000000000000000000, -6.123233995736763571E-17, 0.000000000000000000 ) ) ;
#104 = AXIS2_PLACEMENT_3D ( 'NONE', #17, #109, #257 ) ;
#105 = STYLED_ITEM ( 'NONE', ( #267 ), #291 ) ;
#106 = CARTESIAN_POINT ( 'NONE',  ( 0.3750000000000000555, 3.000000000000000444, 0.000000000000000000 ) ) ;
#107 = FACE_OUTER_BOUND ( 'NONE', #260, .T. ) ;
#108 = VERTEX_POINT ( 'NONE', #133 ) ;
#109 = DIRECTION ( 'NONE',  ( -0.000000000000000000, -1.000000000000000000, -0.000000000000000000 ) ) ;
#110 = ORIENTED_EDGE ( 'NONE', *, *, #2, .F. ) ;
#111 = CLOSED_SHELL ( 'NONE', ( #152, #179, #287, #291 ) ) ;
#112 = SURFACE_STYLE_FILL_AREA ( #21 ) ;
#113 = CARTESIAN_POINT ( 'NONE',  ( 0.000000000000000000, 0.000000000000000000, 0.000000000000000000 ) ) ;
#114 =( CONVERSION_BASED_UNIT ( 'INCH', #266 ) LENGTH_UNIT ( ) NAMED_UNIT ( #176 ) );
#115 = APPLICATION_PROTOCOL_DEFINITION ( 'draft international standard', 'automotive_design', 1998, #192 ) ;
#116 = CIRCLE ( 'NONE', #104, 0.3750000000000000555 ) ;
#117 = ADVANCED_FACE ( 'NONE', ( #215 ), #304, .F. ) ;
#118 = PLANE ( 'NONE',  #55 ) ;
#119 =( NAMED_UNIT ( * ) PLANE_ANGLE_UNIT ( ) SI_UNIT ( $, .RADIAN. ) );
#120 = AXIS2_PLACEMENT_3D ( 'NONE', #165, #64, #236 ) ;
#121 =( CONVERSION_BASED_UNIT ( 'INCH', #251 ) LENGTH_UNIT ( ) NAMED_UNIT ( #9 ) );
#122 = EDGE_CURVE ( 'NONE', #216, #96, #163, .T. ) ;
#123 = VERTEX_POINT ( 'NONE', #16 ) ;
#124 = FILL_AREA_STYLE_COLOUR ( '', #6 ) ;
#125 = EDGE_CURVE ( 'NONE', #96, #207, #116, .T. ) ;
#126 =( NAMED_UNIT ( * ) PLANE_ANGLE_UNIT ( ) SI_UNIT ( $, .RADIAN. ) );
#127 = ORIENTED_EDGE ( 'NONE', *, *, #125, .F. ) ;
#128 = DIRECTION ( 'NONE',  ( -0.000000000000000000, -1.000000000000000000, -0.000000000000000000 ) ) ;
#129 = SURFACE_SIDE_STYLE ('',( #38 ) ) ;
#130 = CARTESIAN_POINT ( 'NONE',  ( 0.000000000000000000, 0.000000000000000000, 0.000000000000000000 ) ) ;
#131 = AXIS2_PLACEMENT_3D ( 'NONE', #106, #40, #103 ) ;
#132 = AXIS2_PLACEMENT_3D ( 'NONE', #206, #295, #8 ) ;
#133 = CARTESIAN_POINT ( 'NONE',  ( -0.3749999999999997780, 3.000000000000000444, 0.000000000000000000 ) ) ;
#134 = EDGE_CURVE ( 'NONE', #189, #108, #170, .T. ) ;
#135 = FACE_OUTER_BOUND ( 'NONE', #255, .T. ) ;
#136 = FACE_OUTER_BOUND ( 'NONE', #82, .T. ) ;
#137 = FILL_AREA_STYLE ('',( #44 ) ) ;
#138 = STYLED_ITEM ( 'NONE', ( #151 ), #181 ) ;
#139 = MECHANICAL_DESIGN_GEOMETRIC_PRESENTATION_REPRESENTATION (  '', ( #100 ), #146 ) ;
#140 = LENGTH_MEASURE_WITH_UNIT ( LENGTH_MEASURE( 0.02539999999999999897 ), #268 );
#141 = SURFACE_SIDE_STYLE ('',( #78 ) ) ;
#142 =( CONVERSION_BASED_UNIT ( 'INCH', #140 ) LENGTH_UNIT ( ) NAMED_UNIT ( #208 ) );
#143 = SURFACE_STYLE_USAGE ( .BOTH. , #70 ) ;
#144 =( GEOMETRIC_REPRESENTATION_CONTEXT ( 3 ) GLOBAL_UNCERTAINTY_ASSIGNED_CONTEXT ( ( #31 ) ) GLOBAL_UNIT_ASSIGNED_CONTEXT ( ( #114, #1, #30 ) ) REPRESENTATION_CONTEXT ( 'NONE', 'WORKASPACE' ) );
#145 = PRODUCT_DEFINITION_SHAPE ( 'NONE', 'NONE',  #65 ) ;
#146 =( GEOMETRIC_REPRESENTATION_CONTEXT ( 3 ) GLOBAL_UNCERTAINTY_ASSIGNED_CONTEXT ( ( #34 ) ) GLOBAL_UNIT_ASSIGNED_CONTEXT ( ( #39, #126, #35 ) ) REPRESENTATION_CONTEXT ( 'NONE', 'WORKASPACE' ) );
#147 = DIRECTION ( 'NONE',  ( 0.000000000000000000, 0.000000000000000000, 1.000000000000000000 ) ) ;
#148 = AXIS2_PLACEMENT_3D ( 'NONE', #149, #97, #178 ) ;
#149 = CARTESIAN_POINT ( 'NONE',  ( 0.000000000000000000, 1.000000000000000000, 0.000000000000000000 ) ) ;
#150 = ORIENTED_EDGE ( 'NONE', *, *, #238, .T. ) ;
#151 = PRESENTATION_STYLE_ASSIGNMENT (( #75 ) ) ;
#152 = ADVANCED_FACE ( 'NONE', ( #136 ), #43, .T. ) ;
#153 = COLOUR_RGB ( '',1.000000000000000000, 0.000000000000000000, 0.000000000000000000 ) ;
#154 = UNCERTAINTY_MEASURE_WITH_UNIT (LENGTH_MEASURE( 1.000000000000000082E-05 ), #142, 'distance_accuracy_value', 'NONE');
#155 = FILL_AREA_STYLE_COLOUR ( '', #296 ) ;
#156 = CIRCLE ( 'NONE', #73, 0.3750000000000000555 ) ;
#157 = PRESENTATION_STYLE_ASSIGNMENT (( #57 ) ) ;
#158 = CARTESIAN_POINT ( 'NONE',  ( 4.592425496802575451E-17, 0.000000000000000000, 0.3750000000000000555 ) ) ;
#159 = DIRECTION ( 'NONE',  ( 0.000000000000000000, 0.000000000000000000, -1.000000000000000000 ) ) ;
#160 = DIRECTION ( 'NONE',  ( 6.123233995736763571E-17, 1.000000000000000000, -0.000000000000000000 ) ) ;
#161 = CYLINDRICAL_SURFACE ( 'NONE', #306, 0.3750000000000000555 ) ;
#162 = AXIS2_PLACEMENT_3D ( 'NONE', #84, #80, #185 ) ;
#163 = LINE ( 'NONE', #42, #182 ) ;
#164 = DIRECTION ( 'NONE',  ( -1.000000000000000000, 0.000000000000000000, 0.000000000000000000 ) ) ;
#165 = CARTESIAN_POINT ( 'NONE',  ( 1.224646799147352714E-16, 3.000000000000000444, 0.000000000000000000 ) ) ;
#166 = AXIS2_PLACEMENT_3D ( 'NONE', #58, #262, #187 ) ;
#167 = SURFACE_STYLE_USAGE ( .BOTH. , #129 ) ;
#168 = PRODUCT_RELATED_PRODUCT_CATEGORY ( 'part', '', ( #26 ) ) ;
#169 = LENGTH_MEASURE_WITH_UNIT ( LENGTH_MEASURE( 0.02539999999999999897 ), #69 );
#170 = CIRCLE ( 'NONE', #23, 0.3749999999999998890 ) ;
#171 = VECTOR ( 'NONE', #128, 39.37007874015748143 ) ;
#172 =( LENGTH_UNIT ( ) NAMED_UNIT ( * ) SI_UNIT ( $, .METRE. ) );
#173 = CYLINDRICAL_SURFACE ( 'NONE', #132, 0.3749999999999999445 ) ;
#174 = MECHANICAL_DESIGN_GEOMETRIC_PRESENTATION_REPRESENTATION (  '', ( #47 ), #144 ) ;
#175 =( GEOMETRIC_REPRESENTATION_CONTEXT ( 3 ) GLOBAL_UNCERTAINTY_ASSIGNED_CONTEXT ( ( #249 ) ) GLOBAL_UNIT_ASSIGNED_CONTEXT ( ( #93, #246, #200 ) ) REPRESENTATION_CONTEXT ( 'NONE', 'WORKASPACE' ) );
#176 = DIMENSIONAL_EXPONENTS ( 1.000000000000000000, 0.000000000000000000, 0.000000000000000000, 0.000000000000000000, 0.000000000000000000, 0.000000000000000000, 0.000000000000000000 ) ;
#177 = ORIENTED_EDGE ( 'NONE', *, *, #134, .F. ) ;
#178 = DIRECTION ( 'NONE',  ( 0.000000000000000000, 0.000000000000000000, -1.000000000000000000 ) ) ;
#179 = ADVANCED_FACE ( 'NONE', ( #46 ), #118, .T. ) ;
#180 = MANIFOLD_SOLID_BREP ( 'Revolve - Cutting Edge', #111 ) ;
#181 = MANIFOLD_SOLID_BREP ( 'Revolve - Tool Body (Straight Shanked)', #222 ) ;
#182 = VECTOR ( 'NONE', #237, 39.37007874015748143 ) ;
#183 = CARTESIAN_POINT ( 'NONE',  ( 0.000000000000000000, 0.000000000000000000, -0.3750000000000000555 ) ) ;
#184 = AXIS2_PLACEMENT_3D ( 'NONE', #290, #309, #196 ) ;
#185 = DIRECTION ( 'NONE',  ( 0.000000000000000000, 0.000000000000000000, -1.000000000000000000 ) ) ;
#186 = DIRECTION ( 'NONE',  ( 6.123233995736763571E-17, 1.000000000000000000, -0.000000000000000000 ) ) ;
#187 = DIRECTION ( 'NONE',  ( -1.000000000000000000, 0.000000000000000000, 0.000000000000000000 ) ) ;
#188 = PLANE ( 'NONE',  #184 ) ;
#189 = VERTEX_POINT ( 'NONE', #253 ) ;
#190 = STYLED_ITEM ( 'NONE', ( #92 ), #152 ) ;
#191 = FACE_OUTER_BOUND ( 'NONE', #307, .T. ) ;
#192 = APPLICATION_CONTEXT ( 'automotive_design' ) ;
#193 = CARTESIAN_POINT ( 'NONE',  ( -3.032960542342103792E-32, 1.000000000000000000, 0.000000000000000000 ) ) ;
#194 = EDGE_CURVE ( 'NONE', #53, #216, #252, .T. ) ;
#195 = PRESENTATION_STYLE_ASSIGNMENT (( #87 ) ) ;
#196 = DIRECTION ( 'NONE',  ( 0.000000000000000000, 0.000000000000000000, -1.000000000000000000 ) ) ;
#197 = ADVANCED_FACE ( 'NONE', ( #99 ), #173, .T. ) ;
#198 = LENGTH_MEASURE_WITH_UNIT ( LENGTH_MEASURE( 0.02539999999999999897 ), #220 );
#199 = DIRECTION ( 'NONE',  ( 0.000000000000000000, 0.000000000000000000, -1.000000000000000000 ) ) ;
#200 =( NAMED_UNIT ( * ) SI_UNIT ( $, .STERADIAN. ) SOLID_ANGLE_UNIT ( ) );
#201 = SHAPE_DEFINITION_REPRESENTATION ( #145, #273 ) ;
#202 = CARTESIAN_POINT ( 'NONE',  ( 0.000000000000000000, 0.000000000000000000, 0.000000000000000000 ) ) ;
#203 = ORIENTED_EDGE ( 'NONE', *, *, #122, .F. ) ;
#204 = SURFACE_STYLE_FILL_AREA ( #52 ) ;
#205 = DIMENSIONAL_EXPONENTS ( 1.000000000000000000, 0.000000000000000000, 0.000000000000000000, 0.000000000000000000, 0.000000000000000000, 0.000000000000000000, 0.000000000000000000 ) ;
#206 = CARTESIAN_POINT ( 'NONE',  ( 1.224646799147352714E-16, 3.000000000000000444, 0.000000000000000000 ) ) ;
#207 = VERTEX_POINT ( 'NONE', #250 ) ;
#208 = DIMENSIONAL_EXPONENTS ( 1.000000000000000000, 0.000000000000000000, 0.000000000000000000, 0.000000000000000000, 0.000000000000000000, 0.000000000000000000, 0.000000000000000000 ) ;
#209 =( NAMED_UNIT ( * ) SI_UNIT ( $, .STERADIAN. ) SOLID_ANGLE_UNIT ( ) );
#210 = FACE_OUTER_BOUND ( 'NONE', #229, .T. ) ;
#211 = ORIENTED_EDGE ( 'NONE', *, *, #49, .F. ) ;
#212 =( GEOMETRIC_REPRESENTATION_CONTEXT ( 3 ) GLOBAL_UNCERTAINTY_ASSIGNED_CONTEXT ( ( #154 ) ) GLOBAL_UNIT_ASSIGNED_CONTEXT ( ( #142, #241, #289 ) ) REPRESENTATION_CONTEXT ( 'NONE', 'WORKASPACE' ) );
#213 = ORIENTED_EDGE ( 'NONE', *, *, #248, .T. ) ;
#214 = CARTESIAN_POINT ( 'NONE',  ( -3.032960542342103792E-32, 1.000000000000000000, 0.000000000000000000 ) ) ;
#215 = FACE_OUTER_BOUND ( 'NONE', #102, .T. ) ;
#216 = VERTEX_POINT ( 'NONE', #297 ) ;
#217 = MECHANICAL_DESIGN_GEOMETRIC_PRESENTATION_REPRESENTATION (  '', ( #190 ), #212 ) ;
#218 = EDGE_CURVE ( 'NONE', #300, #189, #276, .T. ) ;
#219 = DIRECTION ( 'NONE',  ( 6.123233995736763571E-17, 1.000000000000000000, -0.000000000000000000 ) ) ;
#220 =( LENGTH_UNIT ( ) NAMED_UNIT ( * ) SI_UNIT ( $, .METRE. ) );
#221 =( LENGTH_UNIT ( ) NAMED_UNIT ( * ) SI_UNIT ( $, .METRE. ) );
#222 = CLOSED_SHELL ( 'NONE', ( #95, #117, #197, #36 ) ) ;
#223 =( CONVERSION_BASED_UNIT ( 'INCH', #198 ) LENGTH_UNIT ( ) NAMED_UNIT ( #59 ) );
#224 =( NAMED_UNIT ( * ) PLANE_ANGLE_UNIT ( ) SI_UNIT ( $, .RADIAN. ) );
#225 = DIRECTION ( 'NONE',  ( 6.123233995736763571E-17, 1.000000000000000000, -0.000000000000000000 ) ) ;
#226 = PRESENTATION_LAYER_ASSIGNMENT (  '', '', ( #138 ) ) ;
#227 = MECHANICAL_DESIGN_GEOMETRIC_PRESENTATION_REPRESENTATION (  '', ( #105 ), #77 ) ;
#228 = UNCERTAINTY_MEASURE_WITH_UNIT (LENGTH_MEASURE( 1.000000000000000082E-05 ), #121, 'distance_accuracy_value', 'NONE');
#229 = EDGE_LOOP ( 'NONE', ( #150, #3 ) ) ;
#230 = ORIENTED_EDGE ( 'NONE', *, *, #238, .F. ) ;
#231 = UNCERTAINTY_MEASURE_WITH_UNIT (LENGTH_MEASURE( 1.000000000000000082E-05 ), #292, 'distance_accuracy_value', 'NONE');
#232 = ORIENTED_EDGE ( 'NONE', *, *, #218, .F. ) ;
#233 = ORIENTED_EDGE ( 'NONE', *, *, #248, .F. ) ;
#234 = CIRCLE ( 'NONE', #162, 0.3750000000000000555 ) ;
#235 = FILL_AREA_STYLE ('',( #155 ) ) ;
#236 = DIRECTION ( 'NONE',  ( -1.000000000000000000, 0.000000000000000000, 0.000000000000000000 ) ) ;
#237 = DIRECTION ( 'NONE',  ( -0.000000000000000000, -1.000000000000000000, -0.000000000000000000 ) ) ;
#238 = EDGE_CURVE ( 'NONE', #207, #96, #293, .T. ) ;
#239 = CARTESIAN_POINT ( 'NONE',  ( 0.000000000000000000, 1.000000000000000000, -0.3750000000000000555 ) ) ;
#240 = FILL_AREA_STYLE ('',( #264 ) ) ;
#241 =( NAMED_UNIT ( * ) PLANE_ANGLE_UNIT ( ) SI_UNIT ( $, .RADIAN. ) );
#242 = DIRECTION ( 'NONE',  ( 0.000000000000000000, -0.000000000000000000, 1.000000000000000000 ) ) ;
#243 = LENGTH_MEASURE_WITH_UNIT ( LENGTH_MEASURE( 0.02539999999999999897 ), #172 );
#244 = STYLED_ITEM ( 'NONE', ( #88 ), #179 ) ;
#245 = PRESENTATION_LAYER_ASSIGNMENT (  '', '', ( #100 ) ) ;
#246 =( NAMED_UNIT ( * ) PLANE_ANGLE_UNIT ( ) SI_UNIT ( $, .RADIAN. ) );
#247 = DIRECTION ( 'NONE',  ( 1.000000000000000000, 0.000000000000000000, 0.000000000000000000 ) ) ;
#248 = EDGE_CURVE ( 'NONE', #123, #300, #156, .T. ) ;
#249 = UNCERTAINTY_MEASURE_WITH_UNIT (LENGTH_MEASURE( 1.000000000000000082E-05 ), #93, 'distance_accuracy_value', 'NONE');
#250 = CARTESIAN_POINT ( 'NONE',  ( 0.000000000000000000, 0.000000000000000000, -0.3750000000000000555 ) ) ;
#251 = LENGTH_MEASURE_WITH_UNIT ( LENGTH_MEASURE( 0.02539999999999999897 ), #254 );
#252 = CIRCLE ( 'NONE', #148, 0.3750000000000000555 ) ;
#253 = CARTESIAN_POINT ( 'NONE',  ( 0.3750000000000000555, 3.000000000000000444, 4.592425496802574219E-17 ) ) ;
#254 =( LENGTH_UNIT ( ) NAMED_UNIT ( * ) SI_UNIT ( $, .METRE. ) );
#255 = EDGE_LOOP ( 'NONE', ( #66, #61 ) ) ;
#256 = LENGTH_MEASURE_WITH_UNIT ( LENGTH_MEASURE( 0.02539999999999999897 ), #303 );
#257 = DIRECTION ( 'NONE',  ( 0.000000000000000000, 0.000000000000000000, -1.000000000000000000 ) ) ;
#258 = PLANE ( 'NONE',  #131 ) ;
#259 = AXIS2_PLACEMENT_3D ( 'NONE', #265, #147, #247 ) ;
#260 = EDGE_LOOP ( 'NONE', ( #203, #51, #280, #127 ) ) ;
#261 = ORIENTED_EDGE ( 'NONE', *, *, #270, .T. ) ;
#262 = DIRECTION ( 'NONE',  ( 6.123233995736763571E-17, 1.000000000000000000, -0.000000000000000000 ) ) ;
#263 = EDGE_CURVE ( 'NONE', #53, #207, #54, .T. ) ;
#264 = FILL_AREA_STYLE_COLOUR ( '', #153 ) ;
#265 = CARTESIAN_POINT ( 'NONE',  ( 0.000000000000000000, 0.000000000000000000, 0.000000000000000000 ) ) ;
#266 = LENGTH_MEASURE_WITH_UNIT ( LENGTH_MEASURE( 0.02539999999999999897 ), #221 );
#267 = PRESENTATION_STYLE_ASSIGNMENT (( #25 ) ) ;
#268 =( LENGTH_UNIT ( ) NAMED_UNIT ( * ) SI_UNIT ( $, .METRE. ) );
#269 = CIRCLE ( 'NONE', #32, 0.3750000000000000555 ) ;
#270 = EDGE_CURVE ( 'NONE', #123, #108, #281, .T. ) ;
#271 = FILL_AREA_STYLE_COLOUR ( '', #67 ) ;
#272 = DIRECTION ( 'NONE',  ( -0.000000000000000000, -1.000000000000000000, -0.000000000000000000 ) ) ;
#273 = ADVANCED_BREP_SHAPE_REPRESENTATION ( '26362', ( #180, #181, #259 ), #175 ) ;
#274 = ORIENTED_EDGE ( 'NONE', *, *, #263, .F. ) ;
#275 = DIMENSIONAL_EXPONENTS ( 1.000000000000000000, 0.000000000000000000, 0.000000000000000000, 0.000000000000000000, 0.000000000000000000, 0.000000000000000000, 0.000000000000000000 ) ;
#276 = LINE ( 'NONE', #27, #41 ) ;
#277 = PRESENTATION_LAYER_ASSIGNMENT (  '', '', ( #47 ) ) ;
#278 = AXIS2_PLACEMENT_3D ( 'NONE', #202, #272, #50 ) ;
#279 = DIRECTION ( 'NONE',  ( 6.123233995736763571E-17, 1.000000000000000000, -0.000000000000000000 ) ) ;
#280 = ORIENTED_EDGE ( 'NONE', *, *, #263, .T. ) ;
#281 = LINE ( 'NONE', #14, #284 ) ;
#282 = EDGE_LOOP ( 'NONE', ( #86, #302 ) ) ;
#283 = FILL_AREA_STYLE_COLOUR ( '', #33 ) ;
#284 = VECTOR ( 'NONE', #279, 39.37007874015748143 ) ;
#285 = CARTESIAN_POINT ( 'NONE',  ( 1.224646799147352714E-16, 3.000000000000000444, 0.000000000000000000 ) ) ;
#286 = CYLINDRICAL_SURFACE ( 'NONE', #166, 0.3749999999999999445 ) ;
#287 = ADVANCED_FACE ( 'NONE', ( #107 ), #161, .T. ) ;
#288 = CARTESIAN_POINT ( 'NONE',  ( 0.3750000000000000555, 1.000000000000000000, 4.592425496802574219E-17 ) ) ;
#289 =( NAMED_UNIT ( * ) SI_UNIT ( $, .STERADIAN. ) SOLID_ANGLE_UNIT ( ) );
#290 = CARTESIAN_POINT ( 'NONE',  ( 0.000000000000000000, 0.000000000000000000, 0.000000000000000000 ) ) ;
#291 = ADVANCED_FACE ( 'NONE', ( #210 ), #188, .T. ) ;
#292 =( CONVERSION_BASED_UNIT ( 'INCH', #243 ) LENGTH_UNIT ( ) NAMED_UNIT ( #275 ) );
#293 = CIRCLE ( 'NONE', #278, 0.3750000000000000555 ) ;
#294 = ORIENTED_EDGE ( 'NONE', *, *, #2, .T. ) ;
#295 = DIRECTION ( 'NONE',  ( 6.123233995736763571E-17, 1.000000000000000000, -0.000000000000000000 ) ) ;
#296 = COLOUR_RGB ( '',1.000000000000000000, 0.000000000000000000, 0.000000000000000000 ) ;
#297 = CARTESIAN_POINT ( 'NONE',  ( 4.592425496802575451E-17, 1.000000000000000000, 0.3750000000000000555 ) ) ;
#298 = UNCERTAINTY_MEASURE_WITH_UNIT (LENGTH_MEASURE( 1.000000000000000082E-05 ), #223, 'distance_accuracy_value', 'NONE');
#299 = FILL_AREA_STYLE ('',( #283 ) ) ;
#300 = VERTEX_POINT ( 'NONE', #288 ) ;
#301 = DIRECTION ( 'NONE',  ( -0.000000000000000000, -1.000000000000000000, -0.000000000000000000 ) ) ;
#302 = ORIENTED_EDGE ( 'NONE', *, *, #68, .F. ) ;
#303 =( LENGTH_UNIT ( ) NAMED_UNIT ( * ) SI_UNIT ( $, .METRE. ) );
#304 = PLANE ( 'NONE',  #63 ) ;
#305 = CARTESIAN_POINT ( 'NONE',  ( 7.030123981227453260E-34, 1.000000000000000000, 0.000000000000000000 ) ) ;
#306 = AXIS2_PLACEMENT_3D ( 'NONE', #130, #301, #159 ) ;
#307 = EDGE_LOOP ( 'NONE', ( #213, #15, #211, #29 ) ) ;
#308 = SURFACE_SIDE_STYLE ('',( #112 ) ) ;
#309 = DIRECTION ( 'NONE',  ( 0.000000000000000000, -1.000000000000000000, -0.000000000000000000 ) ) ;
ENDSEC;
END-ISO-10303-21;
