ISO-10303-21;
HEADER;
FILE_DESCRIPTION (( 'STEP AP214' ),
    '1' );
FILE_NAME ('83433.STEP',
    '2023-06-23T10:06:54',
    ( '' ),
    ( '' ),
    'SwSTEP 2.0',
    'SolidWorks 2023',
    '' );
FILE_SCHEMA (( 'AUTOMOTIVE_DESIGN' ));
ENDSEC;

DATA;
#1 = ORIENTED_EDGE ( 'NONE', *, *, #289, .F. ) ;
#2 =( NAMED_UNIT ( * ) SI_UNIT ( $, .STERADIAN. ) SOLID_ANGLE_UNIT ( ) );
#3 = CARTESIAN_POINT ( 'NONE',  ( 0.09374999999999994449, 3.000000000000000444, 1.148106374200644325E-17 ) ) ;
#4 = ADVANCED_FACE ( 'NONE', ( #22 ), #194, .T. ) ;
#5 = DIRECTION ( 'NONE',  ( 0.000000000000000000, 0.000000000000000000, -1.000000000000000000 ) ) ;
#6 =( LENGTH_UNIT ( ) NAMED_UNIT ( * ) SI_UNIT ( $, .METRE. ) );
#7 = PRESENTATION_LAYER_ASSIGNMENT (  '', '', ( #134 ) ) ;
#8 =( GEOMETRIC_REPRESENTATION_CONTEXT ( 3 ) GLOBAL_UNCERTAINTY_ASSIGNED_CONTEXT ( ( #63 ) ) GLOBAL_UNIT_ASSIGNED_CONTEXT ( ( #86, #225, #254 ) ) REPRESENTATION_CONTEXT ( 'NONE', 'WORKASPACE' ) );
#9 = DIRECTION ( 'NONE',  ( -6.756671995295744383E-17, 1.000000000000000000, 0.000000000000000000 ) ) ;
#10 = DIRECTION ( 'NONE',  ( -6.756671995295744383E-17, 1.000000000000000000, -0.000000000000000000 ) ) ;
#11 = CARTESIAN_POINT ( 'NONE',  ( 0.000000000000000000, 0.000000000000000000, 0.000000000000000000 ) ) ;
#12 = DIRECTION ( 'NONE',  ( -0.000000000000000000, -1.000000000000000000, -0.000000000000000000 ) ) ;
#13 = EDGE_CURVE ( 'NONE', #144, #217, #172, .T. ) ;
#14 = MECHANICAL_DESIGN_GEOMETRIC_PRESENTATION_REPRESENTATION (  '', ( #228 ), #167 ) ;
#15 = COLOUR_RGB ( '',1.000000000000000000, 0.000000000000000000, 0.000000000000000000 ) ;
#16 = DIMENSIONAL_EXPONENTS ( 1.000000000000000000, 0.000000000000000000, 0.000000000000000000, 0.000000000000000000, 0.000000000000000000, 0.000000000000000000, 0.000000000000000000 ) ;
#17 = ADVANCED_FACE ( 'NONE', ( #105 ), #108, .T. ) ;
#18 = CIRCLE ( 'NONE', #102, 0.09375000000000001388 ) ;
#19 = DIMENSIONAL_EXPONENTS ( 1.000000000000000000, 0.000000000000000000, 0.000000000000000000, 0.000000000000000000, 0.000000000000000000, 0.000000000000000000, 0.000000000000000000 ) ;
#20 = FILL_AREA_STYLE ('',( #186 ) ) ;
#21 = AXIS2_PLACEMENT_3D ( 'NONE', #269, #304, #149 ) ;
#22 = FACE_OUTER_BOUND ( 'NONE', #148, .T. ) ;
#23 = SHAPE_DEFINITION_REPRESENTATION ( #150, #309 ) ;
#24 = CARTESIAN_POINT ( 'NONE',  ( 1.516480271171051896E-32, 1.187499999999999778, 0.000000000000000000 ) ) ;
#25 = CARTESIAN_POINT ( 'NONE',  ( 0.000000000000000000, 0.000000000000000000, 0.000000000000000000 ) ) ;
#26 = CARTESIAN_POINT ( 'NONE',  ( 0.09375000000000001388, 3.000000000000000444, 1.148106374200644941E-17 ) ) ;
#27 = CARTESIAN_POINT ( 'NONE',  ( -1.224646799147353700E-16, 3.000000000000000444, 0.000000000000000000 ) ) ;
#28 = APPLICATION_CONTEXT ( 'automotive_design' ) ;
#29 = FACE_OUTER_BOUND ( 'NONE', #196, .T. ) ;
#30 = DIRECTION ( 'NONE',  ( -1.000000000000000000, 0.000000000000000000, 0.000000000000000000 ) ) ;
#31 =( NAMED_UNIT ( * ) SI_UNIT ( $, .STERADIAN. ) SOLID_ANGLE_UNIT ( ) );
#32 = EDGE_LOOP ( 'NONE', ( #308, #207 ) ) ;
#33 = UNCERTAINTY_MEASURE_WITH_UNIT (LENGTH_MEASURE( 1.000000000000000082E-05 ), #46, 'distance_accuracy_value', 'NONE');
#34 =( CONVERSION_BASED_UNIT ( 'INCH', #83 ) LENGTH_UNIT ( ) NAMED_UNIT ( #19 ) );
#35 = ADVANCED_FACE ( 'NONE', ( #42 ), #280, .T. ) ;
#36 = FILL_AREA_STYLE_COLOUR ( '', #277 ) ;
#37 = LENGTH_MEASURE_WITH_UNIT ( LENGTH_MEASURE( 0.02539999999999999897 ), #128 );
#38 = DIRECTION ( 'NONE',  ( -6.756671995295744383E-17, 1.000000000000000000, -0.000000000000000000 ) ) ;
#39 = MECHANICAL_DESIGN_GEOMETRIC_PRESENTATION_REPRESENTATION (  '', ( #300 ), #78 ) ;
#40 = DIRECTION ( 'NONE',  ( -0.000000000000000000, -1.000000000000000000, -0.000000000000000000 ) ) ;
#41 = DIMENSIONAL_EXPONENTS ( 1.000000000000000000, 0.000000000000000000, 0.000000000000000000, 0.000000000000000000, 0.000000000000000000, 0.000000000000000000, 0.000000000000000000 ) ;
#42 = FACE_OUTER_BOUND ( 'NONE', #190, .T. ) ;
#43 = EDGE_CURVE ( 'NONE', #284, #142, #77, .T. ) ;
#44 = DIRECTION ( 'NONE',  ( 0.000000000000000000, 0.000000000000000000, -1.000000000000000000 ) ) ;
#45 = CARTESIAN_POINT ( 'NONE',  ( 0.000000000000000000, 1.187499999999999778, 0.000000000000000000 ) ) ;
#46 =( CONVERSION_BASED_UNIT ( 'INCH', #156 ) LENGTH_UNIT ( ) NAMED_UNIT ( #157 ) );
#47 = CIRCLE ( 'NONE', #181, 0.09375000000000001388 ) ;
#48 = PRODUCT_DEFINITION_FORMATION_WITH_SPECIFIED_SOURCE ( 'ANY', '', #290, .NOT_KNOWN. ) ;
#49 = CARTESIAN_POINT ( 'NONE',  ( 0.09375000000000001388, 1.187499999999999778, 1.148106374200644941E-17 ) ) ;
#50 = CARTESIAN_POINT ( 'NONE',  ( 0.000000000000000000, 0.000000000000000000, 0.000000000000000000 ) ) ;
#51 = ORIENTED_EDGE ( 'NONE', *, *, #294, .T. ) ;
#52 = AXIS2_PLACEMENT_3D ( 'NONE', #27, #246, #30 ) ;
#53 = FILL_AREA_STYLE_COLOUR ( '', #15 ) ;
#54 =( CONVERSION_BASED_UNIT ( 'INCH', #239 ) LENGTH_UNIT ( ) NAMED_UNIT ( #41 ) );
#55 = STYLED_ITEM ( 'NONE', ( #151 ), #69 ) ;
#56 = EDGE_LOOP ( 'NONE', ( #57, #137 ) ) ;
#57 = ORIENTED_EDGE ( 'NONE', *, *, #174, .F. ) ;
#58 = PLANE ( 'NONE',  #252 ) ;
#59 = ORIENTED_EDGE ( 'NONE', *, *, #158, .T. ) ;
#60 = EDGE_LOOP ( 'NONE', ( #187, #146 ) ) ;
#61 = CIRCLE ( 'NONE', #282, 0.09375000000000012490 ) ;
#62 = PRESENTATION_STYLE_ASSIGNMENT (( #251 ) ) ;
#63 = UNCERTAINTY_MEASURE_WITH_UNIT (LENGTH_MEASURE( 1.000000000000000082E-05 ), #86, 'distance_accuracy_value', 'NONE');
#64 =( NAMED_UNIT ( * ) PLANE_ANGLE_UNIT ( ) SI_UNIT ( $, .RADIAN. ) );
#65 = AXIS2_PLACEMENT_3D ( 'NONE', #109, #295, #140 ) ;
#66 = DIRECTION ( 'NONE',  ( -1.000000000000000000, 0.000000000000000000, 0.000000000000000000 ) ) ;
#67 =( NAMED_UNIT ( * ) PLANE_ANGLE_UNIT ( ) SI_UNIT ( $, .RADIAN. ) );
#68 = AXIS2_PLACEMENT_3D ( 'NONE', #124, #126, #145 ) ;
#69 = MANIFOLD_SOLID_BREP ( 'Revolve - Tool Body (Straight Shanked)', #94 ) ;
#70 = CARTESIAN_POINT ( 'NONE',  ( -0.09375000000000018041, 3.000000000000000444, 0.000000000000000000 ) ) ;
#71 = SURFACE_SIDE_STYLE ('',( #169 ) ) ;
#72 = LINE ( 'NONE', #70, #224 ) ;
#73 = ORIENTED_EDGE ( 'NONE', *, *, #123, .T. ) ;
#74 =( GEOMETRIC_REPRESENTATION_CONTEXT ( 3 ) GLOBAL_UNCERTAINTY_ASSIGNED_CONTEXT ( ( #302 ) ) GLOBAL_UNIT_ASSIGNED_CONTEXT ( ( #88, #64, #176 ) ) REPRESENTATION_CONTEXT ( 'NONE', 'WORKASPACE' ) );
#75 = FACE_OUTER_BOUND ( 'NONE', #32, .T. ) ;
#76 = DIRECTION ( 'NONE',  ( 0.000000000000000000, 0.000000000000000000, -1.000000000000000000 ) ) ;
#77 = CIRCLE ( 'NONE', #272, 0.09375000000000001388 ) ;
#78 =( GEOMETRIC_REPRESENTATION_CONTEXT ( 3 ) GLOBAL_UNCERTAINTY_ASSIGNED_CONTEXT ( ( #113 ) ) GLOBAL_UNIT_ASSIGNED_CONTEXT ( ( #54, #297, #2 ) ) REPRESENTATION_CONTEXT ( 'NONE', 'WORKASPACE' ) );
#79 = FILL_AREA_STYLE_COLOUR ( '', #154 ) ;
#80 = PLANE ( 'NONE',  #68 ) ;
#81 = ORIENTED_EDGE ( 'NONE', *, *, #266, .F. ) ;
#82 = PRESENTATION_STYLE_ASSIGNMENT (( #166 ) ) ;
#83 = LENGTH_MEASURE_WITH_UNIT ( LENGTH_MEASURE( 0.02539999999999999897 ), #6 );
#84 = CLOSED_SHELL ( 'NONE', ( #17, #153, #184, #258 ) ) ;
#85 = VECTOR ( 'NONE', #191, 39.37007874015748143 ) ;
#86 =( CONVERSION_BASED_UNIT ( 'INCH', #303 ) LENGTH_UNIT ( ) NAMED_UNIT ( #226 ) );
#87 =( LENGTH_UNIT ( ) NAMED_UNIT ( * ) SI_UNIT ( $, .METRE. ) );
#88 =( CONVERSION_BASED_UNIT ( 'INCH', #37 ) LENGTH_UNIT ( ) NAMED_UNIT ( #279 ) );
#89 = AXIS2_PLACEMENT_3D ( 'NONE', #216, #9, #165 ) ;
#90 = UNCERTAINTY_MEASURE_WITH_UNIT (LENGTH_MEASURE( 1.000000000000000082E-05 ), #193, 'distance_accuracy_value', 'NONE');
#91 = CARTESIAN_POINT ( 'NONE',  ( 1.516480271171051896E-32, 1.187499999999999778, 0.000000000000000000 ) ) ;
#92 = APPLICATION_PROTOCOL_DEFINITION ( 'draft international standard', 'automotive_design', 1998, #28 ) ;
#93 = SURFACE_STYLE_USAGE ( .BOTH. , #208 ) ;
#94 = CLOSED_SHELL ( 'NONE', ( #35, #231, #4, #203 ) ) ;
#95 = COLOUR_RGB ( '',1.000000000000000000, 0.000000000000000000, 0.000000000000000000 ) ;
#96 = PLANE ( 'NONE',  #173 ) ;
#97 = ORIENTED_EDGE ( 'NONE', *, *, #143, .T. ) ;
#98 = EDGE_CURVE ( 'NONE', #267, #217, #61, .T. ) ;
#99 = CARTESIAN_POINT ( 'NONE',  ( 0.000000000000000000, 1.187499999999999778, 0.000000000000000000 ) ) ;
#100 = ORIENTED_EDGE ( 'NONE', *, *, #123, .F. ) ;
#101 = SURFACE_SIDE_STYLE ('',( #210 ) ) ;
#102 = AXIS2_PLACEMENT_3D ( 'NONE', #298, #12, #44 ) ;
#103 = LENGTH_MEASURE_WITH_UNIT ( LENGTH_MEASURE( 0.02539999999999999897 ), #219 );
#104 = SURFACE_STYLE_FILL_AREA ( #170 ) ;
#105 = FACE_OUTER_BOUND ( 'NONE', #127, .T. ) ;
#106 = PRESENTATION_STYLE_ASSIGNMENT (( #245 ) ) ;
#107 = MECHANICAL_DESIGN_GEOMETRIC_PRESENTATION_REPRESENTATION (  '', ( #121 ), #200 ) ;
#108 = CYLINDRICAL_SURFACE ( 'NONE', #205, 0.09375000000000001388 ) ;
#109 = CARTESIAN_POINT ( 'NONE',  ( 0.000000000000000000, 0.000000000000000000, 0.000000000000000000 ) ) ;
#110 = PRESENTATION_STYLE_ASSIGNMENT (( #160 ) ) ;
#111 = CARTESIAN_POINT ( 'NONE',  ( 0.000000000000000000, 0.000000000000000000, -0.09375000000000001388 ) ) ;
#112 = CARTESIAN_POINT ( 'NONE',  ( 0.000000000000000000, 0.000000000000000000, 0.000000000000000000 ) ) ;
#113 = UNCERTAINTY_MEASURE_WITH_UNIT (LENGTH_MEASURE( 1.000000000000000082E-05 ), #54, 'distance_accuracy_value', 'NONE');
#114 =( LENGTH_UNIT ( ) NAMED_UNIT ( * ) SI_UNIT ( $, .METRE. ) );
#115 = DIRECTION ( 'NONE',  ( 0.000000000000000000, 0.000000000000000000, -1.000000000000000000 ) ) ;
#116 =( NAMED_UNIT ( * ) PLANE_ANGLE_UNIT ( ) SI_UNIT ( $, .RADIAN. ) );
#117 = CIRCLE ( 'NONE', #163, 0.09375000000000001388 ) ;
#118 = ORIENTED_EDGE ( 'NONE', *, *, #143, .F. ) ;
#119 = DIRECTION ( 'NONE',  ( -6.756671995295744383E-17, 1.000000000000000000, -0.000000000000000000 ) ) ;
#120 = CARTESIAN_POINT ( 'NONE',  ( -0.09375000000000001388, 1.187499999999999778, 0.000000000000000000 ) ) ;
#121 = STYLED_ITEM ( 'NONE', ( #106 ), #184 ) ;
#122 = FILL_AREA_STYLE_COLOUR ( '', #155 ) ;
#123 = EDGE_CURVE ( 'NONE', #284, #287, #306, .T. ) ;
#124 = CARTESIAN_POINT ( 'NONE',  ( 0.09375000000000001388, 3.000000000000000444, 0.000000000000000000 ) ) ;
#125 = EDGE_LOOP ( 'NONE', ( #118, #51, #73, #209 ) ) ;
#126 = DIRECTION ( 'NONE',  ( 6.756671995295744383E-17, -1.000000000000000000, 0.000000000000000000 ) ) ;
#127 = EDGE_LOOP ( 'NONE', ( #215, #97, #1, #100 ) ) ;
#128 =( LENGTH_UNIT ( ) NAMED_UNIT ( * ) SI_UNIT ( $, .METRE. ) );
#129 = DIRECTION ( 'NONE',  ( 0.000000000000000000, 0.000000000000000000, -1.000000000000000000 ) ) ;
#130 = PRESENTATION_LAYER_ASSIGNMENT (  '', '', ( #228 ) ) ;
#131 = COLOUR_RGB ( '',0.7921568627450980005, 0.8196078431372548767, 0.9333333333333333481 ) ;
#132 = DIRECTION ( 'NONE',  ( 0.000000000000000000, 0.000000000000000000, -1.000000000000000000 ) ) ;
#133 = DIRECTION ( 'NONE',  ( -0.000000000000000000, -1.000000000000000000, -0.000000000000000000 ) ) ;
#134 = STYLED_ITEM ( 'NONE', ( #283 ), #153 ) ;
#135 = DIRECTION ( 'NONE',  ( 0.000000000000000000, 1.000000000000000000, 0.000000000000000000 ) ) ;
#136 = DIRECTION ( 'NONE',  ( 0.000000000000000000, 0.000000000000000000, 1.000000000000000000 ) ) ;
#137 = ORIENTED_EDGE ( 'NONE', *, *, #179, .F. ) ;
#138 = MECHANICAL_DESIGN_GEOMETRIC_PRESENTATION_REPRESENTATION (  '', ( #55 ), #168 ) ;
#139 = FILL_AREA_STYLE ('',( #53 ) ) ;
#140 = DIRECTION ( 'NONE',  ( 0.000000000000000000, 0.000000000000000000, -1.000000000000000000 ) ) ;
#141 =( GEOMETRIC_REPRESENTATION_CONTEXT ( 3 ) GLOBAL_UNCERTAINTY_ASSIGNED_CONTEXT ( ( #33 ) ) GLOBAL_UNIT_ASSIGNED_CONTEXT ( ( #46, #204, #233 ) ) REPRESENTATION_CONTEXT ( 'NONE', 'WORKASPACE' ) );
#142 = VERTEX_POINT ( 'NONE', #307 ) ;
#143 = EDGE_CURVE ( 'NONE', #142, #270, #183, .T. ) ;
#144 = VERTEX_POINT ( 'NONE', #49 ) ;
#145 = DIRECTION ( 'NONE',  ( 1.000000000000000000, 6.756671995295744383E-17, 0.000000000000000000 ) ) ;
#146 = ORIENTED_EDGE ( 'NONE', *, *, #234, .T. ) ;
#147 = AXIS2_PLACEMENT_3D ( 'NONE', #11, #40, #132 ) ;
#148 = EDGE_LOOP ( 'NONE', ( #162, #244, #59, #81 ) ) ;
#149 = DIRECTION ( 'NONE',  ( -1.000000000000000000, 0.000000000000000000, 0.000000000000000000 ) ) ;
#150 = PRODUCT_DEFINITION_SHAPE ( 'NONE', 'NONE',  #240 ) ;
#151 = PRESENTATION_STYLE_ASSIGNMENT (( #250 ) ) ;
#152 = CIRCLE ( 'NONE', #21, 0.09375000000000012490 ) ;
#153 = ADVANCED_FACE ( 'NONE', ( #75 ), #96, .T. ) ;
#154 = COLOUR_RGB ( '',1.000000000000000000, 0.000000000000000000, 0.000000000000000000 ) ;
#155 = COLOUR_RGB ( '',1.000000000000000000, 0.000000000000000000, 0.000000000000000000 ) ;
#156 = LENGTH_MEASURE_WITH_UNIT ( LENGTH_MEASURE( 0.02539999999999999897 ), #164 );
#157 = DIMENSIONAL_EXPONENTS ( 1.000000000000000000, 0.000000000000000000, 0.000000000000000000, 0.000000000000000000, 0.000000000000000000, 0.000000000000000000, 0.000000000000000000 ) ;
#158 = EDGE_CURVE ( 'NONE', #265, #267, #72, .T. ) ;
#159 = DIRECTION ( 'NONE',  ( -1.000000000000000000, 0.000000000000000000, 0.000000000000000000 ) ) ;
#160 = SURFACE_STYLE_USAGE ( .BOTH. , #71 ) ;
#161 = FACE_OUTER_BOUND ( 'NONE', #125, .T. ) ;
#162 = ORIENTED_EDGE ( 'NONE', *, *, #13, .F. ) ;
#163 = AXIS2_PLACEMENT_3D ( 'NONE', #24, #119, #159 ) ;
#164 =( LENGTH_UNIT ( ) NAMED_UNIT ( * ) SI_UNIT ( $, .METRE. ) );
#165 = DIRECTION ( 'NONE',  ( -1.000000000000000000, -6.756671995295744383E-17, 0.000000000000000000 ) ) ;
#166 = SURFACE_STYLE_USAGE ( .BOTH. , #213 ) ;
#167 =( GEOMETRIC_REPRESENTATION_CONTEXT ( 3 ) GLOBAL_UNCERTAINTY_ASSIGNED_CONTEXT ( ( #223 ) ) GLOBAL_UNIT_ASSIGNED_CONTEXT ( ( #34, #67, #182 ) ) REPRESENTATION_CONTEXT ( 'NONE', 'WORKASPACE' ) );
#168 =( GEOMETRIC_REPRESENTATION_CONTEXT ( 3 ) GLOBAL_UNCERTAINTY_ASSIGNED_CONTEXT ( ( #268 ) ) GLOBAL_UNIT_ASSIGNED_CONTEXT ( ( #199, #116, #177 ) ) REPRESENTATION_CONTEXT ( 'NONE', 'WORKASPACE' ) );
#169 = SURFACE_STYLE_FILL_AREA ( #262 ) ;
#170 = FILL_AREA_STYLE ('',( #122 ) ) ;
#171 = ORIENTED_EDGE ( 'NONE', *, *, #174, .T. ) ;
#172 = LINE ( 'NONE', #3, #247 ) ;
#173 = AXIS2_PLACEMENT_3D ( 'NONE', #99, #135, #189 ) ;
#174 = EDGE_CURVE ( 'NONE', #265, #144, #117, .T. ) ;
#175 = CARTESIAN_POINT ( 'NONE',  ( -0.09375000000000024980, 3.000000000000000444, 0.000000000000000000 ) ) ;
#176 =( NAMED_UNIT ( * ) SI_UNIT ( $, .STERADIAN. ) SOLID_ANGLE_UNIT ( ) );
#177 =( NAMED_UNIT ( * ) SI_UNIT ( $, .STERADIAN. ) SOLID_ANGLE_UNIT ( ) );
#178 = SURFACE_STYLE_FILL_AREA ( #274 ) ;
#179 = EDGE_CURVE ( 'NONE', #144, #265, #47, .T. ) ;
#180 = CARTESIAN_POINT ( 'NONE',  ( -1.224646799147353700E-16, 3.000000000000000444, 0.000000000000000000 ) ) ;
#181 = AXIS2_PLACEMENT_3D ( 'NONE', #91, #257, #286 ) ;
#182 =( NAMED_UNIT ( * ) SI_UNIT ( $, .STERADIAN. ) SOLID_ANGLE_UNIT ( ) );
#183 = LINE ( 'NONE', #281, #255 ) ;
#184 = ADVANCED_FACE ( 'NONE', ( #161 ), #260, .T. ) ;
#185 = MECHANICAL_DESIGN_GEOMETRIC_PRESENTATION_REPRESENTATION (  '', ( #134 ), #141 ) ;
#186 = FILL_AREA_STYLE_COLOUR ( '', #95 ) ;
#187 = ORIENTED_EDGE ( 'NONE', *, *, #289, .T. ) ;
#188 = DIRECTION ( 'NONE',  ( 1.000000000000000000, 0.000000000000000000, 0.000000000000000000 ) ) ;
#189 = DIRECTION ( 'NONE',  ( 0.000000000000000000, -0.000000000000000000, 1.000000000000000000 ) ) ;
#190 = EDGE_LOOP ( 'NONE', ( #171, #292, #259, #241 ) ) ;
#191 = DIRECTION ( 'NONE',  ( -0.000000000000000000, -1.000000000000000000, -0.000000000000000000 ) ) ;
#192 = PRESENTATION_LAYER_ASSIGNMENT (  '', '', ( #55 ) ) ;
#193 =( CONVERSION_BASED_UNIT ( 'INCH', #103 ) LENGTH_UNIT ( ) NAMED_UNIT ( #206 ) );
#194 = CYLINDRICAL_SURFACE ( 'NONE', #52, 0.09375000000000005551 ) ;
#195 = CIRCLE ( 'NONE', #65, 0.09375000000000001388 ) ;
#196 = EDGE_LOOP ( 'NONE', ( #235, #296 ) ) ;
#197 = DIRECTION ( 'NONE',  ( -0.000000000000000000, -1.000000000000000000, -0.000000000000000000 ) ) ;
#198 = CARTESIAN_POINT ( 'NONE',  ( 0.000000000000000000, 0.000000000000000000, -0.09375000000000001388 ) ) ;
#199 =( CONVERSION_BASED_UNIT ( 'INCH', #222 ) LENGTH_UNIT ( ) NAMED_UNIT ( #16 ) );
#200 =( GEOMETRIC_REPRESENTATION_CONTEXT ( 3 ) GLOBAL_UNCERTAINTY_ASSIGNED_CONTEXT ( ( #90 ) ) GLOBAL_UNIT_ASSIGNED_CONTEXT ( ( #193, #288, #31 ) ) REPRESENTATION_CONTEXT ( 'NONE', 'WORKASPACE' ) );
#201 = SURFACE_SIDE_STYLE ('',( #178 ) ) ;
#202 = FILL_AREA_STYLE ('',( #299 ) ) ;
#203 = ADVANCED_FACE ( 'NONE', ( #29 ), #80, .F. ) ;
#204 =( NAMED_UNIT ( * ) PLANE_ANGLE_UNIT ( ) SI_UNIT ( $, .RADIAN. ) );
#205 = AXIS2_PLACEMENT_3D ( 'NONE', #112, #133, #115 ) ;
#206 = DIMENSIONAL_EXPONENTS ( 1.000000000000000000, 0.000000000000000000, 0.000000000000000000, 0.000000000000000000, 0.000000000000000000, 0.000000000000000000, 0.000000000000000000 ) ;
#207 = ORIENTED_EDGE ( 'NONE', *, *, #294, .F. ) ;
#208 = SURFACE_SIDE_STYLE ('',( #232 ) ) ;
#209 = ORIENTED_EDGE ( 'NONE', *, *, #234, .F. ) ;
#210 = SURFACE_STYLE_FILL_AREA ( #139 ) ;
#211 = CARTESIAN_POINT ( 'NONE',  ( 0.000000000000000000, 0.000000000000000000, 0.000000000000000000 ) ) ;
#212 = PRESENTATION_LAYER_ASSIGNMENT (  '', '', ( #121 ) ) ;
#213 = SURFACE_SIDE_STYLE ('',( #104 ) ) ;
#214 =( LENGTH_UNIT ( ) NAMED_UNIT ( * ) SI_UNIT ( $, .METRE. ) );
#215 = ORIENTED_EDGE ( 'NONE', *, *, #43, .T. ) ;
#216 = CARTESIAN_POINT ( 'NONE',  ( 2.139966396188145870E-34, 1.187499999999999778, 0.000000000000000000 ) ) ;
#217 = VERTEX_POINT ( 'NONE', #26 ) ;
#218 = STYLED_ITEM ( 'NONE', ( #62 ), #273 ) ;
#219 =( LENGTH_UNIT ( ) NAMED_UNIT ( * ) SI_UNIT ( $, .METRE. ) );
#220 = DIRECTION ( 'NONE',  ( -1.000000000000000000, 0.000000000000000000, 0.000000000000000000 ) ) ;
#221 = CARTESIAN_POINT ( 'NONE',  ( 0.000000000000000000, 1.187499999999999778, -0.09375000000000001388 ) ) ;
#222 = LENGTH_MEASURE_WITH_UNIT ( LENGTH_MEASURE( 0.02539999999999999897 ), #87 );
#223 = UNCERTAINTY_MEASURE_WITH_UNIT (LENGTH_MEASURE( 1.000000000000000082E-05 ), #34, 'distance_accuracy_value', 'NONE');
#224 = VECTOR ( 'NONE', #236, 39.37007874015748143 ) ;
#225 =( NAMED_UNIT ( * ) PLANE_ANGLE_UNIT ( ) SI_UNIT ( $, .RADIAN. ) );
#226 = DIMENSIONAL_EXPONENTS ( 1.000000000000000000, 0.000000000000000000, 0.000000000000000000, 0.000000000000000000, 0.000000000000000000, 0.000000000000000000, 0.000000000000000000 ) ;
#227 = SURFACE_SIDE_STYLE ('',( #301 ) ) ;
#228 = STYLED_ITEM ( 'NONE', ( #110 ), #17 ) ;
#229 = DIRECTION ( 'NONE',  ( -0.000000000000000000, -1.000000000000000000, -0.000000000000000000 ) ) ;
#230 = MECHANICAL_DESIGN_GEOMETRIC_PRESENTATION_REPRESENTATION (  '', ( #218 ), #74 ) ;
#231 = ADVANCED_FACE ( 'NONE', ( #291 ), #237, .F. ) ;
#232 = SURFACE_STYLE_FILL_AREA ( #20 ) ;
#233 =( NAMED_UNIT ( * ) SI_UNIT ( $, .STERADIAN. ) SOLID_ANGLE_UNIT ( ) );
#234 = EDGE_CURVE ( 'NONE', #270, #287, #195, .T. ) ;
#235 = ORIENTED_EDGE ( 'NONE', *, *, #98, .T. ) ;
#236 = DIRECTION ( 'NONE',  ( -6.756671995295744383E-17, 1.000000000000000000, -0.000000000000000000 ) ) ;
#237 = PLANE ( 'NONE',  #89 ) ;
#238 = FACE_OUTER_BOUND ( 'NONE', #60, .T. ) ;
#239 = LENGTH_MEASURE_WITH_UNIT ( LENGTH_MEASURE( 0.02539999999999999897 ), #214 );
#240 = PRODUCT_DEFINITION ( 'UNKNOWN', '', #48, #276 ) ;
#241 = ORIENTED_EDGE ( 'NONE', *, *, #158, .F. ) ;
#242 = APPLICATION_CONTEXT ( 'automotive_design' ) ;
#243 = DIRECTION ( 'NONE',  ( 0.000000000000000000, -1.000000000000000000, -0.000000000000000000 ) ) ;
#244 = ORIENTED_EDGE ( 'NONE', *, *, #179, .T. ) ;
#245 = SURFACE_STYLE_USAGE ( .BOTH. , #101 ) ;
#246 = DIRECTION ( 'NONE',  ( -6.756671995295744383E-17, 1.000000000000000000, -0.000000000000000000 ) ) ;
#247 = VECTOR ( 'NONE', #10, 39.37007874015748143 ) ;
#248 = CIRCLE ( 'NONE', #147, 0.09375000000000001388 ) ;
#249 = CARTESIAN_POINT ( 'NONE',  ( 1.148106374200643863E-17, 0.000000000000000000, 0.09375000000000001388 ) ) ;
#250 = SURFACE_STYLE_USAGE ( .BOTH. , #227 ) ;
#251 = SURFACE_STYLE_USAGE ( .BOTH. , #201 ) ;
#252 = AXIS2_PLACEMENT_3D ( 'NONE', #25, #243, #5 ) ;
#253 = CARTESIAN_POINT ( 'NONE',  ( -1.224646799147353700E-16, 3.000000000000000444, 0.000000000000000000 ) ) ;
#254 =( NAMED_UNIT ( * ) SI_UNIT ( $, .STERADIAN. ) SOLID_ANGLE_UNIT ( ) );
#255 = VECTOR ( 'NONE', #229, 39.37007874015748143 ) ;
#256 = PRODUCT_CONTEXT ( 'NONE', #242, 'mechanical' ) ;
#257 = DIRECTION ( 'NONE',  ( -6.756671995295744383E-17, 1.000000000000000000, -0.000000000000000000 ) ) ;
#258 = ADVANCED_FACE ( 'NONE', ( #238 ), #58, .T. ) ;
#259 = ORIENTED_EDGE ( 'NONE', *, *, #98, .F. ) ;
#260 = CYLINDRICAL_SURFACE ( 'NONE', #263, 0.09375000000000001388 ) ;
#261 = PRESENTATION_LAYER_ASSIGNMENT (  '', '', ( #218 ) ) ;
#262 = FILL_AREA_STYLE ('',( #79 ) ) ;
#263 = AXIS2_PLACEMENT_3D ( 'NONE', #211, #197, #76 ) ;
#264 = AXIS2_PLACEMENT_3D ( 'NONE', #50, #136, #188 ) ;
#265 = VERTEX_POINT ( 'NONE', #120 ) ;
#266 = EDGE_CURVE ( 'NONE', #217, #267, #152, .T. ) ;
#267 = VERTEX_POINT ( 'NONE', #175 ) ;
#268 = UNCERTAINTY_MEASURE_WITH_UNIT (LENGTH_MEASURE( 1.000000000000000082E-05 ), #199, 'distance_accuracy_value', 'NONE');
#269 = CARTESIAN_POINT ( 'NONE',  ( -1.224646799147353700E-16, 3.000000000000000444, 0.000000000000000000 ) ) ;
#270 = VERTEX_POINT ( 'NONE', #249 ) ;
#271 = PRODUCT_RELATED_PRODUCT_CATEGORY ( 'part', '', ( #290 ) ) ;
#272 = AXIS2_PLACEMENT_3D ( 'NONE', #45, #275, #129 ) ;
#273 = MANIFOLD_SOLID_BREP ( 'Revolve - Cutting Edge', #84 ) ;
#274 = FILL_AREA_STYLE ('',( #36 ) ) ;
#275 = DIRECTION ( 'NONE',  ( -0.000000000000000000, -1.000000000000000000, -0.000000000000000000 ) ) ;
#276 = PRODUCT_DEFINITION_CONTEXT ( 'detailed design', #28, 'design' ) ;
#277 = COLOUR_RGB ( '',0.7921568627450980005, 0.8196078431372548767, 0.9333333333333333481 ) ;
#278 = DIRECTION ( 'NONE',  ( -6.756671995295744383E-17, 1.000000000000000000, -0.000000000000000000 ) ) ;
#279 = DIMENSIONAL_EXPONENTS ( 1.000000000000000000, 0.000000000000000000, 0.000000000000000000, 0.000000000000000000, 0.000000000000000000, 0.000000000000000000, 0.000000000000000000 ) ;
#280 = CYLINDRICAL_SURFACE ( 'NONE', #305, 0.09375000000000005551 ) ;
#281 = CARTESIAN_POINT ( 'NONE',  ( 1.148106374200643863E-17, 0.000000000000000000, 0.09375000000000001388 ) ) ;
#282 = AXIS2_PLACEMENT_3D ( 'NONE', #180, #278, #66 ) ;
#283 = PRESENTATION_STYLE_ASSIGNMENT (( #93 ) ) ;
#284 = VERTEX_POINT ( 'NONE', #221 ) ;
#285 = APPLICATION_PROTOCOL_DEFINITION ( 'draft international standard', 'automotive_design', 1998, #242 ) ;
#286 = DIRECTION ( 'NONE',  ( -1.000000000000000000, 0.000000000000000000, 0.000000000000000000 ) ) ;
#287 = VERTEX_POINT ( 'NONE', #198 ) ;
#288 =( NAMED_UNIT ( * ) PLANE_ANGLE_UNIT ( ) SI_UNIT ( $, .RADIAN. ) );
#289 = EDGE_CURVE ( 'NONE', #287, #270, #248, .T. ) ;
#290 = PRODUCT ( '83433', '83433', '', ( #256 ) ) ;
#291 = FACE_OUTER_BOUND ( 'NONE', #56, .T. ) ;
#292 = ORIENTED_EDGE ( 'NONE', *, *, #13, .T. ) ;
#293 = PRESENTATION_LAYER_ASSIGNMENT (  '', '', ( #300 ) ) ;
#294 = EDGE_CURVE ( 'NONE', #142, #284, #18, .T. ) ;
#295 = DIRECTION ( 'NONE',  ( -0.000000000000000000, -1.000000000000000000, -0.000000000000000000 ) ) ;
#296 = ORIENTED_EDGE ( 'NONE', *, *, #266, .T. ) ;
#297 =( NAMED_UNIT ( * ) PLANE_ANGLE_UNIT ( ) SI_UNIT ( $, .RADIAN. ) );
#298 = CARTESIAN_POINT ( 'NONE',  ( 0.000000000000000000, 1.187499999999999778, 0.000000000000000000 ) ) ;
#299 = FILL_AREA_STYLE_COLOUR ( '', #131 ) ;
#300 = STYLED_ITEM ( 'NONE', ( #82 ), #258 ) ;
#301 = SURFACE_STYLE_FILL_AREA ( #202 ) ;
#302 = UNCERTAINTY_MEASURE_WITH_UNIT (LENGTH_MEASURE( 1.000000000000000082E-05 ), #88, 'distance_accuracy_value', 'NONE');
#303 = LENGTH_MEASURE_WITH_UNIT ( LENGTH_MEASURE( 0.02539999999999999897 ), #114 );
#304 = DIRECTION ( 'NONE',  ( -6.756671995295744383E-17, 1.000000000000000000, -0.000000000000000000 ) ) ;
#305 = AXIS2_PLACEMENT_3D ( 'NONE', #253, #38, #220 ) ;
#306 = LINE ( 'NONE', #111, #85 ) ;
#307 = CARTESIAN_POINT ( 'NONE',  ( 1.148106374200643863E-17, 1.187499999999999778, 0.09375000000000001388 ) ) ;
#308 = ORIENTED_EDGE ( 'NONE', *, *, #43, .F. ) ;
#309 = ADVANCED_BREP_SHAPE_REPRESENTATION ( '83433', ( #273, #69, #264 ), #8 ) ;
ENDSEC;
END-ISO-10303-21;
