ISO-10303-21;
HEADER;
FILE_DESCRIPTION (( 'STEP AP214' ),
    '1' );
FILE_NAME ('82510.STEP',
    '2023-06-30T22:45:15',
    ( '' ),
    ( '' ),
    'SwSTEP 2.0',
    'SolidWorks 2023',
    '' );
FILE_SCHEMA (( 'AUTOMOTIVE_DESIGN' ));
ENDSEC;

DATA;
#1 = DIRECTION ( 'NONE',  ( 1.224646799147353207E-16, -0.000000000000000000, 1.000000000000000000 ) ) ;
#2 = CARTESIAN_POINT ( 'NONE',  ( -7.654042494670957545E-18, 0.06250000000000001388, 0.000000000000000000 ) ) ;
#3 = CARTESIAN_POINT ( 'NONE',  ( -0.06249999999999933387, 2.500000000000000000, 0.000000000000000000 ) ) ;
#4 = ADVANCED_FACE ( 'NONE', ( #365 ), #314, .T. ) ;
#5 = CARTESIAN_POINT ( 'NONE',  ( 0.000000000000000000, 0.000000000000000000, -0.06249999999999997918 ) ) ;
#6 = CIRCLE ( 'NONE', #344, 0.06249999999999995143 ) ;
#7 = FILL_AREA_STYLE_COLOUR ( '', #69 ) ;
#8 = DIRECTION ( 'NONE',  ( 1.000000000000000000, 0.000000000000000000, -1.224646799147353207E-16 ) ) ;
#9 = DIMENSIONAL_EXPONENTS ( 1.000000000000000000, 0.000000000000000000, 0.000000000000000000, 0.000000000000000000, 0.000000000000000000, 0.000000000000000000, 0.000000000000000000 ) ;
#10 = DIRECTION ( 'NONE',  ( -1.000000000000000000, 0.000000000000000000, 0.000000000000000000 ) ) ;
#11 = UNCERTAINTY_MEASURE_WITH_UNIT (LENGTH_MEASURE( 1.000000000000000082E-05 ), #353, 'distance_accuracy_value', 'NONE');
#12 =( NAMED_UNIT ( * ) SI_UNIT ( $, .STERADIAN. ) SOLID_ANGLE_UNIT ( ) );
#13 = SURFACE_STYLE_USAGE ( .BOTH. , #15 ) ;
#14 = MECHANICAL_DESIGN_GEOMETRIC_PRESENTATION_REPRESENTATION (  '', ( #369 ), #139 ) ;
#15 = SURFACE_SIDE_STYLE ('',( #265 ) ) ;
#16 = UNCERTAINTY_MEASURE_WITH_UNIT (LENGTH_MEASURE( 1.000000000000000082E-05 ), #195, 'distance_accuracy_value', 'NONE');
#17 = ORIENTED_EDGE ( 'NONE', *, *, #333, .F. ) ;
#18 = PRODUCT ( '82510', '82510', '', ( #295 ) ) ;
#19 = ORIENTED_EDGE ( 'NONE', *, *, #289, .F. ) ;
#20 = DIRECTION ( 'NONE',  ( 0.000000000000000000, 0.000000000000000000, -1.000000000000000000 ) ) ;
#21 = CIRCLE ( 'NONE', #235, 0.06250000000000001388 ) ;
#22 = CIRCLE ( 'NONE', #168, 0.06250000000000001388 ) ;
#23 = ORIENTED_EDGE ( 'NONE', *, *, #318, .T. ) ;
#24 = ORIENTED_EDGE ( 'NONE', *, *, #281, .T. ) ;
#25 = CARTESIAN_POINT ( 'NONE',  ( 0.06249999999999995143, 0.7499999999999998890, 7.654042494670905160E-18 ) ) ;
#26 = LENGTH_MEASURE_WITH_UNIT ( LENGTH_MEASURE( 0.02539999999999999897 ), #252 );
#27 = DIRECTION ( 'NONE',  ( 1.000000000000000000, 0.000000000000000000, 0.000000000000000000 ) ) ;
#28 =( GEOMETRIC_REPRESENTATION_CONTEXT ( 3 ) GLOBAL_UNCERTAINTY_ASSIGNED_CONTEXT ( ( #221 ) ) GLOBAL_UNIT_ASSIGNED_CONTEXT ( ( #225, #170, #256 ) ) REPRESENTATION_CONTEXT ( 'NONE', 'WORKASPACE' ) );
#29 =( GEOMETRIC_REPRESENTATION_CONTEXT ( 3 ) GLOBAL_UNCERTAINTY_ASSIGNED_CONTEXT ( ( #157 ) ) GLOBAL_UNIT_ASSIGNED_CONTEXT ( ( #141, #232, #94 ) ) REPRESENTATION_CONTEXT ( 'NONE', 'WORKASPACE' ) );
#30 = DIRECTION ( 'NONE',  ( 0.000000000000000000, 0.000000000000000000, 1.000000000000000000 ) ) ;
#31 = SURFACE_STYLE_FILL_AREA ( #55 ) ;
#32 =( CONVERSION_BASED_UNIT ( 'INCH', #26 ) LENGTH_UNIT ( ) NAMED_UNIT ( #361 ) );
#33 = FILL_AREA_STYLE_COLOUR ( '', #114 ) ;
#34 = STYLED_ITEM ( 'NONE', ( #136 ), #118 ) ;
#35 = FILL_AREA_STYLE_COLOUR ( '', #229 ) ;
#36 = DIRECTION ( 'NONE',  ( 0.000000000000000000, -0.000000000000000000, 1.000000000000000000 ) ) ;
#37 = ADVANCED_FACE ( 'NONE', ( #85 ), #175, .T. ) ;
#38 = DIRECTION ( 'NONE',  ( 1.381034651668435717E-16, -1.000000000000000000, 0.000000000000000000 ) ) ;
#39 = CIRCLE ( 'NONE', #244, 0.06249999999999963918 ) ;
#40 = AXIS2_PLACEMENT_3D ( 'NONE', #161, #272, #131 ) ;
#41 = DIRECTION ( 'NONE',  ( -1.000000000000000000, 0.000000000000000000, 0.000000000000000000 ) ) ;
#42 = CARTESIAN_POINT ( 'NONE',  ( 0.000000000000000000, 0.000000000000000000, 0.000000000000000000 ) ) ;
#43 =( CONVERSION_BASED_UNIT ( 'INCH', #345 ) LENGTH_UNIT ( ) NAMED_UNIT ( #9 ) );
#44 = DIRECTION ( 'NONE',  ( -1.000000000000000000, 0.000000000000000000, 0.000000000000000000 ) ) ;
#45 = PRESENTATION_LAYER_ASSIGNMENT (  '', '', ( #144 ) ) ;
#46 = MECHANICAL_DESIGN_GEOMETRIC_PRESENTATION_REPRESENTATION (  '', ( #204 ), #58 ) ;
#47 = ORIENTED_EDGE ( 'NONE', *, *, #71, .F. ) ;
#48 = DIRECTION ( 'NONE',  ( -1.381034651668435717E-16, 1.000000000000000000, -0.000000000000000000 ) ) ;
#49 = UNCERTAINTY_MEASURE_WITH_UNIT (LENGTH_MEASURE( 1.000000000000000082E-05 ), #32, 'distance_accuracy_value', 'NONE');
#50 = CYLINDRICAL_SURFACE ( 'NONE', #70, 0.06249999999999997918 ) ;
#51 = EDGE_LOOP ( 'NONE', ( #19, #214, #24, #218 ) ) ;
#52 = DIRECTION ( 'NONE',  ( 1.000000000000000000, 0.000000000000000000, 0.000000000000000000 ) ) ;
#53 = ORIENTED_EDGE ( 'NONE', *, *, #318, .F. ) ;
#54 = PRESENTATION_STYLE_ASSIGNMENT (( #335 ) ) ;
#55 = FILL_AREA_STYLE ('',( #33 ) ) ;
#56 = SURFACE_STYLE_FILL_AREA ( #310 ) ;
#57 = CLOSED_SHELL ( 'NONE', ( #37, #354, #158, #329 ) ) ;
#58 =( GEOMETRIC_REPRESENTATION_CONTEXT ( 3 ) GLOBAL_UNCERTAINTY_ASSIGNED_CONTEXT ( ( #210 ) ) GLOBAL_UNIT_ASSIGNED_CONTEXT ( ( #372, #332, #113 ) ) REPRESENTATION_CONTEXT ( 'NONE', 'WORKASPACE' ) );
#59 = MANIFOLD_SOLID_BREP ( 'Revolve - Cutting Edge', #358 ) ;
#60 = DIRECTION ( 'NONE',  ( -1.381034651668435717E-16, 1.000000000000000000, -0.000000000000000000 ) ) ;
#61 = CARTESIAN_POINT ( 'NONE',  ( 0.000000000000000000, 0.06250000000000001388, 0.000000000000000000 ) ) ;
#62 = MANIFOLD_SOLID_BREP ( 'Revolve - Tool Body (Straight Shanked)', #57 ) ;
#63 = FACE_OUTER_BOUND ( 'NONE', #359, .T. ) ;
#64 = DIRECTION ( 'NONE',  ( 0.000000000000000000, 0.000000000000000000, -1.000000000000000000 ) ) ;
#65 = AXIS2_PLACEMENT_3D ( 'NONE', #312, #234, #292 ) ;
#66 = DIRECTION ( 'NONE',  ( 1.000000000000000000, 1.381034651668435717E-16, 0.000000000000000000 ) ) ;
#67 = PLANE ( 'NONE',  #350 ) ;
#68 = LINE ( 'NONE', #230, #251 ) ;
#69 = COLOUR_RGB ( '',1.000000000000000000, 0.000000000000000000, 0.000000000000000000 ) ;
#70 = AXIS2_PLACEMENT_3D ( 'NONE', #156, #268, #20 ) ;
#71 = EDGE_CURVE ( 'NONE', #101, #186, #277, .T. ) ;
#72 = CARTESIAN_POINT ( 'NONE',  ( 7.654042494670959086E-18, 0.06250000000000001388, 0.06250000000000001388 ) ) ;
#73 = FACE_OUTER_BOUND ( 'NONE', #246, .T. ) ;
#74 = DIRECTION ( 'NONE',  ( 0.000000000000000000, 1.000000000000000000, 0.000000000000000000 ) ) ;
#75 = MECHANICAL_DESIGN_GEOMETRIC_PRESENTATION_REPRESENTATION (  '', ( #297 ), #28 ) ;
#76 =( NAMED_UNIT ( * ) SI_UNIT ( $, .STERADIAN. ) SOLID_ANGLE_UNIT ( ) );
#77 = EDGE_CURVE ( 'NONE', #186, #253, #21, .T. ) ;
#78 = AXIS2_PLACEMENT_3D ( 'NONE', #116, #86, #27 ) ;
#79 = VERTEX_POINT ( 'NONE', #148 ) ;
#80 = ORIENTED_EDGE ( 'NONE', *, *, #296, .T. ) ;
#81 = CIRCLE ( 'NONE', #162, 0.06250000000000001388 ) ;
#82 = UNCERTAINTY_MEASURE_WITH_UNIT (LENGTH_MEASURE( 1.000000000000000082E-05 ), #43, 'distance_accuracy_value', 'NONE');
#83 = EDGE_CURVE ( 'NONE', #303, #101, #120, .T. ) ;
#84 = FILL_AREA_STYLE_COLOUR ( '', #364 ) ;
#85 = FACE_OUTER_BOUND ( 'NONE', #243, .T. ) ;
#86 = DIRECTION ( 'NONE',  ( 0.000000000000000000, 0.000000000000000000, 1.000000000000000000 ) ) ;
#87 = CARTESIAN_POINT ( 'NONE',  ( 0.000000000000000000, 0.7499999999999998890, 0.000000000000000000 ) ) ;
#88 = CARTESIAN_POINT ( 'NONE',  ( -7.654042494670957545E-18, 0.06250000000000001388, 0.000000000000000000 ) ) ;
#89 = PRESENTATION_STYLE_ASSIGNMENT (( #112 ) ) ;
#90 = APPLICATION_PROTOCOL_DEFINITION ( 'draft international standard', 'automotive_design', 1998, #208 ) ;
#91 = EDGE_CURVE ( 'NONE', #306, #248, #39, .T. ) ;
#92 = VECTOR ( 'NONE', #181, 39.37007874015748143 ) ;
#93 = FACE_OUTER_BOUND ( 'NONE', #194, .T. ) ;
#94 =( NAMED_UNIT ( * ) SI_UNIT ( $, .STERADIAN. ) SOLID_ANGLE_UNIT ( ) );
#95 = DIMENSIONAL_EXPONENTS ( 1.000000000000000000, 0.000000000000000000, 0.000000000000000000, 0.000000000000000000, 0.000000000000000000, 0.000000000000000000, 0.000000000000000000 ) ;
#96 = DIRECTION ( 'NONE',  ( 0.000000000000000000, 0.000000000000000000, -1.000000000000000000 ) ) ;
#97 = SURFACE_STYLE_FILL_AREA ( #373 ) ;
#98 = UNCERTAINTY_MEASURE_WITH_UNIT (LENGTH_MEASURE( 1.000000000000000082E-05 ), #105, 'distance_accuracy_value', 'NONE');
#99 =( NAMED_UNIT ( * ) PLANE_ANGLE_UNIT ( ) SI_UNIT ( $, .RADIAN. ) );
#100 = FILL_AREA_STYLE ('',( #300 ) ) ;
#101 = VERTEX_POINT ( 'NONE', #291 ) ;
#102 = VERTEX_POINT ( 'NONE', #72 ) ;
#103 = MECHANICAL_DESIGN_GEOMETRIC_PRESENTATION_REPRESENTATION (  '', ( #174 ), #316 ) ;
#104 = ORIENTED_EDGE ( 'NONE', *, *, #164, .T. ) ;
#105 =( CONVERSION_BASED_UNIT ( 'INCH', #126 ) LENGTH_UNIT ( ) NAMED_UNIT ( #151 ) );
#106 = ORIENTED_EDGE ( 'NONE', *, *, #296, .F. ) ;
#107 =( GEOMETRIC_REPRESENTATION_CONTEXT ( 3 ) GLOBAL_UNCERTAINTY_ASSIGNED_CONTEXT ( ( #49 ) ) GLOBAL_UNIT_ASSIGNED_CONTEXT ( ( #32, #367, #280 ) ) REPRESENTATION_CONTEXT ( 'NONE', 'WORKASPACE' ) );
#108 = PRESENTATION_LAYER_ASSIGNMENT (  '', '', ( #174 ) ) ;
#109 = CARTESIAN_POINT ( 'NONE',  ( -0.06249999999999921590, 2.500000000000000000, 0.000000000000000000 ) ) ;
#110 = ADVANCED_FACE ( 'NONE', ( #238 ), #67, .T. ) ;
#111 =( LENGTH_UNIT ( ) NAMED_UNIT ( * ) SI_UNIT ( $, .METRE. ) );
#112 = SURFACE_STYLE_USAGE ( .BOTH. , #231 ) ;
#113 =( NAMED_UNIT ( * ) SI_UNIT ( $, .STERADIAN. ) SOLID_ANGLE_UNIT ( ) );
#114 = COLOUR_RGB ( '',0.7921568627450980005, 0.8196078431372548767, 0.9333333333333333481 ) ;
#115 = VECTOR ( 'NONE', #226, 39.37007874015748143 ) ;
#116 = CARTESIAN_POINT ( 'NONE',  ( -7.654042494670957545E-18, 0.06250000000000001388, 0.000000000000000000 ) ) ;
#117 = ORIENTED_EDGE ( 'NONE', *, *, #281, .F. ) ;
#118 = ADVANCED_FACE ( 'NONE', ( #179 ), #163, .T. ) ;
#119 =( LENGTH_UNIT ( ) NAMED_UNIT ( * ) SI_UNIT ( $, .METRE. ) );
#120 = CIRCLE ( 'NONE', #324, 0.06250000000000001388 ) ;
#121 = CARTESIAN_POINT ( 'NONE',  ( 3.061616997868383141E-16, 2.500000000000000000, 0.000000000000000000 ) ) ;
#122 = DIRECTION ( 'NONE',  ( -0.000000000000000000, -1.000000000000000000, -0.000000000000000000 ) ) ;
#123 = PRODUCT_RELATED_PRODUCT_CATEGORY ( 'part', '', ( #18 ) ) ;
#124 = FILL_AREA_STYLE ('',( #7 ) ) ;
#125 = CARTESIAN_POINT ( 'NONE',  ( 0.000000000000000000, 0.06250000000000001388, 0.000000000000000000 ) ) ;
#126 = LENGTH_MEASURE_WITH_UNIT ( LENGTH_MEASURE( 0.02539999999999999897 ), #213 );
#127 = EDGE_LOOP ( 'NONE', ( #17, #267, #269, #132 ) ) ;
#128 = AXIS2_PLACEMENT_3D ( 'NONE', #61, #257, #177 ) ;
#129 = CARTESIAN_POINT ( 'NONE',  ( 0.06249999999999995143, 2.500000000000000000, 7.654042494670905160E-18 ) ) ;
#130 = ORIENTED_EDGE ( 'NONE', *, *, #333, .T. ) ;
#131 = DIRECTION ( 'NONE',  ( 0.000000000000000000, 0.000000000000000000, -1.000000000000000000 ) ) ;
#132 = ORIENTED_EDGE ( 'NONE', *, *, #77, .T. ) ;
#133 = PRESENTATION_STYLE_ASSIGNMENT (( #278 ) ) ;
#134 = AXIS2_PLACEMENT_3D ( 'NONE', #371, #38, #66 ) ;
#135 =( LENGTH_UNIT ( ) NAMED_UNIT ( * ) SI_UNIT ( $, .METRE. ) );
#136 = PRESENTATION_STYLE_ASSIGNMENT (( #200 ) ) ;
#137 = SPHERICAL_SURFACE ( 'NONE', #78, 0.06250000000000001388 ) ;
#138 = CYLINDRICAL_SURFACE ( 'NONE', #266, 0.06249999999999952122 ) ;
#139 =( GEOMETRIC_REPRESENTATION_CONTEXT ( 3 ) GLOBAL_UNCERTAINTY_ASSIGNED_CONTEXT ( ( #82 ) ) GLOBAL_UNIT_ASSIGNED_CONTEXT ( ( #43, #99, #12 ) ) REPRESENTATION_CONTEXT ( 'NONE', 'WORKASPACE' ) );
#140 = CARTESIAN_POINT ( 'NONE',  ( 0.000000000000000000, 0.000000000000000000, 0.000000000000000000 ) ) ;
#141 =( CONVERSION_BASED_UNIT ( 'INCH', #349 ) LENGTH_UNIT ( ) NAMED_UNIT ( #212 ) );
#142 = ADVANCED_FACE ( 'NONE', ( #224 ), #137, .T. ) ;
#143 = DIRECTION ( 'NONE',  ( 0.000000000000000000, 0.000000000000000000, -1.000000000000000000 ) ) ;
#144 = STYLED_ITEM ( 'NONE', ( #89 ), #4 ) ;
#145 = DIMENSIONAL_EXPONENTS ( 1.000000000000000000, 0.000000000000000000, 0.000000000000000000, 0.000000000000000000, 0.000000000000000000, 0.000000000000000000, 0.000000000000000000 ) ;
#146 = EDGE_CURVE ( 'NONE', #159, #271, #262, .T. ) ;
#147 = AXIS2_PLACEMENT_3D ( 'NONE', #356, #48, #216 ) ;
#148 = CARTESIAN_POINT ( 'NONE',  ( 7.654042494670954463E-18, 0.7499999999999998890, 0.06249999999999995143 ) ) ;
#149 = APPLICATION_PROTOCOL_DEFINITION ( 'draft international standard', 'automotive_design', 1998, #196 ) ;
#150 = DIRECTION ( 'NONE',  ( -0.000000000000000000, -1.000000000000000000, -0.000000000000000000 ) ) ;
#151 = DIMENSIONAL_EXPONENTS ( 1.000000000000000000, 0.000000000000000000, 0.000000000000000000, 0.000000000000000000, 0.000000000000000000, 0.000000000000000000, 0.000000000000000000 ) ;
#152 = MECHANICAL_DESIGN_GEOMETRIC_PRESENTATION_REPRESENTATION (  '', ( #34 ), #107 ) ;
#153 = PRESENTATION_LAYER_ASSIGNMENT (  '', '', ( #204 ) ) ;
#154 = ORIENTED_EDGE ( 'NONE', *, *, #313, .T. ) ;
#155 = PRESENTATION_STYLE_ASSIGNMENT (( #13 ) ) ;
#156 = CARTESIAN_POINT ( 'NONE',  ( 0.000000000000000000, 0.000000000000000000, 0.000000000000000000 ) ) ;
#157 = UNCERTAINTY_MEASURE_WITH_UNIT (LENGTH_MEASURE( 1.000000000000000082E-05 ), #141, 'distance_accuracy_value', 'NONE');
#158 = ADVANCED_FACE ( 'NONE', ( #339 ), #138, .T. ) ;
#159 = VERTEX_POINT ( 'NONE', #189 ) ;
#160 = PRESENTATION_LAYER_ASSIGNMENT (  '', '', ( #184 ) ) ;
#161 = CARTESIAN_POINT ( 'NONE',  ( 0.000000000000000000, 0.7499999999999998890, 0.000000000000000000 ) ) ;
#162 = AXIS2_PLACEMENT_3D ( 'NONE', #206, #1, #8 ) ;
#163 = SPHERICAL_SURFACE ( 'NONE', #315, 0.06250000000000001388 ) ;
#164 = EDGE_CURVE ( 'NONE', #248, #306, #293, .T. ) ;
#165 = CARTESIAN_POINT ( 'NONE',  ( 3.061616997868383141E-16, 2.500000000000000000, 0.000000000000000000 ) ) ;
#166 = LENGTH_MEASURE_WITH_UNIT ( LENGTH_MEASURE( 0.02539999999999999897 ), #366 );
#167 = SURFACE_SIDE_STYLE ('',( #56 ) ) ;
#168 = AXIS2_PLACEMENT_3D ( 'NONE', #219, #150, #328 ) ;
#169 = ORIENTED_EDGE ( 'NONE', *, *, #83, .F. ) ;
#170 =( NAMED_UNIT ( * ) PLANE_ANGLE_UNIT ( ) SI_UNIT ( $, .RADIAN. ) );
#171 = SURFACE_SIDE_STYLE ('',( #31 ) ) ;
#172 = DIRECTION ( 'NONE',  ( -1.000000000000000000, -1.381034651668435717E-16, 0.000000000000000000 ) ) ;
#173 = AXIS2_PLACEMENT_3D ( 'NONE', #140, #307, #64 ) ;
#174 = STYLED_ITEM ( 'NONE', ( #155 ), #190 ) ;
#175 = CYLINDRICAL_SURFACE ( 'NONE', #198, 0.06249999999999952122 ) ;
#176 = CARTESIAN_POINT ( 'NONE',  ( 0.000000000000000000, 0.7499999999999998890, -0.06249999999999995143 ) ) ;
#177 = DIRECTION ( 'NONE',  ( 0.000000000000000000, 0.000000000000000000, -1.000000000000000000 ) ) ;
#178 = LINE ( 'NONE', #5, #92 ) ;
#179 = FACE_OUTER_BOUND ( 'NONE', #191, .T. ) ;
#180 = LENGTH_MEASURE_WITH_UNIT ( LENGTH_MEASURE( 0.02539999999999999897 ), #119 );
#181 = DIRECTION ( 'NONE',  ( -0.000000000000000000, -1.000000000000000000, -0.000000000000000000 ) ) ;
#182 = CARTESIAN_POINT ( 'NONE',  ( -3.827021247335478002E-18, 0.000000000000000000, 0.000000000000000000 ) ) ;
#183 = PRESENTATION_STYLE_ASSIGNMENT (( #294 ) ) ;
#184 = STYLED_ITEM ( 'NONE', ( #183 ), #62 ) ;
#185 =( GEOMETRIC_REPRESENTATION_CONTEXT ( 3 ) GLOBAL_UNCERTAINTY_ASSIGNED_CONTEXT ( ( #16 ) ) GLOBAL_UNIT_ASSIGNED_CONTEXT ( ( #195, #202, #282 ) ) REPRESENTATION_CONTEXT ( 'NONE', 'WORKASPACE' ) );
#186 = VERTEX_POINT ( 'NONE', #325 ) ;
#187 = FILL_AREA_STYLE ('',( #263 ) ) ;
#188 = ORIENTED_EDGE ( 'NONE', *, *, #217, .F. ) ;
#189 = CARTESIAN_POINT ( 'NONE',  ( -0.06249999999999885508, 0.7499999999999998890, 0.000000000000000000 ) ) ;
#190 = ADVANCED_FACE ( 'NONE', ( #73 ), #50, .T. ) ;
#191 = EDGE_LOOP ( 'NONE', ( #23, #130, #323, #197 ) ) ;
#192 =( NAMED_UNIT ( * ) PLANE_ANGLE_UNIT ( ) SI_UNIT ( $, .RADIAN. ) );
#193 = COLOUR_RGB ( '',1.000000000000000000, 0.000000000000000000, 0.000000000000000000 ) ;
#194 = EDGE_LOOP ( 'NONE', ( #228, #104 ) ) ;
#195 =( CONVERSION_BASED_UNIT ( 'INCH', #166 ) LENGTH_UNIT ( ) NAMED_UNIT ( #326 ) );
#196 = APPLICATION_CONTEXT ( 'automotive_design' ) ;
#197 = ORIENTED_EDGE ( 'NONE', *, *, #260, .T. ) ;
#198 = AXIS2_PLACEMENT_3D ( 'NONE', #336, #287, #250 ) ;
#199 = AXIS2_PLACEMENT_3D ( 'NONE', #311, #60, #284 ) ;
#200 = SURFACE_STYLE_USAGE ( .BOTH. , #308 ) ;
#201 = DIRECTION ( 'NONE',  ( -0.000000000000000000, -1.000000000000000000, -0.000000000000000000 ) ) ;
#202 =( NAMED_UNIT ( * ) PLANE_ANGLE_UNIT ( ) SI_UNIT ( $, .RADIAN. ) );
#203 = DIRECTION ( 'NONE',  ( 0.000000000000000000, 0.000000000000000000, 1.000000000000000000 ) ) ;
#204 = STYLED_ITEM ( 'NONE', ( #54 ), #142 ) ;
#205 = CIRCLE ( 'NONE', #40, 0.06249999999999995143 ) ;
#206 = CARTESIAN_POINT ( 'NONE',  ( -7.654042494670957545E-18, 0.06250000000000001388, 0.000000000000000000 ) ) ;
#207 = SURFACE_STYLE_USAGE ( .BOTH. , #236 ) ;
#208 = APPLICATION_CONTEXT ( 'automotive_design' ) ;
#209 = PRESENTATION_LAYER_ASSIGNMENT (  '', '', ( #369 ) ) ;
#210 = UNCERTAINTY_MEASURE_WITH_UNIT (LENGTH_MEASURE( 1.000000000000000082E-05 ), #372, 'distance_accuracy_value', 'NONE');
#211 =( NAMED_UNIT ( * ) SI_UNIT ( $, .STERADIAN. ) SOLID_ANGLE_UNIT ( ) );
#212 = DIMENSIONAL_EXPONENTS ( 1.000000000000000000, 0.000000000000000000, 0.000000000000000000, 0.000000000000000000, 0.000000000000000000, 0.000000000000000000, 0.000000000000000000 ) ;
#213 =( LENGTH_UNIT ( ) NAMED_UNIT ( * ) SI_UNIT ( $, .METRE. ) );
#214 = ORIENTED_EDGE ( 'NONE', *, *, #254, .T. ) ;
#215 = EDGE_LOOP ( 'NONE', ( #299, #154, #355, #47, #106 ) ) ;
#216 = DIRECTION ( 'NONE',  ( -1.000000000000000000, 0.000000000000000000, 0.000000000000000000 ) ) ;
#217 = EDGE_CURVE ( 'NONE', #79, #327, #205, .T. ) ;
#218 = ORIENTED_EDGE ( 'NONE', *, *, #164, .F. ) ;
#219 = CARTESIAN_POINT ( 'NONE',  ( 0.000000000000000000, 0.06250000000000001388, 0.000000000000000000 ) ) ;
#220 = ORIENTED_EDGE ( 'NONE', *, *, #146, .T. ) ;
#221 = UNCERTAINTY_MEASURE_WITH_UNIT (LENGTH_MEASURE( 1.000000000000000082E-05 ), #225, 'distance_accuracy_value', 'NONE');
#222 = ORIENTED_EDGE ( 'NONE', *, *, #363, .F. ) ;
#223 = MECHANICAL_DESIGN_GEOMETRIC_PRESENTATION_REPRESENTATION (  '', ( #184 ), #309 ) ;
#224 = FACE_OUTER_BOUND ( 'NONE', #127, .T. ) ;
#225 =( CONVERSION_BASED_UNIT ( 'INCH', #368 ) LENGTH_UNIT ( ) NAMED_UNIT ( #351 ) );
#226 = DIRECTION ( 'NONE',  ( -1.381034651668435717E-16, 1.000000000000000000, -0.000000000000000000 ) ) ;
#227 = LENGTH_MEASURE_WITH_UNIT ( LENGTH_MEASURE( 0.02539999999999999897 ), #111 );
#228 = ORIENTED_EDGE ( 'NONE', *, *, #91, .T. ) ;
#229 = COLOUR_RGB ( '',0.7921568627450980005, 0.8196078431372548767, 0.9333333333333333481 ) ;
#230 = CARTESIAN_POINT ( 'NONE',  ( 0.06249999999999982653, 2.500000000000000000, 7.654042494670898997E-18 ) ) ;
#231 = SURFACE_SIDE_STYLE ('',( #255 ) ) ;
#232 =( NAMED_UNIT ( * ) PLANE_ANGLE_UNIT ( ) SI_UNIT ( $, .RADIAN. ) );
#233 = DIRECTION ( 'NONE',  ( -0.000000000000000000, -1.000000000000000000, -0.000000000000000000 ) ) ;
#234 = DIRECTION ( 'NONE',  ( -0.000000000000000000, -1.000000000000000000, -0.000000000000000000 ) ) ;
#235 = AXIS2_PLACEMENT_3D ( 'NONE', #2, #96, #10 ) ;
#236 = SURFACE_SIDE_STYLE ('',( #341 ) ) ;
#237 = CARTESIAN_POINT ( 'NONE',  ( 7.654042494670956004E-18, 0.000000000000000000, 0.06249999999999997918 ) ) ;
#238 = FACE_OUTER_BOUND ( 'NONE', #357, .T. ) ;
#239 = CARTESIAN_POINT ( 'NONE',  ( 5.478427638288146386E-16, 0.7499999999999998890, 0.000000000000000000 ) ) ;
#240 = SHAPE_DEFINITION_REPRESENTATION ( #352, #249 ) ;
#241 = CIRCLE ( 'NONE', #245, 0.06249999999999940326 ) ;
#242 =( LENGTH_UNIT ( ) NAMED_UNIT ( * ) SI_UNIT ( $, .METRE. ) );
#243 = EDGE_LOOP ( 'NONE', ( #220, #274, #362, #117 ) ) ;
#244 = AXIS2_PLACEMENT_3D ( 'NONE', #121, #264, #41 ) ;
#245 = AXIS2_PLACEMENT_3D ( 'NONE', #247, #360, #44 ) ;
#246 = EDGE_LOOP ( 'NONE', ( #331, #273, #80, #169, #53 ) ) ;
#247 = CARTESIAN_POINT ( 'NONE',  ( 5.478427638288146386E-16, 0.7499999999999998890, 0.000000000000000000 ) ) ;
#248 = VERTEX_POINT ( 'NONE', #129 ) ;
#249 = ADVANCED_BREP_SHAPE_REPRESENTATION ( '82510', ( #59, #62, #320 ), #29 ) ;
#250 = DIRECTION ( 'NONE',  ( -1.000000000000000000, 0.000000000000000000, 0.000000000000000000 ) ) ;
#251 = VECTOR ( 'NONE', #337, 39.37007874015748143 ) ;
#252 =( LENGTH_UNIT ( ) NAMED_UNIT ( * ) SI_UNIT ( $, .METRE. ) );
#253 = VERTEX_POINT ( 'NONE', #182 ) ;
#254 = EDGE_CURVE ( 'NONE', #271, #159, #241, .T. ) ;
#255 = SURFACE_STYLE_FILL_AREA ( #334 ) ;
#256 =( NAMED_UNIT ( * ) SI_UNIT ( $, .STERADIAN. ) SOLID_ANGLE_UNIT ( ) );
#257 = DIRECTION ( 'NONE',  ( -0.000000000000000000, -1.000000000000000000, -0.000000000000000000 ) ) ;
#258 = SURFACE_SIDE_STYLE ('',( #97 ) ) ;
#259 =( LENGTH_UNIT ( ) NAMED_UNIT ( * ) SI_UNIT ( $, .METRE. ) );
#260 = EDGE_CURVE ( 'NONE', #186, #102, #22, .T. ) ;
#261 = MECHANICAL_DESIGN_GEOMETRIC_PRESENTATION_REPRESENTATION (  '', ( #144 ), #185 ) ;
#262 = CIRCLE ( 'NONE', #199, 0.06249999999999940326 ) ;
#263 = FILL_AREA_STYLE_COLOUR ( '', #193 ) ;
#264 = DIRECTION ( 'NONE',  ( -1.381034651668435717E-16, 1.000000000000000000, -0.000000000000000000 ) ) ;
#265 = SURFACE_STYLE_FILL_AREA ( #100 ) ;
#266 = AXIS2_PLACEMENT_3D ( 'NONE', #165, #276, #304 ) ;
#267 = ORIENTED_EDGE ( 'NONE', *, *, #83, .T. ) ;
#268 = DIRECTION ( 'NONE',  ( -0.000000000000000000, -1.000000000000000000, -0.000000000000000000 ) ) ;
#269 = ORIENTED_EDGE ( 'NONE', *, *, #71, .T. ) ;
#270 = CIRCLE ( 'NONE', #65, 0.06250000000000001388 ) ;
#271 = VERTEX_POINT ( 'NONE', #25 ) ;
#272 = DIRECTION ( 'NONE',  ( -0.000000000000000000, -1.000000000000000000, -0.000000000000000000 ) ) ;
#273 = ORIENTED_EDGE ( 'NONE', *, *, #217, .T. ) ;
#274 = ORIENTED_EDGE ( 'NONE', *, *, #289, .T. ) ;
#275 = LINE ( 'NONE', #109, #115 ) ;
#276 = DIRECTION ( 'NONE',  ( -1.381034651668435717E-16, 1.000000000000000000, -0.000000000000000000 ) ) ;
#277 = CIRCLE ( 'NONE', #128, 0.06250000000000001388 ) ;
#278 = SURFACE_STYLE_USAGE ( .BOTH. , #171 ) ;
#279 = COLOUR_RGB ( '',1.000000000000000000, 0.000000000000000000, 0.000000000000000000 ) ;
#280 =( NAMED_UNIT ( * ) SI_UNIT ( $, .STERADIAN. ) SOLID_ANGLE_UNIT ( ) );
#281 = EDGE_CURVE ( 'NONE', #159, #306, #275, .T. ) ;
#282 =( NAMED_UNIT ( * ) SI_UNIT ( $, .STERADIAN. ) SOLID_ANGLE_UNIT ( ) );
#283 = FILL_AREA_STYLE_COLOUR ( '', #302 ) ;
#284 = DIRECTION ( 'NONE',  ( -1.000000000000000000, 0.000000000000000000, 0.000000000000000000 ) ) ;
#285 = LINE ( 'NONE', #237, #298 ) ;
#286 = PRODUCT_DEFINITION_FORMATION_WITH_SPECIFIED_SOURCE ( 'ANY', '', #18, .NOT_KNOWN. ) ;
#287 = DIRECTION ( 'NONE',  ( -1.381034651668435717E-16, 1.000000000000000000, -0.000000000000000000 ) ) ;
#288 = DIRECTION ( 'NONE',  ( -1.381034651668435717E-16, 1.000000000000000000, 0.000000000000000000 ) ) ;
#289 = EDGE_CURVE ( 'NONE', #271, #248, #68, .T. ) ;
#290 = CARTESIAN_POINT ( 'NONE',  ( -0.06250000000000001388, 0.06250000000000001388, 7.654042494670959086E-18 ) ) ;
#291 = CARTESIAN_POINT ( 'NONE',  ( 0.000000000000000000, 0.06250000000000001388, -0.06250000000000001388 ) ) ;
#292 = DIRECTION ( 'NONE',  ( 0.000000000000000000, 0.000000000000000000, -1.000000000000000000 ) ) ;
#293 = CIRCLE ( 'NONE', #147, 0.06249999999999963918 ) ;
#294 = SURFACE_STYLE_USAGE ( .BOTH. , #258 ) ;
#295 = PRODUCT_CONTEXT ( 'NONE', #208, 'mechanical' ) ;
#296 = EDGE_CURVE ( 'NONE', #327, #101, #178, .T. ) ;
#297 = STYLED_ITEM ( 'NONE', ( #133 ), #59 ) ;
#298 = VECTOR ( 'NONE', #122, 39.37007874015748143 ) ;
#299 = ORIENTED_EDGE ( 'NONE', *, *, #363, .T. ) ;
#300 = FILL_AREA_STYLE_COLOUR ( '', #279 ) ;
#301 = ORIENTED_EDGE ( 'NONE', *, *, #254, .F. ) ;
#302 = COLOUR_RGB ( '',1.000000000000000000, 0.000000000000000000, 0.000000000000000000 ) ;
#303 = VERTEX_POINT ( 'NONE', #290 ) ;
#304 = DIRECTION ( 'NONE',  ( -1.000000000000000000, 0.000000000000000000, 0.000000000000000000 ) ) ;
#305 = PRODUCT_DEFINITION_CONTEXT ( 'detailed design', #196, 'design' ) ;
#306 = VERTEX_POINT ( 'NONE', #3 ) ;
#307 = DIRECTION ( 'NONE',  ( -0.000000000000000000, -1.000000000000000000, -0.000000000000000000 ) ) ;
#308 = SURFACE_SIDE_STYLE ('',( #338 ) ) ;
#309 =( GEOMETRIC_REPRESENTATION_CONTEXT ( 3 ) GLOBAL_UNCERTAINTY_ASSIGNED_CONTEXT ( ( #11 ) ) GLOBAL_UNIT_ASSIGNED_CONTEXT ( ( #353, #348, #211 ) ) REPRESENTATION_CONTEXT ( 'NONE', 'WORKASPACE' ) );
#310 = FILL_AREA_STYLE ('',( #84 ) ) ;
#311 = CARTESIAN_POINT ( 'NONE',  ( 5.478427638288146386E-16, 0.7499999999999998890, 0.000000000000000000 ) ) ;
#312 = CARTESIAN_POINT ( 'NONE',  ( 0.000000000000000000, 0.06250000000000001388, 0.000000000000000000 ) ) ;
#313 = EDGE_CURVE ( 'NONE', #79, #102, #285, .T. ) ;
#314 = CYLINDRICAL_SURFACE ( 'NONE', #173, 0.06249999999999997918 ) ;
#315 = AXIS2_PLACEMENT_3D ( 'NONE', #88, #30, #52 ) ;
#316 =( GEOMETRIC_REPRESENTATION_CONTEXT ( 3 ) GLOBAL_UNCERTAINTY_ASSIGNED_CONTEXT ( ( #98 ) ) GLOBAL_UNIT_ASSIGNED_CONTEXT ( ( #105, #192, #76 ) ) REPRESENTATION_CONTEXT ( 'NONE', 'WORKASPACE' ) );
#317 = PLANE ( 'NONE',  #370 ) ;
#318 = EDGE_CURVE ( 'NONE', #102, #303, #270, .T. ) ;
#319 = PRESENTATION_STYLE_ASSIGNMENT (( #207 ) ) ;
#320 = AXIS2_PLACEMENT_3D ( 'NONE', #42, #203, #321 ) ;
#321 = DIRECTION ( 'NONE',  ( 1.000000000000000000, 0.000000000000000000, 0.000000000000000000 ) ) ;
#322 = CARTESIAN_POINT ( 'NONE',  ( 0.000000000000000000, 0.7499999999999998890, 0.000000000000000000 ) ) ;
#323 = ORIENTED_EDGE ( 'NONE', *, *, #77, .F. ) ;
#324 = AXIS2_PLACEMENT_3D ( 'NONE', #125, #233, #143 ) ;
#325 = CARTESIAN_POINT ( 'NONE',  ( 0.06250000000000001388, 0.06250000000000001388, 0.000000000000000000 ) ) ;
#326 = DIMENSIONAL_EXPONENTS ( 1.000000000000000000, 0.000000000000000000, 0.000000000000000000, 0.000000000000000000, 0.000000000000000000, 0.000000000000000000, 0.000000000000000000 ) ;
#327 = VERTEX_POINT ( 'NONE', #176 ) ;
#328 = DIRECTION ( 'NONE',  ( 0.000000000000000000, 0.000000000000000000, -1.000000000000000000 ) ) ;
#329 = ADVANCED_FACE ( 'NONE', ( #93 ), #342, .F. ) ;
#330 = PRESENTATION_LAYER_ASSIGNMENT (  '', '', ( #34 ) ) ;
#331 = ORIENTED_EDGE ( 'NONE', *, *, #313, .F. ) ;
#332 =( NAMED_UNIT ( * ) PLANE_ANGLE_UNIT ( ) SI_UNIT ( $, .RADIAN. ) );
#333 = EDGE_CURVE ( 'NONE', #303, #253, #81, .T. ) ;
#334 = FILL_AREA_STYLE ('',( #283 ) ) ;
#335 = SURFACE_STYLE_USAGE ( .BOTH. , #167 ) ;
#336 = CARTESIAN_POINT ( 'NONE',  ( 3.061616997868383141E-16, 2.500000000000000000, 0.000000000000000000 ) ) ;
#337 = DIRECTION ( 'NONE',  ( -1.381034651668435717E-16, 1.000000000000000000, -0.000000000000000000 ) ) ;
#338 = SURFACE_STYLE_FILL_AREA ( #187 ) ;
#339 = FACE_OUTER_BOUND ( 'NONE', #51, .T. ) ;
#340 = ORIENTED_EDGE ( 'NONE', *, *, #146, .F. ) ;
#341 = SURFACE_STYLE_FILL_AREA ( #124 ) ;
#342 = PLANE ( 'NONE',  #134 ) ;
#343 = PRESENTATION_LAYER_ASSIGNMENT (  '', '', ( #297 ) ) ;
#344 = AXIS2_PLACEMENT_3D ( 'NONE', #87, #201, #346 ) ;
#345 = LENGTH_MEASURE_WITH_UNIT ( LENGTH_MEASURE( 0.02539999999999999897 ), #242 );
#346 = DIRECTION ( 'NONE',  ( 0.000000000000000000, 0.000000000000000000, -1.000000000000000000 ) ) ;
#347 = PRODUCT_DEFINITION ( 'UNKNOWN', '', #286, #305 ) ;
#348 =( NAMED_UNIT ( * ) PLANE_ANGLE_UNIT ( ) SI_UNIT ( $, .RADIAN. ) );
#349 = LENGTH_MEASURE_WITH_UNIT ( LENGTH_MEASURE( 0.02539999999999999897 ), #259 );
#350 = AXIS2_PLACEMENT_3D ( 'NONE', #322, #74, #36 ) ;
#351 = DIMENSIONAL_EXPONENTS ( 1.000000000000000000, 0.000000000000000000, 0.000000000000000000, 0.000000000000000000, 0.000000000000000000, 0.000000000000000000, 0.000000000000000000 ) ;
#352 = PRODUCT_DEFINITION_SHAPE ( 'NONE', 'NONE',  #347 ) ;
#353 =( CONVERSION_BASED_UNIT ( 'INCH', #180 ) LENGTH_UNIT ( ) NAMED_UNIT ( #95 ) );
#354 = ADVANCED_FACE ( 'NONE', ( #63 ), #317, .F. ) ;
#355 = ORIENTED_EDGE ( 'NONE', *, *, #260, .F. ) ;
#356 = CARTESIAN_POINT ( 'NONE',  ( 3.061616997868383141E-16, 2.500000000000000000, 0.000000000000000000 ) ) ;
#357 = EDGE_LOOP ( 'NONE', ( #222, #188 ) ) ;
#358 = CLOSED_SHELL ( 'NONE', ( #118, #4, #110, #190, #142 ) ) ;
#359 = EDGE_LOOP ( 'NONE', ( #340, #301 ) ) ;
#360 = DIRECTION ( 'NONE',  ( -1.381034651668435717E-16, 1.000000000000000000, -0.000000000000000000 ) ) ;
#361 = DIMENSIONAL_EXPONENTS ( 1.000000000000000000, 0.000000000000000000, 0.000000000000000000, 0.000000000000000000, 0.000000000000000000, 0.000000000000000000, 0.000000000000000000 ) ;
#362 = ORIENTED_EDGE ( 'NONE', *, *, #91, .F. ) ;
#363 = EDGE_CURVE ( 'NONE', #327, #79, #6, .T. ) ;
#364 = COLOUR_RGB ( '',1.000000000000000000, 0.000000000000000000, 0.000000000000000000 ) ;
#365 = FACE_OUTER_BOUND ( 'NONE', #215, .T. ) ;
#366 =( LENGTH_UNIT ( ) NAMED_UNIT ( * ) SI_UNIT ( $, .METRE. ) );
#367 =( NAMED_UNIT ( * ) PLANE_ANGLE_UNIT ( ) SI_UNIT ( $, .RADIAN. ) );
#368 = LENGTH_MEASURE_WITH_UNIT ( LENGTH_MEASURE( 0.02539999999999999897 ), #135 );
#369 = STYLED_ITEM ( 'NONE', ( #319 ), #110 ) ;
#370 = AXIS2_PLACEMENT_3D ( 'NONE', #239, #288, #172 ) ;
#371 = CARTESIAN_POINT ( 'NONE',  ( 0.06249999999999995143, 2.500000000000000000, 0.000000000000000000 ) ) ;
#372 =( CONVERSION_BASED_UNIT ( 'INCH', #227 ) LENGTH_UNIT ( ) NAMED_UNIT ( #145 ) );
#373 = FILL_AREA_STYLE ('',( #35 ) ) ;
ENDSEC;
END-ISO-10303-21;
