ISO-10303-21;
HEADER;
FILE_DESCRIPTION (( 'STEP AP214' ),
    '1' );
FILE_NAME ('Micro_BEM-281-04.STEP',
    '2021-09-03T13:10:09',
    ( '' ),
    ( '' ),
    'SwSTEP 2.0',
    'SolidWorks 2020',
    '' );
FILE_SCHEMA (( 'AUTOMOTIVE_DESIGN' ));
ENDSEC;

DATA;
#1 = DIRECTION ( 'NONE',  ( -1.224646799147353207E-16, -0.0000000000000000000, -1.000000000000000000 ) ) ;
#2 = CIRCLE ( 'NONE', #123, 0.1404594000000000120 ) ;
#3 = AXIS2_PLACEMENT_3D ( 'NONE', #126, #225, #320 ) ;
#4 = DIRECTION ( 'NONE',  ( 1.000000000000000000, 0.0000000000000000000, 0.0000000000000000000 ) ) ;
#5 = ORIENTED_EDGE ( 'NONE', *, *, #99, .F. ) ;
#6 = CARTESIAN_POINT ( 'NONE',  ( 0.1562500000000000000, 1.913510623667739463E-17, 2.484999999999999432 ) ) ;
#7 = ORIENTED_EDGE ( 'NONE', *, *, #99, .T. ) ;
#8 = AXIS2_PLACEMENT_3D ( 'NONE', #180, #98, #154 ) ;
#9 = ORIENTED_EDGE ( 'NONE', *, *, #298, .F. ) ;
#10 = FACE_OUTER_BOUND ( 'NONE', #188, .T. ) ;
#11 = EDGE_LOOP ( 'NONE', ( #256, #285, #248, #35 ) ) ;
#12 = EDGE_LOOP ( 'NONE', ( #5, #66, #211, #287 ) ) ;
#13 = VECTOR ( 'NONE', #162, 39.37007874015748854 ) ;
#14 = CYLINDRICAL_SURFACE ( 'NONE', #222, 0.1562500000000000000 ) ;
#15 = VERTEX_POINT ( 'NONE', #266 ) ;
#16 = EDGE_CURVE ( 'NONE', #144, #109, #28, .T. ) ;
#17 =( CONVERSION_BASED_UNIT ( 'INCH', #289 ) LENGTH_UNIT ( ) NAMED_UNIT ( #316 ) );
#18 = STYLED_ITEM ( 'NONE', ( #90 ), #61 ) ;
#19 = ADVANCED_FACE ( 'NONE', ( #241 ), #14, .T. ) ;
#20 = ORIENTED_EDGE ( 'NONE', *, *, #16, .T. ) ;
#21 = AXIS2_PLACEMENT_3D ( 'NONE', #212, #259, #284 ) ;
#22 = DIRECTION ( 'NONE',  ( 0.0000000000000000000, 0.0000000000000000000, -1.000000000000000000 ) ) ;
#23 = EDGE_CURVE ( 'NONE', #240, #307, #145, .T. ) ;
#24 = DIRECTION ( 'NONE',  ( 0.0000000000000000000, 0.0000000000000000000, 1.000000000000000000 ) ) ;
#25 = DIRECTION ( 'NONE',  ( -1.000000000000000000, 0.0000000000000000000, 0.0000000000000000000 ) ) ;
#26 = CIRCLE ( 'NONE', #3, 0.1562500000000000000 ) ;
#27 = DIRECTION ( 'NONE',  ( -0.0000000000000000000, -0.0000000000000000000, -1.000000000000000000 ) ) ;
#28 = CIRCLE ( 'NONE', #117, 0.1562500000000000000 ) ;
#29 = LINE ( 'NONE', #300, #59 ) ;
#30 =( CONVERSION_BASED_UNIT ( 'INCH', #181 ) LENGTH_UNIT ( ) NAMED_UNIT ( #286 ) );
#31 = AXIS2_PLACEMENT_3D ( 'NONE', #288, #215, #147 ) ;
#32 = AXIS2_PLACEMENT_3D ( 'NONE', #274, #53, #152 ) ;
#33 = DIRECTION ( 'NONE',  ( 1.000000000000000000, 0.0000000000000000000, 0.0000000000000000000 ) ) ;
#34 = EDGE_CURVE ( 'NONE', #311, #109, #120, .T. ) ;
#35 = ORIENTED_EDGE ( 'NONE', *, *, #298, .T. ) ;
#36 = EDGE_LOOP ( 'NONE', ( #7, #209, #142, #303 ) ) ;
#37 = AXIS2_PLACEMENT_3D ( 'NONE', #200, #27, #25 ) ;
#38 = APPLICATION_CONTEXT ( 'automotive_design' ) ;
#39 = AXIS2_PLACEMENT_3D ( 'NONE', #252, #130, #253 ) ;
#40 = EDGE_CURVE ( 'NONE', #143, #15, #45, .T. ) ;
#41 = ORIENTED_EDGE ( 'NONE', *, *, #173, .T. ) ;
#42 = ORIENTED_EDGE ( 'NONE', *, *, #96, .F. ) ;
#43 = LINE ( 'NONE', #218, #260 ) ;
#44 = DIMENSIONAL_EXPONENTS ( 1.000000000000000000, 0.0000000000000000000, 0.0000000000000000000, 0.0000000000000000000, 0.0000000000000000000, 0.0000000000000000000, 0.0000000000000000000 ) ;
#45 = CIRCLE ( 'NONE', #31, 0.1412499999999994871 ) ;
#46 = LENGTH_MEASURE_WITH_UNIT ( LENGTH_MEASURE( 0.02539999999999999897 ), #221 );
#47 = EDGE_CURVE ( 'NONE', #270, #144, #43, .T. ) ;
#48 = SURFACE_STYLE_USAGE ( .BOTH. , #68 ) ;
#49 = AXIS2_PLACEMENT_3D ( 'NONE', #101, #24, #177 ) ;
#50 = CARTESIAN_POINT ( 'NONE',  ( 0.0000000000000000000, 0.0000000000000000000, 2.500000000000000000 ) ) ;
#51 = CARTESIAN_POINT ( 'NONE',  ( 0.1412499999999994871, 1.821662113731684786E-17, 2.500000000000000000 ) ) ;
#52 = PRODUCT_DEFINITION_SHAPE ( 'NONE', 'NONE',  #70 ) ;
#53 = DIRECTION ( 'NONE',  ( 1.224646799147353207E-16, 0.0000000000000000000, 1.000000000000000000 ) ) ;
#54 = DIRECTION ( 'NONE',  ( -1.224646799147353207E-16, -0.0000000000000000000, -1.000000000000000000 ) ) ;
#55 = VECTOR ( 'NONE', #176, 39.37007874015748143 ) ;
#56 = DIRECTION ( 'NONE',  ( -1.000000000000000000, 0.0000000000000000000, 0.0000000000000000000 ) ) ;
#57 = CARTESIAN_POINT ( 'NONE',  ( 0.0000000000000000000, 0.0000000000000000000, 2.484999999999999432 ) ) ;
#58 = CYLINDRICAL_SURFACE ( 'NONE', #21, 0.1404594000000000120 ) ;
#59 = VECTOR ( 'NONE', #203, 39.37007874015748143 ) ;
#60 = ORIENTED_EDGE ( 'NONE', *, *, #47, .T. ) ;
#61 = MANIFOLD_SOLID_BREP ( 'Fillet1', #82 ) ;
#62 = CARTESIAN_POINT ( 'NONE',  ( 9.184850993605150903E-17, 0.0000000000000000000, 0.7500000000000001110 ) ) ;
#63 = ORIENTED_EDGE ( 'NONE', *, *, #305, .F. ) ;
#64 = AXIS2_PLACEMENT_3D ( 'NONE', #208, #210, #110 ) ;
#65 = CARTESIAN_POINT ( 'NONE',  ( 1.720131546201577623E-17, 0.0000000000000000000, 0.1404594000000000120 ) ) ;
#66 = ORIENTED_EDGE ( 'NONE', *, *, #34, .T. ) ;
#67 = DIRECTION ( 'NONE',  ( -0.0000000000000000000, -0.0000000000000000000, -1.000000000000000000 ) ) ;
#68 = SURFACE_SIDE_STYLE ('',( #124 ) ) ;
#69 = CIRCLE ( 'NONE', #251, 0.1562500000000000000 ) ;
#70 = PRODUCT_DEFINITION ( 'UNKNOWN', '', #299, #318 ) ;
#71 =( NAMED_UNIT ( * ) PLANE_ANGLE_UNIT ( ) SI_UNIT ( $, .RADIAN. ) );
#72 = EDGE_LOOP ( 'NONE', ( #122, #159, #262, #115 ) ) ;
#73 = DIRECTION ( 'NONE',  ( -1.000000000000000000, 1.224646799147353207E-16, 0.0000000000000000000 ) ) ;
#74 = CARTESIAN_POINT ( 'NONE',  ( 1.720131546201577623E-17, 0.0000000000000000000, 0.1404594000000000120 ) ) ;
#75 = CARTESIAN_POINT ( 'NONE',  ( -0.1404594000000000120, 0.0000000000000000000, 1.720131546201577623E-17 ) ) ;
#76 = APPLICATION_CONTEXT ( 'automotive_design' ) ;
#77 = CARTESIAN_POINT ( 'NONE',  ( 0.1404594000000000953, 0.0000000000000000000, 0.7500000000000001110 ) ) ;
#78 = CARTESIAN_POINT ( 'NONE',  ( 1.028155823993343290E-16, 0.0000000000000000000, 0.8395529427008548984 ) ) ;
#79 = CONICAL_SURFACE ( 'NONE', #100, 0.1404594000000000120, 0.1745329251994338082 ) ;
#80 = EDGE_CURVE ( 'NONE', #87, #109, #118, .T. ) ;
#81 = CARTESIAN_POINT ( 'NONE',  ( -0.1562499999999999167, 0.0000000000000000000, 0.8395529427008548984 ) ) ;
#82 = CLOSED_SHELL ( 'NONE', ( #275, #294, #265, #245, #91, #19, #175, #134, #231, #206, #148 ) ) ;
#83 = ORIENTED_EDGE ( 'NONE', *, *, #271, .T. ) ;
#84 = EDGE_CURVE ( 'NONE', #240, #239, #153, .T. ) ;
#85 = SPHERICAL_SURFACE ( 'NONE', #158, 0.1404594000000000120 ) ;
#86 = ORIENTED_EDGE ( 'NONE', *, *, #16, .F. ) ;
#87 = VERTEX_POINT ( 'NONE', #224 ) ;
#88 = DIRECTION ( 'NONE',  ( -1.224646799147353207E-16, -0.0000000000000000000, -1.000000000000000000 ) ) ;
#89 = EDGE_LOOP ( 'NONE', ( #309, #60, #243, #199 ) ) ;
#90 = PRESENTATION_STYLE_ASSIGNMENT (( #48 ) ) ;
#91 = ADVANCED_FACE ( 'NONE', ( #105 ), #103, .T. ) ;
#92 = ORIENTED_EDGE ( 'NONE', *, *, #193, .F. ) ;
#93 = CARTESIAN_POINT ( 'NONE',  ( 1.028155823993343290E-16, 0.0000000000000000000, 0.8395529427008548984 ) ) ;
#94 =( NAMED_UNIT ( * ) SI_UNIT ( $, .STERADIAN. ) SOLID_ANGLE_UNIT ( ) );
#95 = DIRECTION ( 'NONE',  ( 1.000000000000000000, 0.0000000000000000000, 0.0000000000000000000 ) ) ;
#96 = EDGE_CURVE ( 'NONE', #143, #270, #319, .T. ) ;
#97 = DIRECTION ( 'NONE',  ( -0.1736481776669311083, 2.126576849575782084E-17, 0.9848077530122080203 ) ) ;
#98 = DIRECTION ( 'NONE',  ( 0.0000000000000000000, 0.0000000000000000000, -1.000000000000000000 ) ) ;
#99 = EDGE_CURVE ( 'NONE', #311, #165, #2, .T. ) ;
#100 = AXIS2_PLACEMENT_3D ( 'NONE', #62, #163, #33 ) ;
#101 = CARTESIAN_POINT ( 'NONE',  ( 0.0000000000000000000, 0.0000000000000000000, 2.500000000000000000 ) ) ;
#102 = EDGE_CURVE ( 'NONE', #109, #144, #69, .T. ) ;
#103 = CYLINDRICAL_SURFACE ( 'NONE', #37, 0.1562500000000000000 ) ;
#104 = DIRECTION ( 'NONE',  ( 0.1736481776669313026, 0.0000000000000000000, 0.9848077530122077983 ) ) ;
#105 = FACE_OUTER_BOUND ( 'NONE', #89, .T. ) ;
#106 = VECTOR ( 'NONE', #104, 39.37007874015748143 ) ;
#107 =( GEOMETRIC_REPRESENTATION_CONTEXT ( 3 ) GLOBAL_UNCERTAINTY_ASSIGNED_CONTEXT ( ( #129 ) ) GLOBAL_UNIT_ASSIGNED_CONTEXT ( ( #30, #133, #237 ) ) REPRESENTATION_CONTEXT ( 'NONE', 'WORKASPACE' ) );
#108 = FACE_OUTER_BOUND ( 'NONE', #36, .T. ) ;
#109 = VERTEX_POINT ( 'NONE', #81 ) ;
#110 = DIRECTION ( 'NONE',  ( -1.000000000000000000, 0.0000000000000000000, 1.215586138086994854E-16 ) ) ;
#111 = ORIENTED_EDGE ( 'NONE', *, *, #23, .F. ) ;
#112 =( LENGTH_UNIT ( ) NAMED_UNIT ( * ) SI_UNIT ( $, .METRE. ) );
#113 = ORIENTED_EDGE ( 'NONE', *, *, #84, .F. ) ;
#114 = DIRECTION ( 'NONE',  ( 1.224646799147353207E-16, 0.0000000000000000000, 1.000000000000000000 ) ) ;
#115 = ORIENTED_EDGE ( 'NONE', *, *, #278, .F. ) ;
#116 = ORIENTED_EDGE ( 'NONE', *, *, #23, .T. ) ;
#117 = AXIS2_PLACEMENT_3D ( 'NONE', #93, #171, #95 ) ;
#118 = LINE ( 'NONE', #149, #290 ) ;
#119 = DIRECTION ( 'NONE',  ( 0.0000000000000000000, 0.0000000000000000000, 1.000000000000000000 ) ) ;
#120 = LINE ( 'NONE', #198, #321 ) ;
#121 = APPLICATION_PROTOCOL_DEFINITION ( 'draft international standard', 'automotive_design', 1998, #76 ) ;
#122 = ORIENTED_EDGE ( 'NONE', *, *, #40, .F. ) ;
#123 = AXIS2_PLACEMENT_3D ( 'NONE', #273, #54, #56 ) ;
#124 = SURFACE_STYLE_FILL_AREA ( #315 ) ;
#125 = DIRECTION ( 'NONE',  ( 1.000000000000000000, 0.0000000000000000000, 0.0000000000000000000 ) ) ;
#126 = CARTESIAN_POINT ( 'NONE',  ( 0.0000000000000000000, 0.0000000000000000000, 2.484999999999999432 ) ) ;
#127 = ADVANCED_BREP_SHAPE_REPRESENTATION ( 'Micro_BEM-281-04', ( #61, #322 ), #107 ) ;
#128 = MECHANICAL_DESIGN_GEOMETRIC_PRESENTATION_REPRESENTATION (  '', ( #18 ), #172 ) ;
#129 = UNCERTAINTY_MEASURE_WITH_UNIT (LENGTH_MEASURE( 1.000000000000000082E-05 ), #30, 'distance_accuracy_value', 'NONE');
#130 = DIRECTION ( 'NONE',  ( -1.224646799147353207E-16, -0.0000000000000000000, -1.000000000000000000 ) ) ;
#131 = FACE_OUTER_BOUND ( 'NONE', #272, .T. ) ;
#132 = DIRECTION ( 'NONE',  ( 0.0000000000000000000, 0.0000000000000000000, -1.000000000000000000 ) ) ;
#133 =( NAMED_UNIT ( * ) PLANE_ANGLE_UNIT ( ) SI_UNIT ( $, .RADIAN. ) );
#134 = ADVANCED_FACE ( 'NONE', ( #131 ), #247, .T. ) ;
#135 = DIRECTION ( 'NONE',  ( 0.0000000000000000000, 0.0000000000000000000, 1.000000000000000000 ) ) ;
#136 = CARTESIAN_POINT ( 'NONE',  ( 0.0000000000000000000, 0.0000000000000000000, 2.500000000000000000 ) ) ;
#137 = EDGE_LOOP ( 'NONE', ( #283, #161, #236, #86 ) ) ;
#138 = SURFACE_SIDE_STYLE ('',( #157 ) ) ;
#139 = COLOUR_RGB ( '',0.7921568627450980005, 0.8196078431372548767, 0.9333333333333333481 ) ;
#140 = EDGE_CURVE ( 'NONE', #87, #270, #189, .T. ) ;
#141 = LINE ( 'NONE', #255, #13 ) ;
#142 = ORIENTED_EDGE ( 'NONE', *, *, #305, .T. ) ;
#143 = VERTEX_POINT ( 'NONE', #51 ) ;
#144 = VERTEX_POINT ( 'NONE', #279 ) ;
#145 = CIRCLE ( 'NONE', #277, 0.1404594000000000120 ) ;
#146 = PRESENTATION_LAYER_ASSIGNMENT (  '', '', ( #190 ) ) ;
#147 = DIRECTION ( 'NONE',  ( 1.000000000000000000, 0.0000000000000000000, 0.0000000000000000000 ) ) ;
#148 = ADVANCED_FACE ( 'NONE', ( #205 ), #293, .T. ) ;
#149 = CARTESIAN_POINT ( 'NONE',  ( -0.1562500000000000000, 0.0000000000000000000, 2.500000000000000000 ) ) ;
#150 = CARTESIAN_POINT ( 'NONE',  ( 1.720131546201577623E-17, 0.0000000000000000000, 0.1404594000000000120 ) ) ;
#151 = PRODUCT ( 'Micro_BEM-281-04', 'Micro_BEM-281-04', '', ( #169 ) ) ;
#152 = DIRECTION ( 'NONE',  ( 1.000000000000000000, 0.0000000000000000000, 0.0000000000000000000 ) ) ;
#153 = CIRCLE ( 'NONE', #232, 0.1404594000000000120 ) ;
#154 = DIRECTION ( 'NONE',  ( -1.000000000000000000, 0.0000000000000000000, 0.0000000000000000000 ) ) ;
#155 = DIRECTION ( 'NONE',  ( 0.7071067811865410224, 8.659560562354852739E-17, -0.7071067811865539010 ) ) ;
#156 = DIRECTION ( 'NONE',  ( 0.0000000000000000000, 0.0000000000000000000, -1.000000000000000000 ) ) ;
#157 = SURFACE_STYLE_FILL_AREA ( #281 ) ;
#158 = AXIS2_PLACEMENT_3D ( 'NONE', #187, #302, #310 ) ;
#159 = ORIENTED_EDGE ( 'NONE', *, *, #96, .T. ) ;
#160 = CARTESIAN_POINT ( 'NONE',  ( -0.1404593999999999288, 1.816821084934658389E-17, 0.7500000000000001110 ) ) ;
#161 = ORIENTED_EDGE ( 'NONE', *, *, #193, .T. ) ;
#162 = DIRECTION ( 'NONE',  ( -0.7071067811865410224, 0.0000000000000000000, -0.7071067811865539010 ) ) ;
#163 = DIRECTION ( 'NONE',  ( 1.224646799147353207E-16, 0.0000000000000000000, 1.000000000000000000 ) ) ;
#164 = AXIS2_PLACEMENT_3D ( 'NONE', #136, #135, #4 ) ;
#165 = VERTEX_POINT ( 'NONE', #296 ) ;
#166 = DIRECTION ( 'NONE',  ( -1.000000000000000000, 0.0000000000000000000, 0.0000000000000000000 ) ) ;
#167 = CIRCLE ( 'NONE', #64, 0.1404594000000000120 ) ;
#168 = ORIENTED_EDGE ( 'NONE', *, *, #278, .T. ) ;
#169 = PRODUCT_CONTEXT ( 'NONE', #38, 'mechanical' ) ;
#170 = PRODUCT_RELATED_PRODUCT_CATEGORY ( 'part', '', ( #151 ) ) ;
#171 = DIRECTION ( 'NONE',  ( -1.224646799147353207E-16, -0.0000000000000000000, -1.000000000000000000 ) ) ;
#172 =( GEOMETRIC_REPRESENTATION_CONTEXT ( 3 ) GLOBAL_UNCERTAINTY_ASSIGNED_CONTEXT ( ( #233 ) ) GLOBAL_UNIT_ASSIGNED_CONTEXT ( ( #220, #71, #244 ) ) REPRESENTATION_CONTEXT ( 'NONE', 'WORKASPACE' ) );
#173 = EDGE_CURVE ( 'NONE', #165, #144, #229, .T. ) ;
#174 = CARTESIAN_POINT ( 'NONE',  ( 0.1412499999999994871, 1.729813603795630110E-17, 2.500000000000000000 ) ) ;
#175 = ADVANCED_FACE ( 'NONE', ( #280 ), #249, .T. ) ;
#176 = DIRECTION ( 'NONE',  ( -1.224646799147353207E-16, -0.0000000000000000000, -1.000000000000000000 ) ) ;
#177 = DIRECTION ( 'NONE',  ( 1.000000000000000000, 0.0000000000000000000, -0.0000000000000000000 ) ) ;
#178 = PRESENTATION_LAYER_ASSIGNMENT (  '', '', ( #18 ) ) ;
#179 = DIRECTION ( 'NONE',  ( -1.000000000000000000, 0.0000000000000000000, 0.0000000000000000000 ) ) ;
#180 = CARTESIAN_POINT ( 'NONE',  ( 0.0000000000000000000, 0.0000000000000000000, 2.500000000000000000 ) ) ;
#181 = LENGTH_MEASURE_WITH_UNIT ( LENGTH_MEASURE( 0.02539999999999999897 ), #207 );
#182 = ORIENTED_EDGE ( 'NONE', *, *, #40, .T. ) ;
#183 = SURFACE_STYLE_USAGE ( .BOTH. , #138 ) ;
#184 = ORIENTED_EDGE ( 'NONE', *, *, #271, .F. ) ;
#185 = CARTESIAN_POINT ( 'NONE',  ( 0.1404594000000000120, 1.720131546201577623E-17, 0.1404594000000000120 ) ) ;
#186 = EDGE_CURVE ( 'NONE', #165, #307, #29, .T. ) ;
#187 = CARTESIAN_POINT ( 'NONE',  ( 1.720131546201577623E-17, 0.0000000000000000000, 0.1404594000000000120 ) ) ;
#188 = EDGE_LOOP ( 'NONE', ( #111, #194, #63 ) ) ;
#189 = CIRCLE ( 'NONE', #214, 0.1562500000000000000 ) ;
#190 = STYLED_ITEM ( 'NONE', ( #282 ), #127 ) ;
#191 = SHAPE_DEFINITION_REPRESENTATION ( #52, #127 ) ;
#192 = FILL_AREA_STYLE_COLOUR ( '', #139 ) ;
#193 = EDGE_CURVE ( 'NONE', #270, #87, #26, .T. ) ;
#194 = ORIENTED_EDGE ( 'NONE', *, *, #84, .T. ) ;
#195 = EDGE_LOOP ( 'NONE', ( #113, #116, #9 ) ) ;
#196 = AXIS2_PLACEMENT_3D ( 'NONE', #74, #254, #125 ) ;
#197 = AXIS2_PLACEMENT_3D ( 'NONE', #297, #132, #179 ) ;
#198 = CARTESIAN_POINT ( 'NONE',  ( -0.1404593999999999288, 1.720131546201577623E-17, 0.7500000000000001110 ) ) ;
#199 = ORIENTED_EDGE ( 'NONE', *, *, #80, .F. ) ;
#200 = CARTESIAN_POINT ( 'NONE',  ( 0.0000000000000000000, 0.0000000000000000000, 2.500000000000000000 ) ) ;
#201 = CIRCLE ( 'NONE', #164, 0.1412499999999994871 ) ;
#202 = CYLINDRICAL_SURFACE ( 'NONE', #39, 0.1404594000000000120 ) ;
#203 = DIRECTION ( 'NONE',  ( -1.224646799147353207E-16, -0.0000000000000000000, -1.000000000000000000 ) ) ;
#204 = FACE_OUTER_BOUND ( 'NONE', #72, .T. ) ;
#205 = FACE_OUTER_BOUND ( 'NONE', #195, .T. ) ;
#206 = ADVANCED_FACE ( 'NONE', ( #276 ), #202, .T. ) ;
#207 =( LENGTH_UNIT ( ) NAMED_UNIT ( * ) SI_UNIT ( $, .METRE. ) );
#208 = CARTESIAN_POINT ( 'NONE',  ( 1.720131546201577623E-17, 0.0000000000000000000, 0.1404594000000000120 ) ) ;
#209 = ORIENTED_EDGE ( 'NONE', *, *, #186, .T. ) ;
#210 = DIRECTION ( 'NONE',  ( 1.224646799147353207E-16, 0.0000000000000000000, 1.000000000000000000 ) ) ;
#211 = ORIENTED_EDGE ( 'NONE', *, *, #102, .T. ) ;
#212 = CARTESIAN_POINT ( 'NONE',  ( 0.0000000000000000000, 0.0000000000000000000, 0.0000000000000000000 ) ) ;
#213 = ORIENTED_EDGE ( 'NONE', *, *, #34, .F. ) ;
#214 = AXIS2_PLACEMENT_3D ( 'NONE', #57, #156, #230 ) ;
#215 = DIRECTION ( 'NONE',  ( 0.0000000000000000000, 0.0000000000000000000, 1.000000000000000000 ) ) ;
#216 = CIRCLE ( 'NONE', #304, 0.1404594000000000120 ) ;
#217 = MECHANICAL_DESIGN_GEOMETRIC_PRESENTATION_REPRESENTATION (  '', ( #190 ), #261 ) ;
#218 = CARTESIAN_POINT ( 'NONE',  ( 0.1562500000000000000, 1.913510623667739463E-17, 2.500000000000000000 ) ) ;
#219 = EDGE_CURVE ( 'NONE', #311, #239, #295, .T. ) ;
#220 =( CONVERSION_BASED_UNIT ( 'INCH', #46 ) LENGTH_UNIT ( ) NAMED_UNIT ( #44 ) );
#221 =( LENGTH_UNIT ( ) NAMED_UNIT ( * ) SI_UNIT ( $, .METRE. ) );
#222 = AXIS2_PLACEMENT_3D ( 'NONE', #50, #67, #166 ) ;
#223 = AXIS2_PLACEMENT_3D ( 'NONE', #234, #88, #235 ) ;
#224 = CARTESIAN_POINT ( 'NONE',  ( -0.1562500000000000000, 0.0000000000000000000, 2.484999999999999432 ) ) ;
#225 = DIRECTION ( 'NONE',  ( 0.0000000000000000000, 0.0000000000000000000, -1.000000000000000000 ) ) ;
#226 = VECTOR ( 'NONE', #155, 39.37007874015748854 ) ;
#227 = COLOUR_RGB ( '',0.7921568627450980005, 0.8196078431372548767, 0.9333333333333333481 ) ;
#228 = CARTESIAN_POINT ( 'NONE',  ( -0.1404593999999999843, 0.0000000000000000000, 0.1404594000000000398 ) ) ;
#229 = LINE ( 'NONE', #77, #106 ) ;
#230 = DIRECTION ( 'NONE',  ( 1.000000000000000000, 0.0000000000000000000, 0.0000000000000000000 ) ) ;
#231 = ADVANCED_FACE ( 'NONE', ( #325 ), #312, .T. ) ;
#232 = AXIS2_PLACEMENT_3D ( 'NONE', #317, #292, #73 ) ;
#233 = UNCERTAINTY_MEASURE_WITH_UNIT (LENGTH_MEASURE( 1.000000000000000082E-05 ), #220, 'distance_accuracy_value', 'NONE');
#234 = CARTESIAN_POINT ( 'NONE',  ( 9.184850993605150903E-17, 0.0000000000000000000, 0.7500000000000001110 ) ) ;
#235 = DIRECTION ( 'NONE',  ( -1.000000000000000000, 0.0000000000000000000, 0.0000000000000000000 ) ) ;
#236 = ORIENTED_EDGE ( 'NONE', *, *, #80, .T. ) ;
#237 =( NAMED_UNIT ( * ) SI_UNIT ( $, .STERADIAN. ) SOLID_ANGLE_UNIT ( ) );
#238 = FACE_OUTER_BOUND ( 'NONE', #12, .T. ) ;
#239 = VERTEX_POINT ( 'NONE', #228 ) ;
#240 = VERTEX_POINT ( 'NONE', #324 ) ;
#241 = FACE_OUTER_BOUND ( 'NONE', #137, .T. ) ;
#242 = CONICAL_SURFACE ( 'NONE', #197, 0.1412499999999994871, 0.7853981633974391752 ) ;
#243 = ORIENTED_EDGE ( 'NONE', *, *, #102, .F. ) ;
#244 =( NAMED_UNIT ( * ) SI_UNIT ( $, .STERADIAN. ) SOLID_ANGLE_UNIT ( ) );
#245 = ADVANCED_FACE ( 'NONE', ( #204 ), #242, .T. ) ;
#246 = DIRECTION ( 'NONE',  ( -0.0000000000000000000, -0.0000000000000000000, -1.000000000000000000 ) ) ;
#247 = CONICAL_SURFACE ( 'NONE', #8, 0.1412499999999994871, 0.7853981633974391752 ) ;
#248 = ORIENTED_EDGE ( 'NONE', *, *, #219, .T. ) ;
#249 = PLANE ( 'NONE',  #49 ) ;
#250 = DIRECTION ( 'NONE',  ( 1.000000000000000000, 0.0000000000000000000, 0.0000000000000000000 ) ) ;
#251 = AXIS2_PLACEMENT_3D ( 'NONE', #78, #1, #250 ) ;
#252 = CARTESIAN_POINT ( 'NONE',  ( 0.0000000000000000000, 0.0000000000000000000, 0.0000000000000000000 ) ) ;
#253 = DIRECTION ( 'NONE',  ( -1.000000000000000000, 0.0000000000000000000, 1.224646799147353207E-16 ) ) ;
#254 = DIRECTION ( 'NONE',  ( 0.0000000000000000000, 1.000000000000000000, 0.0000000000000000000 ) ) ;
#255 = CARTESIAN_POINT ( 'NONE',  ( -0.1412499999999994871, 0.0000000000000000000, 2.500000000000000000 ) ) ;
#256 = ORIENTED_EDGE ( 'NONE', *, *, #186, .F. ) ;
#257 = FILL_AREA_STYLE_COLOUR ( '', #227 ) ;
#258 = EDGE_LOOP ( 'NONE', ( #83, #182 ) ) ;
#259 = DIRECTION ( 'NONE',  ( -1.224646799147353207E-16, -0.0000000000000000000, -1.000000000000000000 ) ) ;
#260 = VECTOR ( 'NONE', #313, 39.37007874015748143 ) ;
#261 =( GEOMETRIC_REPRESENTATION_CONTEXT ( 3 ) GLOBAL_UNCERTAINTY_ASSIGNED_CONTEXT ( ( #323 ) ) GLOBAL_UNIT_ASSIGNED_CONTEXT ( ( #17, #314, #94 ) ) REPRESENTATION_CONTEXT ( 'NONE', 'WORKASPACE' ) );
#262 = ORIENTED_EDGE ( 'NONE', *, *, #140, .F. ) ;
#263 = CARTESIAN_POINT ( 'NONE',  ( 0.0000000000000000000, 0.0000000000000000000, 0.0000000000000000000 ) ) ;
#264 = EDGE_LOOP ( 'NONE', ( #213, #301, #41, #20 ) ) ;
#265 = ADVANCED_FACE ( 'NONE', ( #238 ), #79, .T. ) ;
#266 = CARTESIAN_POINT ( 'NONE',  ( -0.1412499999999994871, 0.0000000000000000000, 2.500000000000000000 ) ) ;
#267 = EDGE_CURVE ( 'NONE', #165, #311, #291, .T. ) ;
#268 = DIRECTION ( 'NONE',  ( 0.0000000000000000000, -1.000000000000000000, 0.0000000000000000000 ) ) ;
#269 = DIRECTION ( 'NONE',  ( 1.000000000000000000, 0.0000000000000000000, 0.0000000000000000000 ) ) ;
#270 = VERTEX_POINT ( 'NONE', #6 ) ;
#271 = EDGE_CURVE ( 'NONE', #15, #143, #201, .T. ) ;
#272 = EDGE_LOOP ( 'NONE', ( #42, #184, #168, #92 ) ) ;
#273 = CARTESIAN_POINT ( 'NONE',  ( 9.184850993605150903E-17, 0.0000000000000000000, 0.7500000000000001110 ) ) ;
#274 = CARTESIAN_POINT ( 'NONE',  ( 9.184850993605150903E-17, 0.0000000000000000000, 0.7500000000000001110 ) ) ;
#275 = ADVANCED_FACE ( 'NONE', ( #10 ), #85, .T. ) ;
#276 = FACE_OUTER_BOUND ( 'NONE', #11, .T. ) ;
#277 = AXIS2_PLACEMENT_3D ( 'NONE', #150, #268, #22 ) ;
#278 = EDGE_CURVE ( 'NONE', #15, #87, #141, .T. ) ;
#279 = CARTESIAN_POINT ( 'NONE',  ( 0.1562500000000001110, 1.913510623667740388E-17, 0.8395529427008548984 ) ) ;
#280 = FACE_OUTER_BOUND ( 'NONE', #258, .T. ) ;
#281 = FILL_AREA_STYLE ('',( #257 ) ) ;
#282 = PRESENTATION_STYLE_ASSIGNMENT (( #183 ) ) ;
#283 = ORIENTED_EDGE ( 'NONE', *, *, #47, .F. ) ;
#284 = DIRECTION ( 'NONE',  ( -1.000000000000000000, 0.0000000000000000000, 1.224646799147353207E-16 ) ) ;
#285 = ORIENTED_EDGE ( 'NONE', *, *, #267, .T. ) ;
#286 = DIMENSIONAL_EXPONENTS ( 1.000000000000000000, 0.0000000000000000000, 0.0000000000000000000, 0.0000000000000000000, 0.0000000000000000000, 0.0000000000000000000, 0.0000000000000000000 ) ;
#287 = ORIENTED_EDGE ( 'NONE', *, *, #173, .F. ) ;
#288 = CARTESIAN_POINT ( 'NONE',  ( 0.0000000000000000000, 0.0000000000000000000, 2.500000000000000000 ) ) ;
#289 = LENGTH_MEASURE_WITH_UNIT ( LENGTH_MEASURE( 0.02539999999999999897 ), #112 );
#290 = VECTOR ( 'NONE', #246, 39.37007874015748143 ) ;
#291 = CIRCLE ( 'NONE', #223, 0.1404594000000000120 ) ;
#292 = DIRECTION ( 'NONE',  ( 1.224646799147353207E-16, 1.000000000000000000, -0.0000000000000000000 ) ) ;
#293 = SPHERICAL_SURFACE ( 'NONE', #196, 0.1404594000000000120 ) ;
#294 = ADVANCED_FACE ( 'NONE', ( #108 ), #58, .T. ) ;
#295 = LINE ( 'NONE', #75, #55 ) ;
#296 = CARTESIAN_POINT ( 'NONE',  ( 0.1404594000000000953, 0.0000000000000000000, 0.7500000000000001110 ) ) ;
#297 = CARTESIAN_POINT ( 'NONE',  ( 0.0000000000000000000, 0.0000000000000000000, 2.500000000000000000 ) ) ;
#298 = EDGE_CURVE ( 'NONE', #239, #307, #167, .T. ) ;
#299 = PRODUCT_DEFINITION_FORMATION_WITH_SPECIFIED_SOURCE ( 'ANY', '', #151, .NOT_KNOWN. ) ;
#300 = CARTESIAN_POINT ( 'NONE',  ( 0.1404594000000000120, 1.720131546201577623E-17, -1.720131546201577623E-17 ) ) ;
#301 = ORIENTED_EDGE ( 'NONE', *, *, #267, .F. ) ;
#302 = DIRECTION ( 'NONE',  ( 0.0000000000000000000, 1.000000000000000000, 0.0000000000000000000 ) ) ;
#303 = ORIENTED_EDGE ( 'NONE', *, *, #219, .F. ) ;
#304 = AXIS2_PLACEMENT_3D ( 'NONE', #65, #114, #306 ) ;
#305 = EDGE_CURVE ( 'NONE', #307, #239, #216, .T. ) ;
#306 = DIRECTION ( 'NONE',  ( -1.000000000000000000, 0.0000000000000000000, 1.215586138086994854E-16 ) ) ;
#307 = VERTEX_POINT ( 'NONE', #185 ) ;
#308 = APPLICATION_PROTOCOL_DEFINITION ( 'draft international standard', 'automotive_design', 1998, #38 ) ;
#309 = ORIENTED_EDGE ( 'NONE', *, *, #140, .T. ) ;
#310 = DIRECTION ( 'NONE',  ( 1.000000000000000000, 0.0000000000000000000, 0.0000000000000000000 ) ) ;
#311 = VERTEX_POINT ( 'NONE', #160 ) ;
#312 = CONICAL_SURFACE ( 'NONE', #32, 0.1404594000000000120, 0.1745329251994338082 ) ;
#313 = DIRECTION ( 'NONE',  ( -0.0000000000000000000, -0.0000000000000000000, -1.000000000000000000 ) ) ;
#314 =( NAMED_UNIT ( * ) PLANE_ANGLE_UNIT ( ) SI_UNIT ( $, .RADIAN. ) );
#315 = FILL_AREA_STYLE ('',( #192 ) ) ;
#316 = DIMENSIONAL_EXPONENTS ( 1.000000000000000000, 0.0000000000000000000, 0.0000000000000000000, 0.0000000000000000000, 0.0000000000000000000, 0.0000000000000000000, 0.0000000000000000000 ) ;
#317 = CARTESIAN_POINT ( 'NONE',  ( 1.720131546201577623E-17, 0.0000000000000000000, 0.1404594000000000120 ) ) ;
#318 = PRODUCT_DEFINITION_CONTEXT ( 'detailed design', #76, 'design' ) ;
#319 = LINE ( 'NONE', #174, #226 ) ;
#320 = DIRECTION ( 'NONE',  ( 1.000000000000000000, 0.0000000000000000000, 0.0000000000000000000 ) ) ;
#321 = VECTOR ( 'NONE', #97, 39.37007874015747433 ) ;
#322 = AXIS2_PLACEMENT_3D ( 'NONE', #263, #119, #269 ) ;
#323 = UNCERTAINTY_MEASURE_WITH_UNIT (LENGTH_MEASURE( 1.000000000000000082E-05 ), #17, 'distance_accuracy_value', 'NONE');
#324 = CARTESIAN_POINT ( 'NONE',  ( 2.580197319302366126E-17, 0.0000000000000000000, 0.0000000000000000000 ) ) ;
#325 = FACE_OUTER_BOUND ( 'NONE', #264, .T. ) ;
ENDSEC;
END-ISO-10303-21;
