ISO-10303-21;
HEADER;
FILE_DESCRIPTION (( 'STEP AP214' ),
    '1' );
FILE_NAME ('59680.STEP',
    '2023-07-24T15:23:12',
    ( '' ),
    ( '' ),
    'SwSTEP 2.0',
    'SolidWorks 2023',
    '' );
FILE_SCHEMA (( 'AUTOMOTIVE_DESIGN' ));
ENDSEC;

DATA;
#1 = CARTESIAN_POINT ( 'NONE',  ( 0.000000000000000000, 0.000000000000000000, 0.000000000000000000 ) ) ;
#2 = CARTESIAN_POINT ( 'NONE',  ( 0.000000000000000000, 0.000000000000000000, -9.500000000000000000 ) ) ;
#3 = ADVANCED_FACE ( 'NONE', ( #152 ), #329, .F. ) ;
#4 = ORIENTED_EDGE ( 'NONE', *, *, #89, .T. ) ;
#5 =( LENGTH_UNIT ( ) NAMED_UNIT ( * ) SI_UNIT ( .MILLI., .METRE. ) );
#6 = CARTESIAN_POINT ( 'NONE',  ( -10.00000000000001066, 124.9999999999999858, 0.000000000000000000 ) ) ;
#7 = ORIENTED_EDGE ( 'NONE', *, *, #365, .T. ) ;
#8 = VERTEX_POINT ( 'NONE', #127 ) ;
#9 = CLOSED_SHELL ( 'NONE', ( #107, #275, #104, #3 ) ) ;
#10 = MECHANICAL_DESIGN_GEOMETRIC_PRESENTATION_REPRESENTATION (  '', ( #254 ), #323 ) ;
#11 = DIRECTION ( 'NONE',  ( -1.000000000000000000, 0.000000000000000000, 0.000000000000000000 ) ) ;
#12 = EDGE_CURVE ( 'NONE', #8, #31, #282, .T. ) ;
#13 = DIRECTION ( 'NONE',  ( -1.000000000000000000, 0.000000000000000000, 0.000000000000000000 ) ) ;
#14 = SURFACE_STYLE_FILL_AREA ( #259 ) ;
#15 = EDGE_LOOP ( 'NONE', ( #318, #79 ) ) ;
#16 = STYLED_ITEM ( 'NONE', ( #336 ), #92 ) ;
#17 =( NAMED_UNIT ( * ) PLANE_ANGLE_UNIT ( ) SI_UNIT ( $, .RADIAN. ) );
#18 = CIRCLE ( 'NONE', #238, 9.500000000000000000 ) ;
#19 = ORIENTED_EDGE ( 'NONE', *, *, #231, .F. ) ;
#20 = FILL_AREA_STYLE_COLOUR ( '', #191 ) ;
#21 = EDGE_CURVE ( 'NONE', #297, #88, #224, .T. ) ;
#22 = DIRECTION ( 'NONE',  ( -0.000000000000000000, -1.000000000000000000, -0.000000000000000000 ) ) ;
#23 = EDGE_LOOP ( 'NONE', ( #136, #249, #4, #97 ) ) ;
#24 = DIRECTION ( 'NONE',  ( 0.000000000000000000, -0.000000000000000000, 1.000000000000000000 ) ) ;
#25 =( GEOMETRIC_REPRESENTATION_CONTEXT ( 3 ) GLOBAL_UNCERTAINTY_ASSIGNED_CONTEXT ( ( #242 ) ) GLOBAL_UNIT_ASSIGNED_CONTEXT ( ( #5, #228, #250 ) ) REPRESENTATION_CONTEXT ( 'NONE', 'WORKASPACE' ) );
#26 = CARTESIAN_POINT ( 'NONE',  ( 1.194030629168669469E-15, 0.000000000000000000, 9.500000000000000000 ) ) ;
#27 = AXIS2_PLACEMENT_3D ( 'NONE', #359, #358, #266 ) ;
#28 = MECHANICAL_DESIGN_GEOMETRIC_PRESENTATION_REPRESENTATION (  '', ( #334 ), #328 ) ;
#29 = AXIS2_PLACEMENT_3D ( 'NONE', #182, #180, #24 ) ;
#30 = SURFACE_STYLE_FILL_AREA ( #277 ) ;
#31 = VERTEX_POINT ( 'NONE', #356 ) ;
#32 = MECHANICAL_DESIGN_GEOMETRIC_PRESENTATION_REPRESENTATION (  '', ( #226 ), #202 ) ;
#33 = FACE_OUTER_BOUND ( 'NONE', #23, .T. ) ;
#34 = FILL_AREA_STYLE ('',( #93 ) ) ;
#35 = DIRECTION ( 'NONE',  ( -1.000000000000000000, 0.000000000000000000, 0.000000000000000000 ) ) ;
#36 = CYLINDRICAL_SURFACE ( 'NONE', #83, 10.00000000000000000 ) ;
#37 = STYLED_ITEM ( 'NONE', ( #352 ), #241 ) ;
#38 = CARTESIAN_POINT ( 'NONE',  ( 9.999999999999994671, 124.9999999999999858, 1.224646799147353256E-15 ) ) ;
#39 = EDGE_LOOP ( 'NONE', ( #195, #218 ) ) ;
#40 = ADVANCED_FACE ( 'NONE', ( #322 ), #262, .T. ) ;
#41 =( LENGTH_UNIT ( ) NAMED_UNIT ( * ) SI_UNIT ( .MILLI., .METRE. ) );
#42 = ADVANCED_BREP_SHAPE_REPRESENTATION ( '59680', ( #149, #150, #123 ), #205 ) ;
#43 = FILL_AREA_STYLE_COLOUR ( '', #345 ) ;
#44 = SURFACE_SIDE_STYLE ('',( #309 ) ) ;
#45 = DIRECTION ( 'NONE',  ( 0.000000000000000000, 0.000000000000000000, -1.000000000000000000 ) ) ;
#46 = EDGE_CURVE ( 'NONE', #88, #65, #102, .T. ) ;
#47 = PRESENTATION_LAYER_ASSIGNMENT (  '', '', ( #37 ) ) ;
#48 = CIRCLE ( 'NONE', #66, 10.00000000000000533 ) ;
#49 = SURFACE_SIDE_STYLE ('',( #14 ) ) ;
#50 = FILL_AREA_STYLE ('',( #211 ) ) ;
#51 = ORIENTED_EDGE ( 'NONE', *, *, #12, .F. ) ;
#52 = FILL_AREA_STYLE ('',( #103 ) ) ;
#53 = FILL_AREA_STYLE ('',( #43 ) ) ;
#54 = LINE ( 'NONE', #271, #144 ) ;
#55 = DIRECTION ( 'NONE',  ( -1.252807796048505441E-16, 1.000000000000000000, -0.000000000000000000 ) ) ;
#56 = CARTESIAN_POINT ( 'NONE',  ( 0.000000000000000000, 0.000000000000000000, 0.000000000000000000 ) ) ;
#57 = CARTESIAN_POINT ( 'NONE',  ( 1.224646799147353256E-15, 0.5000000000000000000, 10.00000000000000000 ) ) ;
#58 =( GEOMETRIC_REPRESENTATION_CONTEXT ( 3 ) GLOBAL_UNCERTAINTY_ASSIGNED_CONTEXT ( ( #153 ) ) GLOBAL_UNIT_ASSIGNED_CONTEXT ( ( #188, #357, #156 ) ) REPRESENTATION_CONTEXT ( 'NONE', 'WORKASPACE' ) );
#59 = AXIS2_PLACEMENT_3D ( 'NONE', #190, #99, #320 ) ;
#60 = DIRECTION ( 'NONE',  ( -0.000000000000000000, -1.000000000000000000, -0.000000000000000000 ) ) ;
#61 =( LENGTH_UNIT ( ) NAMED_UNIT ( * ) SI_UNIT ( .MILLI., .METRE. ) );
#62 = CIRCLE ( 'NONE', #253, 9.999999999999996447 ) ;
#63 = PRODUCT_DEFINITION_FORMATION_WITH_SPECIFIED_SOURCE ( 'ANY', '', #270, .NOT_KNOWN. ) ;
#64 = PRESENTATION_STYLE_ASSIGNMENT (( #142 ) ) ;
#65 = VERTEX_POINT ( 'NONE', #26 ) ;
#66 = AXIS2_PLACEMENT_3D ( 'NONE', #232, #193, #314 ) ;
#67 = SHAPE_DEFINITION_REPRESENTATION ( #240, #42 ) ;
#68 = CARTESIAN_POINT ( 'NONE',  ( 0.000000000000000000, 0.000000000000000000, 0.000000000000000000 ) ) ;
#69 = CIRCLE ( 'NONE', #264, 0.5000000000000004441 ) ;
#70 = DIRECTION ( 'NONE',  ( 0.000000000000000000, 0.000000000000000000, -1.000000000000000000 ) ) ;
#71 = FACE_OUTER_BOUND ( 'NONE', #120, .T. ) ;
#72 = CLOSED_SHELL ( 'NONE', ( #335, #194, #92, #40, #308, #241 ) ) ;
#73 = CYLINDRICAL_SURFACE ( 'NONE', #227, 10.00000000000000000 ) ;
#74 = COLOUR_RGB ( '',0.7921568627450980005, 0.8196078431372548767, 0.9333333333333333481 ) ;
#75 = PRODUCT_DEFINITION_CONTEXT ( 'detailed design', #198, 'design' ) ;
#76 = SURFACE_SIDE_STYLE ('',( #274 ) ) ;
#77 = ORIENTED_EDGE ( 'NONE', *, *, #239, .F. ) ;
#78 = DIRECTION ( 'NONE',  ( -0.000000000000000000, -1.000000000000000000, -0.000000000000000000 ) ) ;
#79 = ORIENTED_EDGE ( 'NONE', *, *, #311, .T. ) ;
#80 = CARTESIAN_POINT ( 'NONE',  ( 4.987329993433318819E-15, 50.00000000000000000, 0.000000000000000000 ) ) ;
#81 = SURFACE_STYLE_FILL_AREA ( #234 ) ;
#82 = APPLICATION_PROTOCOL_DEFINITION ( 'draft international standard', 'automotive_design', 1998, #185 ) ;
#83 = AXIS2_PLACEMENT_3D ( 'NONE', #146, #255, #11 ) ;
#84 = CYLINDRICAL_SURFACE ( 'NONE', #179, 10.00000000000000000 ) ;
#85 = DIRECTION ( 'NONE',  ( 0.000000000000000000, 0.000000000000000000, -1.000000000000000000 ) ) ;
#86 = AXIS2_PLACEMENT_3D ( 'NONE', #122, #170, #85 ) ;
#87 = ORIENTED_EDGE ( 'NONE', *, *, #160, .F. ) ;
#88 = VERTEX_POINT ( 'NONE', #57 ) ;
#89 = EDGE_CURVE ( 'NONE', #31, #364, #54, .T. ) ;
#90 = FACE_OUTER_BOUND ( 'NONE', #225, .T. ) ;
#91 = SURFACE_STYLE_FILL_AREA ( #34 ) ;
#92 = ADVANCED_FACE ( 'NONE', ( #135 ), #243, .T. ) ;
#93 = FILL_AREA_STYLE_COLOUR ( '', #276 ) ;
#94 = ORIENTED_EDGE ( 'NONE', *, *, #176, .T. ) ;
#95 = APPLICATION_PROTOCOL_DEFINITION ( 'draft international standard', 'automotive_design', 1998, #198 ) ;
#96 = CARTESIAN_POINT ( 'NONE',  ( 4.987329993433320396E-15, 50.00000000000000000, 0.000000000000000000 ) ) ;
#97 = ORIENTED_EDGE ( 'NONE', *, *, #311, .F. ) ;
#98 = EDGE_CURVE ( 'NONE', #140, #148, #125, .T. ) ;
#99 = DIRECTION ( 'NONE',  ( -1.252807796048505441E-16, 1.000000000000000000, -0.000000000000000000 ) ) ;
#100 = PLANE ( 'NONE',  #219 ) ;
#101 =( LENGTH_UNIT ( ) NAMED_UNIT ( * ) SI_UNIT ( .MILLI., .METRE. ) );
#102 = CIRCLE ( 'NONE', #303, 0.5000000000000004441 ) ;
#103 = FILL_AREA_STYLE_COLOUR ( '', #310 ) ;
#104 = ADVANCED_FACE ( 'NONE', ( #33 ), #84, .T. ) ;
#105 = CARTESIAN_POINT ( 'NONE',  ( 4.987329993433318819E-15, 50.00000000000000000, 0.000000000000000000 ) ) ;
#106 = AXIS2_PLACEMENT_3D ( 'NONE', #68, #178, #268 ) ;
#107 = ADVANCED_FACE ( 'NONE', ( #90 ), #36, .T. ) ;
#108 = SURFACE_SIDE_STYLE ('',( #362 ) ) ;
#109 = PRESENTATION_LAYER_ASSIGNMENT (  '', '', ( #369 ) ) ;
#110 = FILL_AREA_STYLE_COLOUR ( '', #332 ) ;
#111 = FILL_AREA_STYLE ('',( #245 ) ) ;
#112 = SURFACE_SIDE_STYLE ('',( #30 ) ) ;
#113 = SURFACE_STYLE_USAGE ( .BOTH. , #44 ) ;
#114 = EDGE_CURVE ( 'NONE', #148, #88, #124, .T. ) ;
#115 = DIRECTION ( 'NONE',  ( 0.000000000000000000, 0.000000000000000000, -1.000000000000000000 ) ) ;
#116 =( NAMED_UNIT ( * ) SI_UNIT ( $, .STERADIAN. ) SOLID_ANGLE_UNIT ( ) );
#117 = PRODUCT_DEFINITION ( 'UNKNOWN', '', #63, #75 ) ;
#118 = ORIENTED_EDGE ( 'NONE', *, *, #89, .F. ) ;
#119 = CARTESIAN_POINT ( 'NONE',  ( 0.000000000000000000, 50.00000000000000000, 0.000000000000000000 ) ) ;
#120 = EDGE_LOOP ( 'NONE', ( #289, #287, #151, #313 ) ) ;
#121 = LINE ( 'NONE', #38, #175 ) ;
#122 = CARTESIAN_POINT ( 'NONE',  ( 0.000000000000000000, 0.000000000000000000, 0.000000000000000000 ) ) ;
#123 = AXIS2_PLACEMENT_3D ( 'NONE', #169, #285, #143 ) ;
#124 = LINE ( 'NONE', #200, #130 ) ;
#125 = CIRCLE ( 'NONE', #164, 10.00000000000000000 ) ;
#126 = FACE_OUTER_BOUND ( 'NONE', #340, .T. ) ;
#127 = CARTESIAN_POINT ( 'NONE',  ( 10.00000000000000355, 50.00000000000000000, 1.224646799147353848E-15 ) ) ;
#128 = ORIENTED_EDGE ( 'NONE', *, *, #21, .T. ) ;
#129 = COLOUR_RGB ( '',1.000000000000000000, 0.000000000000000000, 0.000000000000000000 ) ;
#130 = VECTOR ( 'NONE', #174, 1000.000000000000000 ) ;
#131 = CIRCLE ( 'NONE', #291, 10.00000000000000000 ) ;
#132 = UNCERTAINTY_MEASURE_WITH_UNIT (LENGTH_MEASURE( 1.000000000000000082E-05 ), #61, 'distance_accuracy_value', 'NONE');
#133 = CARTESIAN_POINT ( 'NONE',  ( 1.224646799147353256E-15, 50.00000000000000000, 10.00000000000000000 ) ) ;
#134 = MECHANICAL_DESIGN_GEOMETRIC_PRESENTATION_REPRESENTATION (  '', ( #369 ), #181 ) ;
#135 = FACE_OUTER_BOUND ( 'NONE', #39, .T. ) ;
#136 = ORIENTED_EDGE ( 'NONE', *, *, #365, .F. ) ;
#137 =( LENGTH_UNIT ( ) NAMED_UNIT ( * ) SI_UNIT ( .MILLI., .METRE. ) );
#138 = EDGE_LOOP ( 'NONE', ( #236, #87 ) ) ;
#139 = PRESENTATION_LAYER_ASSIGNMENT (  '', '', ( #210 ) ) ;
#140 = VERTEX_POINT ( 'NONE', #272 ) ;
#141 = PRESENTATION_STYLE_ASSIGNMENT (( #317 ) ) ;
#142 = SURFACE_STYLE_USAGE ( .BOTH. , #284 ) ;
#143 = DIRECTION ( 'NONE',  ( 1.000000000000000000, 0.000000000000000000, 0.000000000000000000 ) ) ;
#144 = VECTOR ( 'NONE', #273, 1000.000000000000000 ) ;
#145 = CIRCLE ( 'NONE', #106, 9.500000000000000000 ) ;
#146 = CARTESIAN_POINT ( 'NONE',  ( -4.408728476930469278E-15, 124.9999999999999858, 0.000000000000000000 ) ) ;
#147 =( LENGTH_UNIT ( ) NAMED_UNIT ( * ) SI_UNIT ( .MILLI., .METRE. ) );
#148 = VERTEX_POINT ( 'NONE', #133 ) ;
#149 = MANIFOLD_SOLID_BREP ( 'Revolve - Cutting Edge', #72 ) ;
#150 = MANIFOLD_SOLID_BREP ( 'Revolve - Tool Body (Straight Shanked)', #9 ) ;
#151 = ORIENTED_EDGE ( 'NONE', *, *, #260, .T. ) ;
#152 = FACE_OUTER_BOUND ( 'NONE', #15, .T. ) ;
#153 = UNCERTAINTY_MEASURE_WITH_UNIT (LENGTH_MEASURE( 1.000000000000000082E-05 ), #188, 'distance_accuracy_value', 'NONE');
#154 = SURFACE_SIDE_STYLE ('',( #325 ) ) ;
#155 = ORIENTED_EDGE ( 'NONE', *, *, #114, .T. ) ;
#156 =( NAMED_UNIT ( * ) SI_UNIT ( $, .STERADIAN. ) SOLID_ANGLE_UNIT ( ) );
#157 = UNCERTAINTY_MEASURE_WITH_UNIT (LENGTH_MEASURE( 1.000000000000000082E-05 ), #137, 'distance_accuracy_value', 'NONE');
#158 = AXIS2_PLACEMENT_3D ( 'NONE', #247, #221, #45 ) ;
#159 = DIRECTION ( 'NONE',  ( -1.224646799147353454E-16, 0.000000000000000000, -1.000000000000000000 ) ) ;
#160 = EDGE_CURVE ( 'NONE', #148, #140, #283, .T. ) ;
#161 = FACE_OUTER_BOUND ( 'NONE', #278, .T. ) ;
#162 = DIRECTION ( 'NONE',  ( 0.000000000000000000, 0.000000000000000000, -1.000000000000000000 ) ) ;
#163 = PRESENTATION_LAYER_ASSIGNMENT (  '', '', ( #327 ) ) ;
#164 = AXIS2_PLACEMENT_3D ( 'NONE', #119, #60, #167 ) ;
#165 = DIRECTION ( 'NONE',  ( -1.000000000000000000, 0.000000000000000000, 0.000000000000000000 ) ) ;
#166 = EDGE_CURVE ( 'NONE', #344, #65, #18, .T. ) ;
#167 = DIRECTION ( 'NONE',  ( 0.000000000000000000, 0.000000000000000000, -1.000000000000000000 ) ) ;
#168 =( GEOMETRIC_REPRESENTATION_CONTEXT ( 3 ) GLOBAL_UNCERTAINTY_ASSIGNED_CONTEXT ( ( #208 ) ) GLOBAL_UNIT_ASSIGNED_CONTEXT ( ( #101, #17, #201 ) ) REPRESENTATION_CONTEXT ( 'NONE', 'WORKASPACE' ) );
#169 = CARTESIAN_POINT ( 'NONE',  ( 0.000000000000000000, 0.000000000000000000, 0.000000000000000000 ) ) ;
#170 = DIRECTION ( 'NONE',  ( -0.000000000000000000, -1.000000000000000000, -0.000000000000000000 ) ) ;
#171 = ORIENTED_EDGE ( 'NONE', *, *, #300, .T. ) ;
#172 = PRESENTATION_LAYER_ASSIGNMENT (  '', '', ( #16 ) ) ;
#173 = TOROIDAL_SURFACE ( 'NONE', #295, 9.500000000000000000, 0.5000000000000002220 ) ;
#174 = DIRECTION ( 'NONE',  ( -0.000000000000000000, -1.000000000000000000, -0.000000000000000000 ) ) ;
#175 = VECTOR ( 'NONE', #256, 1000.000000000000000 ) ;
#176 = EDGE_CURVE ( 'NONE', #31, #8, #62, .T. ) ;
#177 = CARTESIAN_POINT ( 'NONE',  ( 0.000000000000000000, 0.000000000000000000, 0.000000000000000000 ) ) ;
#178 = DIRECTION ( 'NONE',  ( -0.000000000000000000, -1.000000000000000000, -0.000000000000000000 ) ) ;
#179 = AXIS2_PLACEMENT_3D ( 'NONE', #192, #286, #35 ) ;
#180 = DIRECTION ( 'NONE',  ( 0.000000000000000000, 1.000000000000000000, 0.000000000000000000 ) ) ;
#181 =( GEOMETRIC_REPRESENTATION_CONTEXT ( 3 ) GLOBAL_UNCERTAINTY_ASSIGNED_CONTEXT ( ( #157 ) ) GLOBAL_UNIT_ASSIGNED_CONTEXT ( ( #137, #337, #116 ) ) REPRESENTATION_CONTEXT ( 'NONE', 'WORKASPACE' ) );
#182 = CARTESIAN_POINT ( 'NONE',  ( 0.000000000000000000, 50.00000000000000000, 0.000000000000000000 ) ) ;
#183 = CARTESIAN_POINT ( 'NONE',  ( 0.000000000000000000, 0.5000000000000000000, 0.000000000000000000 ) ) ;
#184 = COLOUR_RGB ( '',1.000000000000000000, 0.000000000000000000, 0.000000000000000000 ) ;
#185 = APPLICATION_CONTEXT ( 'automotive_design' ) ;
#186 = CARTESIAN_POINT ( 'NONE',  ( 0.000000000000000000, 0.5000000000000000000, 0.000000000000000000 ) ) ;
#187 = DIRECTION ( 'NONE',  ( 0.000000000000000000, 0.000000000000000000, -1.000000000000000000 ) ) ;
#188 =( LENGTH_UNIT ( ) NAMED_UNIT ( * ) SI_UNIT ( .MILLI., .METRE. ) );
#189 = MECHANICAL_DESIGN_GEOMETRIC_PRESENTATION_REPRESENTATION (  '', ( #210 ), #290 ) ;
#190 = CARTESIAN_POINT ( 'NONE',  ( -4.408728476930469278E-15, 124.9999999999999858, 0.000000000000000000 ) ) ;
#191 = COLOUR_RGB ( '',1.000000000000000000, 0.000000000000000000, 0.000000000000000000 ) ;
#192 = CARTESIAN_POINT ( 'NONE',  ( -4.408728476930469278E-15, 124.9999999999999858, 0.000000000000000000 ) ) ;
#193 = DIRECTION ( 'NONE',  ( -1.252807796048505441E-16, 1.000000000000000000, -0.000000000000000000 ) ) ;
#194 = ADVANCED_FACE ( 'NONE', ( #161 ), #173, .T. ) ;
#195 = ORIENTED_EDGE ( 'NONE', *, *, #166, .T. ) ;
#196 = DIRECTION ( 'NONE',  ( -0.000000000000000000, -1.000000000000000000, -0.000000000000000000 ) ) ;
#197 = CARTESIAN_POINT ( 'NONE',  ( 10.00000000000000000, 124.9999999999999858, 1.224646799147353454E-15 ) ) ;
#198 = APPLICATION_CONTEXT ( 'automotive_design' ) ;
#199 = ORIENTED_EDGE ( 'NONE', *, *, #21, .F. ) ;
#200 = CARTESIAN_POINT ( 'NONE',  ( 1.224646799147353256E-15, 0.000000000000000000, 10.00000000000000000 ) ) ;
#201 =( NAMED_UNIT ( * ) SI_UNIT ( $, .STERADIAN. ) SOLID_ANGLE_UNIT ( ) );
#202 =( GEOMETRIC_REPRESENTATION_CONTEXT ( 3 ) GLOBAL_UNCERTAINTY_ASSIGNED_CONTEXT ( ( #361 ) ) GLOBAL_UNIT_ASSIGNED_CONTEXT ( ( #41, #370, #233 ) ) REPRESENTATION_CONTEXT ( 'NONE', 'WORKASPACE' ) );
#203 = DIRECTION ( 'NONE',  ( -1.000000000000000000, -1.252807796048505441E-16, 0.000000000000000000 ) ) ;
#204 = PRESENTATION_STYLE_ASSIGNMENT (( #237 ) ) ;
#205 =( GEOMETRIC_REPRESENTATION_CONTEXT ( 3 ) GLOBAL_UNCERTAINTY_ASSIGNED_CONTEXT ( ( #132 ) ) GLOBAL_UNIT_ASSIGNED_CONTEXT ( ( #61, #222, #292 ) ) REPRESENTATION_CONTEXT ( 'NONE', 'WORKASPACE' ) );
#206 =( NAMED_UNIT ( * ) PLANE_ANGLE_UNIT ( ) SI_UNIT ( $, .RADIAN. ) );
#207 = FACE_OUTER_BOUND ( 'NONE', #138, .T. ) ;
#208 = UNCERTAINTY_MEASURE_WITH_UNIT (LENGTH_MEASURE( 1.000000000000000082E-05 ), #101, 'distance_accuracy_value', 'NONE');
#209 = MECHANICAL_DESIGN_GEOMETRIC_PRESENTATION_REPRESENTATION (  '', ( #16 ), #25 ) ;
#210 = STYLED_ITEM ( 'NONE', ( #141 ), #150 ) ;
#211 = FILL_AREA_STYLE_COLOUR ( '', #129 ) ;
#212 = DIRECTION ( 'NONE',  ( -0.000000000000000000, -1.000000000000000000, -0.000000000000000000 ) ) ;
#213 = UNCERTAINTY_MEASURE_WITH_UNIT (LENGTH_MEASURE( 1.000000000000000082E-05 ), #147, 'distance_accuracy_value', 'NONE');
#214 = SURFACE_STYLE_USAGE ( .BOTH. , #108 ) ;
#215 = CARTESIAN_POINT ( 'NONE',  ( 0.000000000000000000, 0.5000000000000000000, 0.000000000000000000 ) ) ;
#216 = SURFACE_STYLE_USAGE ( .BOTH. , #112 ) ;
#217 = MECHANICAL_DESIGN_GEOMETRIC_PRESENTATION_REPRESENTATION (  '', ( #327 ), #58 ) ;
#218 = ORIENTED_EDGE ( 'NONE', *, *, #239, .T. ) ;
#219 = AXIS2_PLACEMENT_3D ( 'NONE', #96, #353, #203 ) ;
#220 = UNCERTAINTY_MEASURE_WITH_UNIT (LENGTH_MEASURE( 1.000000000000000082E-05 ), #331, 'distance_accuracy_value', 'NONE');
#221 = DIRECTION ( 'NONE',  ( -0.000000000000000000, -1.000000000000000000, -0.000000000000000000 ) ) ;
#222 =( NAMED_UNIT ( * ) PLANE_ANGLE_UNIT ( ) SI_UNIT ( $, .RADIAN. ) );
#223 = ORIENTED_EDGE ( 'NONE', *, *, #176, .F. ) ;
#224 = CIRCLE ( 'NONE', #246, 10.00000000000000000 ) ;
#225 = EDGE_LOOP ( 'NONE', ( #94, #7, #19, #118 ) ) ;
#226 = STYLED_ITEM ( 'NONE', ( #350 ), #194 ) ;
#227 = AXIS2_PLACEMENT_3D ( 'NONE', #56, #212, #162 ) ;
#228 =( NAMED_UNIT ( * ) PLANE_ANGLE_UNIT ( ) SI_UNIT ( $, .RADIAN. ) );
#229 = CARTESIAN_POINT ( 'NONE',  ( 0.000000000000000000, 0.5000000000000000000, -9.500000000000000000 ) ) ;
#230 = EDGE_LOOP ( 'NONE', ( #252, #155, #199, #316 ) ) ;
#231 = EDGE_CURVE ( 'NONE', #364, #280, #263, .T. ) ;
#232 = CARTESIAN_POINT ( 'NONE',  ( -4.408728476930469278E-15, 124.9999999999999858, 0.000000000000000000 ) ) ;
#233 =( NAMED_UNIT ( * ) SI_UNIT ( $, .STERADIAN. ) SOLID_ANGLE_UNIT ( ) );
#234 = FILL_AREA_STYLE ('',( #368 ) ) ;
#235 = CARTESIAN_POINT ( 'NONE',  ( 0.000000000000000000, 0.5000000000000000000, -10.00000000000000000 ) ) ;
#236 = ORIENTED_EDGE ( 'NONE', *, *, #98, .F. ) ;
#237 = SURFACE_STYLE_USAGE ( .BOTH. , #154 ) ;
#238 = AXIS2_PLACEMENT_3D ( 'NONE', #177, #196, #293 ) ;
#239 = EDGE_CURVE ( 'NONE', #65, #344, #145, .T. ) ;
#240 = PRODUCT_DEFINITION_SHAPE ( 'NONE', 'NONE',  #117 ) ;
#241 = ADVANCED_FACE ( 'NONE', ( #207 ), #351, .T. ) ;
#242 = UNCERTAINTY_MEASURE_WITH_UNIT (LENGTH_MEASURE( 1.000000000000000082E-05 ), #5, 'distance_accuracy_value', 'NONE');
#243 = PLANE ( 'NONE',  #301 ) ;
#244 = EDGE_LOOP ( 'NONE', ( #321, #171, #267, #77 ) ) ;
#245 = FILL_AREA_STYLE_COLOUR ( '', #184 ) ;
#246 = AXIS2_PLACEMENT_3D ( 'NONE', #183, #354, #265 ) ;
#247 = CARTESIAN_POINT ( 'NONE',  ( 0.000000000000000000, 50.00000000000000000, 0.000000000000000000 ) ) ;
#248 =( LENGTH_UNIT ( ) NAMED_UNIT ( * ) SI_UNIT ( .MILLI., .METRE. ) );
#249 = ORIENTED_EDGE ( 'NONE', *, *, #12, .T. ) ;
#250 =( NAMED_UNIT ( * ) SI_UNIT ( $, .STERADIAN. ) SOLID_ANGLE_UNIT ( ) );
#251 = AXIS2_PLACEMENT_3D ( 'NONE', #186, #78, #187 ) ;
#252 = ORIENTED_EDGE ( 'NONE', *, *, #98, .T. ) ;
#253 = AXIS2_PLACEMENT_3D ( 'NONE', #80, #279, #165 ) ;
#254 = STYLED_ITEM ( 'NONE', ( #64 ), #335 ) ;
#255 = DIRECTION ( 'NONE',  ( -1.252807796048505441E-16, 1.000000000000000000, -0.000000000000000000 ) ) ;
#256 = DIRECTION ( 'NONE',  ( -1.252807796048505441E-16, 1.000000000000000000, -0.000000000000000000 ) ) ;
#257 =( NAMED_UNIT ( * ) PLANE_ANGLE_UNIT ( ) SI_UNIT ( $, .RADIAN. ) );
#258 = DIRECTION ( 'NONE',  ( 0.000000000000000000, 0.000000000000000000, 1.000000000000000000 ) ) ;
#259 = FILL_AREA_STYLE ('',( #20 ) ) ;
#260 = EDGE_CURVE ( 'NONE', #140, #297, #298, .T. ) ;
#261 = PRODUCT_CONTEXT ( 'NONE', #185, 'mechanical' ) ;
#262 = TOROIDAL_SURFACE ( 'NONE', #251, 9.500000000000000000, 0.5000000000000002220 ) ;
#263 = CIRCLE ( 'NONE', #59, 10.00000000000000533 ) ;
#264 = AXIS2_PLACEMENT_3D ( 'NONE', #229, #13, #258 ) ;
#265 = DIRECTION ( 'NONE',  ( 0.000000000000000000, 0.000000000000000000, -1.000000000000000000 ) ) ;
#266 = DIRECTION ( 'NONE',  ( 1.000000000000000000, 1.252807796048505441E-16, 0.000000000000000000 ) ) ;
#267 = ORIENTED_EDGE ( 'NONE', *, *, #326, .T. ) ;
#268 = DIRECTION ( 'NONE',  ( 0.000000000000000000, 0.000000000000000000, -1.000000000000000000 ) ) ;
#269 = AXIS2_PLACEMENT_3D ( 'NONE', #105, #55, #299 ) ;
#270 = PRODUCT ( '59680', '59680', '', ( #261 ) ) ;
#271 = CARTESIAN_POINT ( 'NONE',  ( -10.00000000000000533, 124.9999999999999858, 0.000000000000000000 ) ) ;
#272 = CARTESIAN_POINT ( 'NONE',  ( 0.000000000000000000, 50.00000000000000000, -10.00000000000000000 ) ) ;
#273 = DIRECTION ( 'NONE',  ( -1.252807796048505441E-16, 1.000000000000000000, -0.000000000000000000 ) ) ;
#274 = SURFACE_STYLE_FILL_AREA ( #53 ) ;
#275 = ADVANCED_FACE ( 'NONE', ( #126 ), #100, .F. ) ;
#276 = COLOUR_RGB ( '',1.000000000000000000, 0.000000000000000000, 0.000000000000000000 ) ;
#277 = FILL_AREA_STYLE ('',( #110 ) ) ;
#278 = EDGE_LOOP ( 'NONE', ( #128, #343, #347, #367 ) ) ;
#279 = DIRECTION ( 'NONE',  ( -1.252807796048505441E-16, 1.000000000000000000, -0.000000000000000000 ) ) ;
#280 = VERTEX_POINT ( 'NONE', #197 ) ;
#281 =( NAMED_UNIT ( * ) SI_UNIT ( $, .STERADIAN. ) SOLID_ANGLE_UNIT ( ) );
#282 = CIRCLE ( 'NONE', #269, 9.999999999999996447 ) ;
#283 = CIRCLE ( 'NONE', #158, 10.00000000000000000 ) ;
#284 = SURFACE_SIDE_STYLE ('',( #91 ) ) ;
#285 = DIRECTION ( 'NONE',  ( 0.000000000000000000, 0.000000000000000000, 1.000000000000000000 ) ) ;
#286 = DIRECTION ( 'NONE',  ( -1.252807796048505441E-16, 1.000000000000000000, -0.000000000000000000 ) ) ;
#287 = ORIENTED_EDGE ( 'NONE', *, *, #160, .T. ) ;
#288 = DIRECTION ( 'NONE',  ( 0.000000000000000000, -1.000000000000000000, -0.000000000000000000 ) ) ;
#289 = ORIENTED_EDGE ( 'NONE', *, *, #114, .F. ) ;
#290 =( GEOMETRIC_REPRESENTATION_CONTEXT ( 3 ) GLOBAL_UNCERTAINTY_ASSIGNED_CONTEXT ( ( #213 ) ) GLOBAL_UNIT_ASSIGNED_CONTEXT ( ( #147, #257, #281 ) ) REPRESENTATION_CONTEXT ( 'NONE', 'WORKASPACE' ) );
#291 = AXIS2_PLACEMENT_3D ( 'NONE', #324, #319, #70 ) ;
#292 =( NAMED_UNIT ( * ) SI_UNIT ( $, .STERADIAN. ) SOLID_ANGLE_UNIT ( ) );
#293 = DIRECTION ( 'NONE',  ( 0.000000000000000000, 0.000000000000000000, -1.000000000000000000 ) ) ;
#294 = SURFACE_STYLE_USAGE ( .BOTH. , #49 ) ;
#295 = AXIS2_PLACEMENT_3D ( 'NONE', #215, #333, #307 ) ;
#296 = VECTOR ( 'NONE', #22, 1000.000000000000000 ) ;
#297 = VERTEX_POINT ( 'NONE', #235 ) ;
#298 = LINE ( 'NONE', #349, #296 ) ;
#299 = DIRECTION ( 'NONE',  ( -1.000000000000000000, 0.000000000000000000, 0.000000000000000000 ) ) ;
#300 = EDGE_CURVE ( 'NONE', #88, #297, #131, .T. ) ;
#301 = AXIS2_PLACEMENT_3D ( 'NONE', #1, #288, #115 ) ;
#302 = SURFACE_STYLE_USAGE ( .BOTH. , #76 ) ;
#303 = AXIS2_PLACEMENT_3D ( 'NONE', #305, #363, #159 ) ;
#304 = PRESENTATION_LAYER_ASSIGNMENT (  '', '', ( #226 ) ) ;
#305 = CARTESIAN_POINT ( 'NONE',  ( 1.163414459189985485E-15, 0.5000000000000000000, 9.500000000000000000 ) ) ;
#306 = UNCERTAINTY_MEASURE_WITH_UNIT (LENGTH_MEASURE( 1.000000000000000082E-05 ), #248, 'distance_accuracy_value', 'NONE');
#307 = DIRECTION ( 'NONE',  ( 0.000000000000000000, 0.000000000000000000, -1.000000000000000000 ) ) ;
#308 = ADVANCED_FACE ( 'NONE', ( #71 ), #73, .T. ) ;
#309 = SURFACE_STYLE_FILL_AREA ( #111 ) ;
#310 = COLOUR_RGB ( '',0.7921568627450980005, 0.8196078431372548767, 0.9333333333333333481 ) ;
#311 = EDGE_CURVE ( 'NONE', #280, #364, #48, .T. ) ;
#312 =( NAMED_UNIT ( * ) PLANE_ANGLE_UNIT ( ) SI_UNIT ( $, .RADIAN. ) );
#313 = ORIENTED_EDGE ( 'NONE', *, *, #300, .F. ) ;
#314 = DIRECTION ( 'NONE',  ( -1.000000000000000000, 0.000000000000000000, 0.000000000000000000 ) ) ;
#315 =( NAMED_UNIT ( * ) SI_UNIT ( $, .STERADIAN. ) SOLID_ANGLE_UNIT ( ) );
#316 = ORIENTED_EDGE ( 'NONE', *, *, #260, .F. ) ;
#317 = SURFACE_STYLE_USAGE ( .BOTH. , #348 ) ;
#318 = ORIENTED_EDGE ( 'NONE', *, *, #231, .T. ) ;
#319 = DIRECTION ( 'NONE',  ( -0.000000000000000000, -1.000000000000000000, -0.000000000000000000 ) ) ;
#320 = DIRECTION ( 'NONE',  ( -1.000000000000000000, 0.000000000000000000, 0.000000000000000000 ) ) ;
#321 = ORIENTED_EDGE ( 'NONE', *, *, #46, .F. ) ;
#322 = FACE_OUTER_BOUND ( 'NONE', #244, .T. ) ;
#323 =( GEOMETRIC_REPRESENTATION_CONTEXT ( 3 ) GLOBAL_UNCERTAINTY_ASSIGNED_CONTEXT ( ( #306 ) ) GLOBAL_UNIT_ASSIGNED_CONTEXT ( ( #248, #312, #315 ) ) REPRESENTATION_CONTEXT ( 'NONE', 'WORKASPACE' ) );
#324 = CARTESIAN_POINT ( 'NONE',  ( 0.000000000000000000, 0.5000000000000000000, 0.000000000000000000 ) ) ;
#325 = SURFACE_STYLE_FILL_AREA ( #50 ) ;
#326 = EDGE_CURVE ( 'NONE', #297, #344, #69, .T. ) ;
#327 = STYLED_ITEM ( 'NONE', ( #204 ), #40 ) ;
#328 =( GEOMETRIC_REPRESENTATION_CONTEXT ( 3 ) GLOBAL_UNCERTAINTY_ASSIGNED_CONTEXT ( ( #220 ) ) GLOBAL_UNIT_ASSIGNED_CONTEXT ( ( #331, #206, #366 ) ) REPRESENTATION_CONTEXT ( 'NONE', 'WORKASPACE' ) );
#329 = PLANE ( 'NONE',  #27 ) ;
#330 = PRESENTATION_STYLE_ASSIGNMENT (( #214 ) ) ;
#331 =( LENGTH_UNIT ( ) NAMED_UNIT ( * ) SI_UNIT ( .MILLI., .METRE. ) );
#332 = COLOUR_RGB ( '',1.000000000000000000, 0.000000000000000000, 0.000000000000000000 ) ;
#333 = DIRECTION ( 'NONE',  ( -0.000000000000000000, -1.000000000000000000, -0.000000000000000000 ) ) ;
#334 = STYLED_ITEM ( 'NONE', ( #330 ), #149 ) ;
#335 = ADVANCED_FACE ( 'NONE', ( #346 ), #339, .T. ) ;
#336 = PRESENTATION_STYLE_ASSIGNMENT (( #216 ) ) ;
#337 =( NAMED_UNIT ( * ) PLANE_ANGLE_UNIT ( ) SI_UNIT ( $, .RADIAN. ) );
#338 = PRESENTATION_LAYER_ASSIGNMENT (  '', '', ( #254 ) ) ;
#339 = CYLINDRICAL_SURFACE ( 'NONE', #86, 10.00000000000000000 ) ;
#340 = EDGE_LOOP ( 'NONE', ( #223, #51 ) ) ;
#341 = PRODUCT_RELATED_PRODUCT_CATEGORY ( 'part', '', ( #270 ) ) ;
#342 = PRESENTATION_LAYER_ASSIGNMENT (  '', '', ( #334 ) ) ;
#343 = ORIENTED_EDGE ( 'NONE', *, *, #46, .T. ) ;
#344 = VERTEX_POINT ( 'NONE', #2 ) ;
#345 = COLOUR_RGB ( '',1.000000000000000000, 0.000000000000000000, 0.000000000000000000 ) ;
#346 = FACE_OUTER_BOUND ( 'NONE', #230, .T. ) ;
#347 = ORIENTED_EDGE ( 'NONE', *, *, #166, .F. ) ;
#348 = SURFACE_SIDE_STYLE ('',( #81 ) ) ;
#349 = CARTESIAN_POINT ( 'NONE',  ( 0.000000000000000000, 0.000000000000000000, -10.00000000000000000 ) ) ;
#350 = PRESENTATION_STYLE_ASSIGNMENT (( #113 ) ) ;
#351 = PLANE ( 'NONE',  #29 ) ;
#352 = PRESENTATION_STYLE_ASSIGNMENT (( #294 ) ) ;
#353 = DIRECTION ( 'NONE',  ( -1.252807796048505441E-16, 1.000000000000000000, 0.000000000000000000 ) ) ;
#354 = DIRECTION ( 'NONE',  ( -0.000000000000000000, -1.000000000000000000, -0.000000000000000000 ) ) ;
#355 = MECHANICAL_DESIGN_GEOMETRIC_PRESENTATION_REPRESENTATION (  '', ( #37 ), #168 ) ;
#356 = CARTESIAN_POINT ( 'NONE',  ( -9.999999999999991118, 50.00000000000000000, 0.000000000000000000 ) ) ;
#357 =( NAMED_UNIT ( * ) PLANE_ANGLE_UNIT ( ) SI_UNIT ( $, .RADIAN. ) );
#358 = DIRECTION ( 'NONE',  ( 1.252807796048505441E-16, -1.000000000000000000, 0.000000000000000000 ) ) ;
#359 = CARTESIAN_POINT ( 'NONE',  ( 10.00000000000000000, 124.9999999999999858, 0.000000000000000000 ) ) ;
#360 = PRESENTATION_STYLE_ASSIGNMENT (( #302 ) ) ;
#361 = UNCERTAINTY_MEASURE_WITH_UNIT (LENGTH_MEASURE( 1.000000000000000082E-05 ), #41, 'distance_accuracy_value', 'NONE');
#362 = SURFACE_STYLE_FILL_AREA ( #52 ) ;
#363 = DIRECTION ( 'NONE',  ( 1.000000000000000000, 0.000000000000000000, -1.224646799147353207E-16 ) ) ;
#364 = VERTEX_POINT ( 'NONE', #6 ) ;
#365 = EDGE_CURVE ( 'NONE', #8, #280, #121, .T. ) ;
#366 =( NAMED_UNIT ( * ) SI_UNIT ( $, .STERADIAN. ) SOLID_ANGLE_UNIT ( ) );
#367 = ORIENTED_EDGE ( 'NONE', *, *, #326, .F. ) ;
#368 = FILL_AREA_STYLE_COLOUR ( '', #74 ) ;
#369 = STYLED_ITEM ( 'NONE', ( #360 ), #308 ) ;
#370 =( NAMED_UNIT ( * ) PLANE_ANGLE_UNIT ( ) SI_UNIT ( $, .RADIAN. ) );
ENDSEC;
END-ISO-10303-21;
