ISO-10303-21;
HEADER;
FILE_DESCRIPTION (( 'STEP AP214' ),
    '1' );
FILE_NAME ('Micro_DMM-030-4120X.STEP',
    '2021-09-02T16:15:19',
    ( '' ),
    ( '' ),
    'SwSTEP 2.0',
    'SolidWorks 2020',
    '' );
FILE_SCHEMA (( 'AUTOMOTIVE_DESIGN' ));
ENDSEC;

DATA;
#1 =( LENGTH_UNIT ( ) NAMED_UNIT ( * ) SI_UNIT ( $, .METRE. ) );
#2 = CARTESIAN_POINT ( 'NONE',  ( 0.0000000000000000000, 0.0000000000000000000, 1.496062999999999921 ) ) ;
#3 = AXIS2_PLACEMENT_3D ( 'NONE', #275, #251, #223 ) ;
#4 = ORIENTED_EDGE ( 'NONE', *, *, #195, .T. ) ;
#5 = CARTESIAN_POINT ( 'NONE',  ( -0.007499999999999999722, 4.072256768864737466E-18, 1.707404996040164512E-17 ) ) ;
#6 = EDGE_LOOP ( 'NONE', ( #101, #186, #33, #226 ) ) ;
#7 = DIRECTION ( 'NONE',  ( 1.000000000000000000, 0.0000000000000000000, -0.0000000000000000000 ) ) ;
#8 = VERTEX_POINT ( 'NONE', #51 ) ;
#9 = CARTESIAN_POINT ( 'NONE',  ( 0.0000000000000000000, 0.0000000000000000000, 1.496062999999999921 ) ) ;
#10 = CARTESIAN_POINT ( 'NONE',  ( -0.04405500000000001082, 0.0000000000000000000, 1.496062999999999921 ) ) ;
#11 = MANIFOLD_SOLID_BREP ( 'Cut-Revolve4', #39 ) ;
#12 = CIRCLE ( 'NONE', #23, 0.05900500000000000883 ) ;
#13 = SURFACE_STYLE_FILL_AREA ( #129 ) ;
#14 = VECTOR ( 'NONE', #131, 39.37007874015748143 ) ;
#15 = SURFACE_STYLE_USAGE ( .BOTH. , #189 ) ;
#16 = CARTESIAN_POINT ( 'NONE',  ( 0.0000000000000000000, 0.0000000000000000000, 0.3149610000000000465 ) ) ;
#17 = EDGE_CURVE ( 'NONE', #56, #98, #246, .T. ) ;
#18 = CYLINDRICAL_SURFACE ( 'NONE', #139, 0.05900500000000003659 ) ;
#19 = DIRECTION ( 'NONE',  ( 1.000000000000000000, 0.0000000000000000000, 0.0000000000000000000 ) ) ;
#20 = CIRCLE ( 'NONE', #54, 0.007499999999999999722 ) ;
#21 = CARTESIAN_POINT ( 'NONE',  ( 0.0000000000000000000, 0.0000000000000000000, 1.496062999999999921 ) ) ;
#22 = CARTESIAN_POINT ( 'NONE',  ( 0.0000000000000000000, 0.0000000000000000000, 0.0000000000000000000 ) ) ;
#23 = AXIS2_PLACEMENT_3D ( 'NONE', #97, #128, #30 ) ;
#24 = CIRCLE ( 'NONE', #201, 0.05900500000000007128 ) ;
#25 =( NAMED_UNIT ( * ) SI_UNIT ( $, .STERADIAN. ) SOLID_ANGLE_UNIT ( ) );
#26 = PRODUCT_DEFINITION_CONTEXT ( 'detailed design', #95, 'design' ) ;
#27 = ADVANCED_FACE ( 'NONE', ( #91 ), #144, .T. ) ;
#28 = DIRECTION ( 'NONE',  ( -0.0000000000000000000, -0.0000000000000000000, -1.000000000000000000 ) ) ;
#29 = APPLICATION_PROTOCOL_DEFINITION ( 'draft international standard', 'automotive_design', 1998, #95 ) ;
#30 = DIRECTION ( 'NONE',  ( -1.000000000000000000, 0.0000000000000000000, 0.0000000000000000000 ) ) ;
#31 =( GEOMETRIC_REPRESENTATION_CONTEXT ( 3 ) GLOBAL_UNCERTAINTY_ASSIGNED_CONTEXT ( ( #202 ) ) GLOBAL_UNIT_ASSIGNED_CONTEXT ( ( #268, #293, #114 ) ) REPRESENTATION_CONTEXT ( 'NONE', 'WORKASPACE' ) );
#32 = CARTESIAN_POINT ( 'NONE',  ( 0.0000000000000000000, 0.0000000000000000000, 0.0000000000000000000 ) ) ;
#33 = ORIENTED_EDGE ( 'NONE', *, *, #229, .T. ) ;
#34 = PLANE ( 'NONE',  #123 ) ;
#35 = ORIENTED_EDGE ( 'NONE', *, *, #329, .F. ) ;
#36 = CARTESIAN_POINT ( 'NONE',  ( 0.0000000000000000000, 0.0000000000000000000, 1.496062999999999921 ) ) ;
#37 = CARTESIAN_POINT ( 'NONE',  ( -0.05905499999999998251, 0.0000000000000000000, 1.481063000000000240 ) ) ;
#38 = FACE_OUTER_BOUND ( 'NONE', #126, .T. ) ;
#39 = CLOSED_SHELL ( 'NONE', ( #27, #312, #221, #308, #188, #250, #112, #70, #240, #154, #113 ) ) ;
#40 = ORIENTED_EDGE ( 'NONE', *, *, #130, .T. ) ;
#41 = DIRECTION ( 'NONE',  ( -0.0000000000000000000, -0.0000000000000000000, -1.000000000000000000 ) ) ;
#42 = CARTESIAN_POINT ( 'NONE',  ( -0.05905499999999998251, 0.0000000000000000000, 1.496062999999999921 ) ) ;
#43 = LINE ( 'NONE', #244, #93 ) ;
#44 = CIRCLE ( 'NONE', #222, 0.04405500000000001082 ) ;
#45 = DIRECTION ( 'NONE',  ( -1.000000000000000000, 0.0000000000000000000, 0.0000000000000000000 ) ) ;
#46 = COLOUR_RGB ( '',0.7921568627450980005, 0.8196078431372548767, 0.9333333333333333481 ) ;
#47 = CIRCLE ( 'NONE', #3, 0.05905499999999998251 ) ;
#48 = DIRECTION ( 'NONE',  ( 0.0000000000000000000, 0.0000000000000000000, 1.000000000000000000 ) ) ;
#49 = CONICAL_SURFACE ( 'NONE', #90, 0.007499999999999999722, 1.047197551196600740 ) ;
#50 = DIRECTION ( 'NONE',  ( -0.0000000000000000000, 0.0000000000000000000, -1.000000000000000000 ) ) ;
#51 = CARTESIAN_POINT ( 'NONE',  ( 0.007499999999999999722, 0.0000000000000000000, 1.707404996040164512E-17 ) ) ;
#52 = LENGTH_MEASURE_WITH_UNIT ( LENGTH_MEASURE( 0.02539999999999999897 ), #1 );
#53 = DIRECTION ( 'NONE',  ( -0.0000000000000000000, -0.0000000000000000000, -1.000000000000000000 ) ) ;
#54 = AXIS2_PLACEMENT_3D ( 'NONE', #284, #57, #258 ) ;
#55 = CARTESIAN_POINT ( 'NONE',  ( 0.0000000000000000000, 0.0000000000000000000, 0.02973642561461150094 ) ) ;
#56 = VERTEX_POINT ( 'NONE', #199 ) ;
#57 = DIRECTION ( 'NONE',  ( -0.0000000000000000000, -0.0000000000000000000, -1.000000000000000000 ) ) ;
#58 = ORIENTED_EDGE ( 'NONE', *, *, #181, .F. ) ;
#59 = ORIENTED_EDGE ( 'NONE', *, *, #245, .T. ) ;
#60 = LINE ( 'NONE', #76, #160 ) ;
#61 = EDGE_LOOP ( 'NONE', ( #230, #35 ) ) ;
#62 = FACE_OUTER_BOUND ( 'NONE', #232, .T. ) ;
#63 = DIRECTION ( 'NONE',  ( -0.0000000000000000000, -0.0000000000000000000, -1.000000000000000000 ) ) ;
#64 = CARTESIAN_POINT ( 'NONE',  ( 0.05900500000000002271, 0.0000000000000000000, 0.02973642561461150094 ) ) ;
#65 = EDGE_CURVE ( 'NONE', #98, #56, #81, .T. ) ;
#66 =( LENGTH_UNIT ( ) NAMED_UNIT ( * ) SI_UNIT ( $, .METRE. ) );
#67 = ORIENTED_EDGE ( 'NONE', *, *, #65, .F. ) ;
#68 = DIRECTION ( 'NONE',  ( 1.000000000000000000, 0.0000000000000000000, 0.0000000000000000000 ) ) ;
#69 = ORIENTED_EDGE ( 'NONE', *, *, #195, .F. ) ;
#70 = ADVANCED_FACE ( 'NONE', ( #147, #277 ), #228, .T. ) ;
#71 = EDGE_CURVE ( 'NONE', #122, #200, #225, .T. ) ;
#72 = DIRECTION ( 'NONE',  ( -1.000000000000000000, 0.0000000000000000000, 0.0000000000000000000 ) ) ;
#73 = VERTEX_POINT ( 'NONE', #153 ) ;
#74 = DIRECTION ( 'NONE',  ( 0.0000000000000000000, 0.0000000000000000000, 1.000000000000000000 ) ) ;
#75 = VERTEX_POINT ( 'NONE', #5 ) ;
#76 = CARTESIAN_POINT ( 'NONE',  ( 0.007499999999999999722, 0.0000000000000000000, 1.707404996040164512E-17 ) ) ;
#77 = ORIENTED_EDGE ( 'NONE', *, *, #110, .F. ) ;
#78 = DIMENSIONAL_EXPONENTS ( 1.000000000000000000, 0.0000000000000000000, 0.0000000000000000000, 0.0000000000000000000, 0.0000000000000000000, 0.0000000000000000000, 0.0000000000000000000 ) ;
#79 = ORIENTED_EDGE ( 'NONE', *, *, #229, .F. ) ;
#80 = PLANE ( 'NONE',  #82 ) ;
#81 = CIRCLE ( 'NONE', #193, 0.05905499999999998251 ) ;
#82 = AXIS2_PLACEMENT_3D ( 'NONE', #21, #85, #290 ) ;
#83 = CARTESIAN_POINT ( 'NONE',  ( 0.05900500000000007822, 7.226028438368966682E-18, 0.3149610000000000465 ) ) ;
#84 = LINE ( 'NONE', #42, #236 ) ;
#85 = DIRECTION ( 'NONE',  ( 0.0000000000000000000, 0.0000000000000000000, 1.000000000000000000 ) ) ;
#86 = VECTOR ( 'NONE', #100, 39.37007874015748854 ) ;
#87 = AXIS2_PLACEMENT_3D ( 'NONE', #323, #187, #288 ) ;
#88 = ORIENTED_EDGE ( 'NONE', *, *, #161, .F. ) ;
#89 = VECTOR ( 'NONE', #242, 39.37007874015748143 ) ;
#90 = AXIS2_PLACEMENT_3D ( 'NONE', #315, #257, #216 ) ;
#91 = FACE_OUTER_BOUND ( 'NONE', #282, .T. ) ;
#92 = EDGE_LOOP ( 'NONE', ( #183, #59, #203, #79 ) ) ;
#93 = VECTOR ( 'NONE', #286, 39.37007874015748854 ) ;
#94 = ORIENTED_EDGE ( 'NONE', *, *, #169, .T. ) ;
#95 = APPLICATION_CONTEXT ( 'automotive_design' ) ;
#96 = ORIENTED_EDGE ( 'NONE', *, *, #287, .T. ) ;
#97 = CARTESIAN_POINT ( 'NONE',  ( 0.0000000000000000000, 0.0000000000000000000, 0.02973642561461150094 ) ) ;
#98 = VERTEX_POINT ( 'NONE', #37 ) ;
#99 = DIRECTION ( 'NONE',  ( 0.0000000000000000000, 0.0000000000000000000, -1.000000000000000000 ) ) ;
#100 = DIRECTION ( 'NONE',  ( -0.7071067811865536790, 0.0000000000000000000, -0.7071067811865412445 ) ) ;
#101 = ORIENTED_EDGE ( 'NONE', *, *, #245, .F. ) ;
#102 = DIRECTION ( 'NONE',  ( 0.0000000000000000000, 0.0000000000000000000, 1.000000000000000000 ) ) ;
#103 = ORIENTED_EDGE ( 'NONE', *, *, #279, .T. ) ;
#104 = DIRECTION ( 'NONE',  ( -0.0000000000000000000, -0.0000000000000000000, -1.000000000000000000 ) ) ;
#105 = CARTESIAN_POINT ( 'NONE',  ( -0.05900500000000003659, 0.0000000000000000000, 0.0000000000000000000 ) ) ;
#106 = AXIS2_PLACEMENT_3D ( 'NONE', #146, #168, #68 ) ;
#107 = EDGE_LOOP ( 'NONE', ( #58, #259, #67, #88 ) ) ;
#108 = CARTESIAN_POINT ( 'NONE',  ( 0.0000000000000000000, 0.0000000000000000000, 1.496062999999999921 ) ) ;
#109 = DIRECTION ( 'NONE',  ( -0.0000000000000000000, -0.0000000000000000000, -1.000000000000000000 ) ) ;
#110 = EDGE_CURVE ( 'NONE', #200, #122, #12, .T. ) ;
#111 = SHAPE_DEFINITION_REPRESENTATION ( #301, #185 ) ;
#112 = ADVANCED_FACE ( 'NONE', ( #150 ), #321, .T. ) ;
#113 = ADVANCED_FACE ( 'NONE', ( #255 ), #34, .F. ) ;
#114 =( NAMED_UNIT ( * ) SI_UNIT ( $, .STERADIAN. ) SOLID_ANGLE_UNIT ( ) );
#115 = MECHANICAL_DESIGN_GEOMETRIC_PRESENTATION_REPRESENTATION (  '', ( #248 ), #142 ) ;
#116 = CIRCLE ( 'NONE', #149, 0.05900500000000007128 ) ;
#117 = DIRECTION ( 'NONE',  ( 0.0000000000000000000, 0.0000000000000000000, 1.000000000000000000 ) ) ;
#118 = DIRECTION ( 'NONE',  ( -0.0000000000000000000, -0.0000000000000000000, -1.000000000000000000 ) ) ;
#119 = ORIENTED_EDGE ( 'NONE', *, *, #192, .F. ) ;
#120 = EDGE_CURVE ( 'NONE', #8, #75, #20, .T. ) ;
#121 = CARTESIAN_POINT ( 'NONE',  ( 0.0000000000000000000, 0.0000000000000000000, 1.496062999999999921 ) ) ;
#122 = VERTEX_POINT ( 'NONE', #215 ) ;
#123 = AXIS2_PLACEMENT_3D ( 'NONE', #125, #74, #7 ) ;
#124 = VERTEX_POINT ( 'NONE', #317 ) ;
#125 = CARTESIAN_POINT ( 'NONE',  ( 0.0000000000000000000, 0.0000000000000000000, 0.0000000000000000000 ) ) ;
#126 = EDGE_LOOP ( 'NONE', ( #311, #239 ) ) ;
#127 = DIRECTION ( 'NONE',  ( -1.000000000000000000, 0.0000000000000000000, 0.0000000000000000000 ) ) ;
#128 = DIRECTION ( 'NONE',  ( -0.0000000000000000000, -0.0000000000000000000, -1.000000000000000000 ) ) ;
#129 = FILL_AREA_STYLE ('',( #254 ) ) ;
#130 = EDGE_CURVE ( 'NONE', #98, #285, #84, .T. ) ;
#131 = DIRECTION ( 'NONE',  ( -0.0000000000000000000, -0.0000000000000000000, -1.000000000000000000 ) ) ;
#132 = EDGE_LOOP ( 'NONE', ( #178, #96 ) ) ;
#133 = LINE ( 'NONE', #313, #267 ) ;
#134 = LINE ( 'NONE', #294, #89 ) ;
#135 = CARTESIAN_POINT ( 'NONE',  ( -0.04405500000000001082, 0.0000000000000000000, 1.496062999999999921 ) ) ;
#136 = MECHANICAL_DESIGN_GEOMETRIC_PRESENTATION_REPRESENTATION (  '', ( #300 ), #31 ) ;
#137 = DIMENSIONAL_EXPONENTS ( 1.000000000000000000, 0.0000000000000000000, 0.0000000000000000000, 0.0000000000000000000, 0.0000000000000000000, 0.0000000000000000000, 0.0000000000000000000 ) ;
#138 = EDGE_CURVE ( 'NONE', #56, #280, #134, .T. ) ;
#139 = AXIS2_PLACEMENT_3D ( 'NONE', #163, #292, #45 ) ;
#140 = AXIS2_PLACEMENT_3D ( 'NONE', #22, #48, #220 ) ;
#141 = SURFACE_STYLE_FILL_AREA ( #165 ) ;
#142 =( GEOMETRIC_REPRESENTATION_CONTEXT ( 3 ) GLOBAL_UNCERTAINTY_ASSIGNED_CONTEXT ( ( #305 ) ) GLOBAL_UNIT_ASSIGNED_CONTEXT ( ( #204, #302, #206 ) ) REPRESENTATION_CONTEXT ( 'NONE', 'WORKASPACE' ) );
#143 = CARTESIAN_POINT ( 'NONE',  ( 0.0000000000000000000, 0.0000000000000000000, 1.496062999999999921 ) ) ;
#144 = CYLINDRICAL_SURFACE ( 'NONE', #158, 0.05900500000000003659 ) ;
#145 = DIRECTION ( 'NONE',  ( -0.0000000000000000000, -0.0000000000000000000, -1.000000000000000000 ) ) ;
#146 = CARTESIAN_POINT ( 'NONE',  ( 0.0000000000000000000, 0.0000000000000000000, 1.481063000000000240 ) ) ;
#147 = FACE_BOUND ( 'NONE', #61, .T. ) ;
#148 = ORIENTED_EDGE ( 'NONE', *, *, #329, .T. ) ;
#149 = AXIS2_PLACEMENT_3D ( 'NONE', #16, #104, #291 ) ;
#150 = FACE_OUTER_BOUND ( 'NONE', #314, .T. ) ;
#151 = ORIENTED_EDGE ( 'NONE', *, *, #17, .T. ) ;
#152 = DIRECTION ( 'NONE',  ( 0.8660254037844402619, 0.0000000000000000000, 0.4999999999999973910 ) ) ;
#153 = CARTESIAN_POINT ( 'NONE',  ( -0.05900500000000007128, 0.0000000000000000000, 0.3149610000000000465 ) ) ;
#154 = ADVANCED_FACE ( 'NONE', ( #191 ), #18, .T. ) ;
#155 = ORIENTED_EDGE ( 'NONE', *, *, #270, .F. ) ;
#156 = DIRECTION ( 'NONE',  ( -0.0000000000000000000, -0.0000000000000000000, -1.000000000000000000 ) ) ;
#157 = EDGE_LOOP ( 'NONE', ( #318, #151, #40, #119 ) ) ;
#158 = AXIS2_PLACEMENT_3D ( 'NONE', #32, #118, #174 ) ;
#159 = CYLINDRICAL_SURFACE ( 'NONE', #289, 0.05905499999999998251 ) ;
#160 = VECTOR ( 'NONE', #152, 39.37007874015748143 ) ;
#161 = EDGE_CURVE ( 'NONE', #211, #98, #234, .T. ) ;
#162 = DIRECTION ( 'NONE',  ( 1.000000000000000000, 0.0000000000000000000, 0.0000000000000000000 ) ) ;
#163 = CARTESIAN_POINT ( 'NONE',  ( 0.0000000000000000000, 0.0000000000000000000, 0.0000000000000000000 ) ) ;
#164 =( CONVERSION_BASED_UNIT ( 'INCH', #265 ) LENGTH_UNIT ( ) NAMED_UNIT ( #274 ) );
#165 = FILL_AREA_STYLE ('',( #326 ) ) ;
#166 = CIRCLE ( 'NONE', #249, 0.04405500000000001082 ) ;
#167 = DIRECTION ( 'NONE',  ( -1.000000000000000000, 0.0000000000000000000, 0.0000000000000000000 ) ) ;
#168 = DIRECTION ( 'NONE',  ( 0.0000000000000000000, 0.0000000000000000000, -1.000000000000000000 ) ) ;
#169 = EDGE_CURVE ( 'NONE', #285, #280, #328, .T. ) ;
#170 = PRESENTATION_LAYER_ASSIGNMENT (  '', '', ( #248 ) ) ;
#171 = CARTESIAN_POINT ( 'NONE',  ( 0.0000000000000000000, 0.0000000000000000000, 1.481063000000000240 ) ) ;
#172 = UNCERTAINTY_MEASURE_WITH_UNIT (LENGTH_MEASURE( 1.000000000000000082E-05 ), #164, 'distance_accuracy_value', 'NONE');
#173 = ORIENTED_EDGE ( 'NONE', *, *, #219, .F. ) ;
#174 = DIRECTION ( 'NONE',  ( -1.000000000000000000, 0.0000000000000000000, 0.0000000000000000000 ) ) ;
#175 = DIRECTION ( 'NONE',  ( 1.000000000000000000, 0.0000000000000000000, 0.0000000000000000000 ) ) ;
#176 = DIRECTION ( 'NONE',  ( -1.000000000000000000, 0.0000000000000000000, 0.0000000000000000000 ) ) ;
#177 = CONICAL_SURFACE ( 'NONE', #271, 0.007499999999999999722, 1.047197551196600740 ) ;
#178 = ORIENTED_EDGE ( 'NONE', *, *, #120, .T. ) ;
#179 = AXIS2_PLACEMENT_3D ( 'NONE', #272, #28, #309 ) ;
#180 = PRODUCT_DEFINITION_FORMATION_WITH_SPECIFIED_SOURCE ( 'ANY', '', #273, .NOT_KNOWN. ) ;
#181 = EDGE_CURVE ( 'NONE', #124, #211, #44, .T. ) ;
#182 = DIRECTION ( 'NONE',  ( 1.000000000000000000, 0.0000000000000000000, 0.0000000000000000000 ) ) ;
#183 = ORIENTED_EDGE ( 'NONE', *, *, #287, .F. ) ;
#184 = CARTESIAN_POINT ( 'NONE',  ( 0.05905499999999998251, 7.232151672364692341E-18, 0.3149610000000000465 ) ) ;
#185 = ADVANCED_BREP_SHAPE_REPRESENTATION ( 'Micro_DMM-030-4120X', ( #11, #140 ), #283 ) ;
#186 = ORIENTED_EDGE ( 'NONE', *, *, #120, .F. ) ;
#187 = DIRECTION ( 'NONE',  ( -0.0000000000000000000, -0.0000000000000000000, -1.000000000000000000 ) ) ;
#188 = ADVANCED_FACE ( 'NONE', ( #281 ), #224, .T. ) ;
#189 = SURFACE_SIDE_STYLE ('',( #13 ) ) ;
#190 = EDGE_LOOP ( 'NONE', ( #69, #148, #103, #77 ) ) ;
#191 = FACE_OUTER_BOUND ( 'NONE', #190, .T. ) ;
#192 = EDGE_CURVE ( 'NONE', #280, #285, #47, .T. ) ;
#193 = AXIS2_PLACEMENT_3D ( 'NONE', #171, #197, #182 ) ;
#194 = PRESENTATION_STYLE_ASSIGNMENT (( #196 ) ) ;
#195 = EDGE_CURVE ( 'NONE', #307, #200, #198, .T. ) ;
#196 = SURFACE_STYLE_USAGE ( .BOTH. , #252 ) ;
#197 = DIRECTION ( 'NONE',  ( 0.0000000000000000000, 0.0000000000000000000, -1.000000000000000000 ) ) ;
#198 = LINE ( 'NONE', #303, #227 ) ;
#199 = CARTESIAN_POINT ( 'NONE',  ( 0.05905499999999998251, 7.232151672364692341E-18, 1.481063000000000240 ) ) ;
#200 = VERTEX_POINT ( 'NONE', #64 ) ;
#201 = AXIS2_PLACEMENT_3D ( 'NONE', #266, #156, #238 ) ;
#202 = UNCERTAINTY_MEASURE_WITH_UNIT (LENGTH_MEASURE( 1.000000000000000082E-05 ), #268, 'distance_accuracy_value', 'NONE');
#203 = ORIENTED_EDGE ( 'NONE', *, *, #71, .T. ) ;
#204 =( CONVERSION_BASED_UNIT ( 'INCH', #52 ) LENGTH_UNIT ( ) NAMED_UNIT ( #78 ) );
#205 = ORIENTED_EDGE ( 'NONE', *, *, #247, .T. ) ;
#206 =( NAMED_UNIT ( * ) SI_UNIT ( $, .STERADIAN. ) SOLID_ANGLE_UNIT ( ) );
#207 = ORIENTED_EDGE ( 'NONE', *, *, #192, .T. ) ;
#208 = FACE_OUTER_BOUND ( 'NONE', #6, .T. ) ;
#209 = ORIENTED_EDGE ( 'NONE', *, *, #71, .F. ) ;
#210 = CARTESIAN_POINT ( 'NONE',  ( -0.05905499999999998251, 0.0000000000000000000, 0.3149610000000000465 ) ) ;
#211 = VERTEX_POINT ( 'NONE', #135 ) ;
#212 = PRESENTATION_STYLE_ASSIGNMENT (( #15 ) ) ;
#213 = APPLICATION_CONTEXT ( 'automotive_design' ) ;
#214 = ORIENTED_EDGE ( 'NONE', *, *, #65, .T. ) ;
#215 = CARTESIAN_POINT ( 'NONE',  ( -0.05900500000000002271, 7.226028438368960519E-18, 0.02973642561461150094 ) ) ;
#216 = DIRECTION ( 'NONE',  ( 1.000000000000000000, 0.0000000000000000000, 0.0000000000000000000 ) ) ;
#217 = COLOUR_RGB ( '',0.7921568627450980005, 0.8196078431372548767, 0.9333333333333333481 ) ;
#218 = FACE_OUTER_BOUND ( 'NONE', #92, .T. ) ;
#219 = EDGE_CURVE ( 'NONE', #124, #56, #43, .T. ) ;
#220 = DIRECTION ( 'NONE',  ( 1.000000000000000000, 0.0000000000000000000, 0.0000000000000000000 ) ) ;
#221 = ADVANCED_FACE ( 'NONE', ( #243 ), #269, .T. ) ;
#222 = AXIS2_PLACEMENT_3D ( 'NONE', #2, #117, #175 ) ;
#223 = DIRECTION ( 'NONE',  ( -1.000000000000000000, 0.0000000000000000000, 0.0000000000000000000 ) ) ;
#224 = CYLINDRICAL_SURFACE ( 'NONE', #237, 0.05905499999999998251 ) ;
#225 = CIRCLE ( 'NONE', #295, 0.05900500000000000883 ) ;
#226 = ORIENTED_EDGE ( 'NONE', *, *, #110, .T. ) ;
#227 = VECTOR ( 'NONE', #41, 39.37007874015748143 ) ;
#228 = PLANE ( 'NONE',  #304 ) ;
#229 = EDGE_CURVE ( 'NONE', #8, #200, #60, .T. ) ;
#230 = ORIENTED_EDGE ( 'NONE', *, *, #247, .F. ) ;
#231 = CARTESIAN_POINT ( 'NONE',  ( 0.05900500000000007128, 0.0000000000000000000, 0.3149610000000000465 ) ) ;
#232 = EDGE_LOOP ( 'NONE', ( #214, #306, #261, #316 ) ) ;
#233 = LINE ( 'NONE', #105, #14 ) ;
#234 = LINE ( 'NONE', #10, #86 ) ;
#235 = ORIENTED_EDGE ( 'NONE', *, *, #279, .F. ) ;
#236 = VECTOR ( 'NONE', #109, 39.37007874015748143 ) ;
#237 = AXIS2_PLACEMENT_3D ( 'NONE', #143, #53, #167 ) ;
#238 = DIRECTION ( 'NONE',  ( -1.000000000000000000, 0.0000000000000000000, 0.0000000000000000000 ) ) ;
#239 = ORIENTED_EDGE ( 'NONE', *, *, #181, .T. ) ;
#240 = ADVANCED_FACE ( 'NONE', ( #208 ), #49, .T. ) ;
#241 = CARTESIAN_POINT ( 'NONE',  ( 0.0000000000000000000, 0.0000000000000000000, 1.707404996040164512E-17 ) ) ;
#242 = DIRECTION ( 'NONE',  ( -0.0000000000000000000, -0.0000000000000000000, -1.000000000000000000 ) ) ;
#243 = FACE_OUTER_BOUND ( 'NONE', #107, .T. ) ;
#244 = CARTESIAN_POINT ( 'NONE',  ( 0.04405500000000001082, 5.395181473643666598E-18, 1.496062999999999921 ) ) ;
#245 = EDGE_CURVE ( 'NONE', #75, #122, #133, .T. ) ;
#246 = CIRCLE ( 'NONE', #106, 0.05905499999999998251 ) ;
#247 = EDGE_CURVE ( 'NONE', #73, #307, #24, .T. ) ;
#248 = STYLED_ITEM ( 'NONE', ( #212 ), #11 ) ;
#249 = AXIS2_PLACEMENT_3D ( 'NONE', #9, #102, #19 ) ;
#250 = ADVANCED_FACE ( 'NONE', ( #38 ), #80, .T. ) ;
#251 = DIRECTION ( 'NONE',  ( -0.0000000000000000000, -0.0000000000000000000, -1.000000000000000000 ) ) ;
#252 = SURFACE_SIDE_STYLE ('',( #141 ) ) ;
#253 = DIRECTION ( 'NONE',  ( -1.000000000000000000, 0.0000000000000000000, 0.0000000000000000000 ) ) ;
#254 = FILL_AREA_STYLE_COLOUR ( '', #46 ) ;
#255 = FACE_OUTER_BOUND ( 'NONE', #132, .T. ) ;
#256 = ORIENTED_EDGE ( 'NONE', *, *, #161, .T. ) ;
#257 = DIRECTION ( 'NONE',  ( 0.0000000000000000000, 0.0000000000000000000, 1.000000000000000000 ) ) ;
#258 = DIRECTION ( 'NONE',  ( -1.000000000000000000, 0.0000000000000000000, 0.0000000000000000000 ) ) ;
#259 = ORIENTED_EDGE ( 'NONE', *, *, #219, .T. ) ;
#260 = DIRECTION ( 'NONE',  ( -0.8660254037844402619, 1.060575238724908640E-16, 0.4999999999999973910 ) ) ;
#261 = ORIENTED_EDGE ( 'NONE', *, *, #169, .F. ) ;
#262 = EDGE_LOOP ( 'NONE', ( #94, #207 ) ) ;
#263 = PRODUCT_RELATED_PRODUCT_CATEGORY ( 'part', '', ( #273 ) ) ;
#264 = DIRECTION ( 'NONE',  ( 0.0000000000000000000, 0.0000000000000000000, 1.000000000000000000 ) ) ;
#265 = LENGTH_MEASURE_WITH_UNIT ( LENGTH_MEASURE( 0.02539999999999999897 ), #319 );
#266 = CARTESIAN_POINT ( 'NONE',  ( 0.0000000000000000000, 0.0000000000000000000, 0.3149610000000000465 ) ) ;
#267 = VECTOR ( 'NONE', #260, 39.37007874015748143 ) ;
#268 =( CONVERSION_BASED_UNIT ( 'INCH', #296 ) LENGTH_UNIT ( ) NAMED_UNIT ( #137 ) );
#269 = CONICAL_SURFACE ( 'NONE', #322, 0.04405500000000001082, 0.7853981633974570498 ) ;
#270 = EDGE_CURVE ( 'NONE', #211, #124, #166, .T. ) ;
#271 = AXIS2_PLACEMENT_3D ( 'NONE', #241, #264, #162 ) ;
#272 = CARTESIAN_POINT ( 'NONE',  ( 0.0000000000000000000, 0.0000000000000000000, 0.3149610000000000465 ) ) ;
#273 = PRODUCT ( 'Micro_DMM-030-4120X', 'Micro_DMM-030-4120X', '', ( #325 ) ) ;
#274 = DIMENSIONAL_EXPONENTS ( 1.000000000000000000, 0.0000000000000000000, 0.0000000000000000000, 0.0000000000000000000, 0.0000000000000000000, 0.0000000000000000000, 0.0000000000000000000 ) ;
#275 = CARTESIAN_POINT ( 'NONE',  ( 0.0000000000000000000, 0.0000000000000000000, 0.3149610000000000465 ) ) ;
#276 = PRESENTATION_LAYER_ASSIGNMENT (  '', '', ( #300 ) ) ;
#277 = FACE_OUTER_BOUND ( 'NONE', #262, .T. ) ;
#278 = ORIENTED_EDGE ( 'NONE', *, *, #17, .F. ) ;
#279 = EDGE_CURVE ( 'NONE', #73, #122, #233, .T. ) ;
#280 = VERTEX_POINT ( 'NONE', #184 ) ;
#281 = FACE_OUTER_BOUND ( 'NONE', #157, .T. ) ;
#282 = EDGE_LOOP ( 'NONE', ( #205, #4, #209, #235 ) ) ;
#283 =( GEOMETRIC_REPRESENTATION_CONTEXT ( 3 ) GLOBAL_UNCERTAINTY_ASSIGNED_CONTEXT ( ( #172 ) ) GLOBAL_UNIT_ASSIGNED_CONTEXT ( ( #164, #297, #25 ) ) REPRESENTATION_CONTEXT ( 'NONE', 'WORKASPACE' ) );
#284 = CARTESIAN_POINT ( 'NONE',  ( 0.0000000000000000000, 0.0000000000000000000, 1.707404996040164512E-17 ) ) ;
#285 = VERTEX_POINT ( 'NONE', #210 ) ;
#286 = DIRECTION ( 'NONE',  ( 0.7071067811865536790, 8.659560562355008046E-17, -0.7071067811865412445 ) ) ;
#287 = EDGE_CURVE ( 'NONE', #75, #8, #327, .T. ) ;
#288 = DIRECTION ( 'NONE',  ( -1.000000000000000000, 0.0000000000000000000, 0.0000000000000000000 ) ) ;
#289 = AXIS2_PLACEMENT_3D ( 'NONE', #108, #63, #324 ) ;
#290 = DIRECTION ( 'NONE',  ( 1.000000000000000000, 0.0000000000000000000, -0.0000000000000000000 ) ) ;
#291 = DIRECTION ( 'NONE',  ( -1.000000000000000000, 0.0000000000000000000, 0.0000000000000000000 ) ) ;
#292 = DIRECTION ( 'NONE',  ( -0.0000000000000000000, -0.0000000000000000000, -1.000000000000000000 ) ) ;
#293 =( NAMED_UNIT ( * ) PLANE_ANGLE_UNIT ( ) SI_UNIT ( $, .RADIAN. ) );
#294 = CARTESIAN_POINT ( 'NONE',  ( 0.05905499999999998251, 7.232151672364692341E-18, 1.496062999999999921 ) ) ;
#295 = AXIS2_PLACEMENT_3D ( 'NONE', #55, #145, #253 ) ;
#296 = LENGTH_MEASURE_WITH_UNIT ( LENGTH_MEASURE( 0.02539999999999999897 ), #66 );
#297 =( NAMED_UNIT ( * ) PLANE_ANGLE_UNIT ( ) SI_UNIT ( $, .RADIAN. ) );
#298 = APPLICATION_PROTOCOL_DEFINITION ( 'draft international standard', 'automotive_design', 1998, #213 ) ;
#299 = AXIS2_PLACEMENT_3D ( 'NONE', #121, #310, #176 ) ;
#300 = STYLED_ITEM ( 'NONE', ( #194 ), #185 ) ;
#301 = PRODUCT_DEFINITION_SHAPE ( 'NONE', 'NONE',  #320 ) ;
#302 =( NAMED_UNIT ( * ) PLANE_ANGLE_UNIT ( ) SI_UNIT ( $, .RADIAN. ) );
#303 = CARTESIAN_POINT ( 'NONE',  ( 0.05900500000000003659, 7.226028438368962060E-18, 0.0000000000000000000 ) ) ;
#304 = AXIS2_PLACEMENT_3D ( 'NONE', #231, #50, #72 ) ;
#305 = UNCERTAINTY_MEASURE_WITH_UNIT (LENGTH_MEASURE( 1.000000000000000082E-05 ), #204, 'distance_accuracy_value', 'NONE');
#306 = ORIENTED_EDGE ( 'NONE', *, *, #138, .T. ) ;
#307 = VERTEX_POINT ( 'NONE', #83 ) ;
#308 = ADVANCED_FACE ( 'NONE', ( #62 ), #159, .T. ) ;
#309 = DIRECTION ( 'NONE',  ( -1.000000000000000000, 0.0000000000000000000, 0.0000000000000000000 ) ) ;
#310 = DIRECTION ( 'NONE',  ( 0.0000000000000000000, 0.0000000000000000000, -1.000000000000000000 ) ) ;
#311 = ORIENTED_EDGE ( 'NONE', *, *, #270, .T. ) ;
#312 = ADVANCED_FACE ( 'NONE', ( #218 ), #177, .T. ) ;
#313 = CARTESIAN_POINT ( 'NONE',  ( -0.007499999999999999722, 9.184850993605147975E-19, 1.707404996040164512E-17 ) ) ;
#314 = EDGE_LOOP ( 'NONE', ( #173, #155, #256, #278 ) ) ;
#315 = CARTESIAN_POINT ( 'NONE',  ( 0.0000000000000000000, 0.0000000000000000000, 1.707404996040164512E-17 ) ) ;
#316 = ORIENTED_EDGE ( 'NONE', *, *, #130, .F. ) ;
#317 = CARTESIAN_POINT ( 'NONE',  ( 0.04405500000000001082, 6.313666573004179469E-18, 1.496062999999999921 ) ) ;
#318 = ORIENTED_EDGE ( 'NONE', *, *, #138, .F. ) ;
#319 =( LENGTH_UNIT ( ) NAMED_UNIT ( * ) SI_UNIT ( $, .METRE. ) );
#320 = PRODUCT_DEFINITION ( 'UNKNOWN', '', #180, #26 ) ;
#321 = CONICAL_SURFACE ( 'NONE', #299, 0.04405500000000001082, 0.7853981633974570498 ) ;
#322 = AXIS2_PLACEMENT_3D ( 'NONE', #36, #99, #127 ) ;
#323 = CARTESIAN_POINT ( 'NONE',  ( 0.0000000000000000000, 0.0000000000000000000, 1.707404996040164512E-17 ) ) ;
#324 = DIRECTION ( 'NONE',  ( -1.000000000000000000, 0.0000000000000000000, 0.0000000000000000000 ) ) ;
#325 = PRODUCT_CONTEXT ( 'NONE', #213, 'mechanical' ) ;
#326 = FILL_AREA_STYLE_COLOUR ( '', #217 ) ;
#327 = CIRCLE ( 'NONE', #87, 0.007499999999999999722 ) ;
#328 = CIRCLE ( 'NONE', #179, 0.05905499999999998251 ) ;
#329 = EDGE_CURVE ( 'NONE', #307, #73, #116, .T. ) ;
ENDSEC;
END-ISO-10303-21;
