ISO-10303-21;
HEADER;
FILE_DESCRIPTION (( 'STEP AP214' ),
    '1' );
FILE_NAME ('Micro_EMHM-060-4X.STEP',
    '2021-09-01T17:21:48',
    ( '' ),
    ( '' ),
    'SwSTEP 2.0',
    'SolidWorks 2020',
    '' );
FILE_SCHEMA (( 'AUTOMOTIVE_DESIGN' ));
ENDSEC;

DATA;
#1 = CARTESIAN_POINT ( 'NONE',  ( 0.0000000000000000000, 0.0000000000000000000, 2.229093999999999465 ) ) ;
#2 = FACE_OUTER_BOUND ( 'NONE', #291, .T. ) ;
#3 = LINE ( 'NONE', #208, #155 ) ;
#4 = CARTESIAN_POINT ( 'NONE',  ( 0.0000000000000000000, 0.0000000000000000000, 0.0000000000000000000 ) ) ;
#5 = DIRECTION ( 'NONE',  ( -0.1736481776669311639, 2.126576849575782392E-17, 0.9848077530122080203 ) ) ;
#6 = UNCERTAINTY_MEASURE_WITH_UNIT (LENGTH_MEASURE( 1.000000000000000082E-05 ), #217, 'distance_accuracy_value', 'NONE');
#7 = VERTEX_POINT ( 'NONE', #131 ) ;
#8 = CIRCLE ( 'NONE', #19, 0.1181100000000000066 ) ;
#9 = PRESENTATION_STYLE_ASSIGNMENT (( #32 ) ) ;
#10 = ORIENTED_EDGE ( 'NONE', *, *, #260, .F. ) ;
#11 =( CONVERSION_BASED_UNIT ( 'INCH', #123 ) LENGTH_UNIT ( ) NAMED_UNIT ( #108 ) );
#12 = CLOSED_SHELL ( 'NONE', ( #269, #216, #95, #13, #107, #295, #25, #85, #130, #250 ) ) ;
#13 = ADVANCED_FACE ( 'NONE', ( #177 ), #272, .T. ) ;
#14 = CARTESIAN_POINT ( 'NONE',  ( 8.678594253305624695E-17, 0.0000000000000000000, 0.7086609999999999854 ) ) ;
#15 = ORIENTED_EDGE ( 'NONE', *, *, #225, .F. ) ;
#16 = ORIENTED_EDGE ( 'NONE', *, *, #260, .T. ) ;
#17 = DIRECTION ( 'NONE',  ( -0.0000000000000000000, -0.0000000000000000000, -1.000000000000000000 ) ) ;
#18 = VERTEX_POINT ( 'NONE', #88 ) ;
#19 = AXIS2_PLACEMENT_3D ( 'NONE', #91, #160, #183 ) ;
#20 = PRESENTATION_STYLE_ASSIGNMENT (( #127 ) ) ;
#21 = DIRECTION ( 'NONE',  ( -1.000000000000000000, 0.0000000000000000000, 0.0000000000000000000 ) ) ;
#22 = DIRECTION ( 'NONE',  ( -1.000000000000000000, 0.0000000000000000000, 0.0000000000000000000 ) ) ;
#23 = VECTOR ( 'NONE', #72, 39.37007874015748143 ) ;
#24 = FACE_OUTER_BOUND ( 'NONE', #80, .T. ) ;
#25 = ADVANCED_FACE ( 'NONE', ( #180 ), #235, .T. ) ;
#26 = DIRECTION ( 'NONE',  ( -1.000000000000000000, 0.0000000000000000000, 0.0000000000000000000 ) ) ;
#27 = CARTESIAN_POINT ( 'NONE',  ( 0.1179918900000000992, 0.0000000000000000000, 0.7086609999999999854 ) ) ;
#28 = PRESENTATION_LAYER_ASSIGNMENT (  '', '', ( #199 ) ) ;
#29 = DIRECTION ( 'NONE',  ( 1.224646799147353207E-16, 0.0000000000000000000, 1.000000000000000000 ) ) ;
#30 = CARTESIAN_POINT ( 'NONE',  ( -0.1181100000000000066, 0.0000000000000000000, 2.244094000000000033 ) ) ;
#31 = ORIENTED_EDGE ( 'NONE', *, *, #204, .F. ) ;
#32 = SURFACE_STYLE_USAGE ( .BOTH. , #124 ) ;
#33 = LINE ( 'NONE', #30, #253 ) ;
#34 = EDGE_CURVE ( 'NONE', #169, #151, #166, .T. ) ;
#35 = MANIFOLD_SOLID_BREP ( 'Cut-Revolve1', #12 ) ;
#36 = ORIENTED_EDGE ( 'NONE', *, *, #134, .F. ) ;
#37 = ORIENTED_EDGE ( 'NONE', *, *, #62, .T. ) ;
#38 = CARTESIAN_POINT ( 'NONE',  ( 0.0000000000000000000, 0.0000000000000000000, 0.0000000000000000000 ) ) ;
#39 = COLOUR_RGB ( '',0.7921568627450980005, 0.8196078431372548767, 0.9333333333333333481 ) ;
#40 = ORIENTED_EDGE ( 'NONE', *, *, #227, .F. ) ;
#41 = DIRECTION ( 'NONE',  ( -1.000000000000000000, 0.0000000000000000000, 0.0000000000000000000 ) ) ;
#42 = ORIENTED_EDGE ( 'NONE', *, *, #81, .T. ) ;
#43 = DIRECTION ( 'NONE',  ( 0.0000000000000000000, 0.0000000000000000000, -1.000000000000000000 ) ) ;
#44 = AXIS2_PLACEMENT_3D ( 'NONE', #38, #82, #268 ) ;
#45 = CARTESIAN_POINT ( 'NONE',  ( 8.678594253305624695E-17, 0.0000000000000000000, 0.7086609999999999854 ) ) ;
#46 = EDGE_CURVE ( 'NONE', #151, #7, #174, .T. ) ;
#47 = FACE_OUTER_BOUND ( 'NONE', #99, .T. ) ;
#48 = CARTESIAN_POINT ( 'NONE',  ( 0.0000000000000000000, 0.0000000000000000000, 2.244094000000000033 ) ) ;
#49 = VECTOR ( 'NONE', #214, 39.37007874015748143 ) ;
#50 = DIRECTION ( 'NONE',  ( 0.0000000000000000000, 0.0000000000000000000, 1.000000000000000000 ) ) ;
#51 = LINE ( 'NONE', #143, #49 ) ;
#52 = DIRECTION ( 'NONE',  ( 0.1736481776669313304, 0.0000000000000000000, 0.9848077530122077983 ) ) ;
#53 = EDGE_CURVE ( 'NONE', #18, #86, #205, .T. ) ;
#54 = AXIS2_PLACEMENT_3D ( 'NONE', #211, #280, #26 ) ;
#55 =( NAMED_UNIT ( * ) SI_UNIT ( $, .STERADIAN. ) SOLID_ANGLE_UNIT ( ) );
#56 = APPLICATION_PROTOCOL_DEFINITION ( 'draft international standard', 'automotive_design', 1998, #191 ) ;
#57 = ORIENTED_EDGE ( 'NONE', *, *, #46, .T. ) ;
#58 = ORIENTED_EDGE ( 'NONE', *, *, #136, .T. ) ;
#59 = PLANE ( 'NONE',  #140 ) ;
#60 = VERTEX_POINT ( 'NONE', #156 ) ;
#61 = SHAPE_DEFINITION_REPRESENTATION ( #197, #176 ) ;
#62 = EDGE_CURVE ( 'NONE', #18, #270, #135, .T. ) ;
#63 =( GEOMETRIC_REPRESENTATION_CONTEXT ( 3 ) GLOBAL_UNCERTAINTY_ASSIGNED_CONTEXT ( ( #94 ) ) GLOBAL_UNIT_ASSIGNED_CONTEXT ( ( #274, #198, #67 ) ) REPRESENTATION_CONTEXT ( 'NONE', 'WORKASPACE' ) );
#64 = DIRECTION ( 'NONE',  ( -1.224646799147353207E-16, -0.0000000000000000000, -1.000000000000000000 ) ) ;
#65 = ORIENTED_EDGE ( 'NONE', *, *, #213, .F. ) ;
#66 = CARTESIAN_POINT ( 'NONE',  ( 0.0000000000000000000, 0.0000000000000000000, 2.244094000000000033 ) ) ;
#67 =( NAMED_UNIT ( * ) SI_UNIT ( $, .STERADIAN. ) SOLID_ANGLE_UNIT ( ) );
#68 = FILL_AREA_STYLE ('',( #298 ) ) ;
#69 = DIRECTION ( 'NONE',  ( 1.000000000000000000, 0.0000000000000000000, 0.0000000000000000000 ) ) ;
#70 = CYLINDRICAL_SURFACE ( 'NONE', #54, 0.1181100000000000066 ) ;
#71 = COLOUR_RGB ( '',0.7921568627450980005, 0.8196078431372548767, 0.9333333333333333481 ) ;
#72 = DIRECTION ( 'NONE',  ( -1.224646799147353207E-16, -0.0000000000000000000, -1.000000000000000000 ) ) ;
#73 = CARTESIAN_POINT ( 'NONE',  ( 0.0000000000000000000, 0.0000000000000000000, 2.229093999999999465 ) ) ;
#74 = CARTESIAN_POINT ( 'NONE',  ( 0.0000000000000000000, 0.0000000000000000000, 0.0000000000000000000 ) ) ;
#75 = AXIS2_PLACEMENT_3D ( 'NONE', #1, #89, #90 ) ;
#76 = PRODUCT_RELATED_PRODUCT_CATEGORY ( 'part', '', ( #129 ) ) ;
#77 = DIRECTION ( 'NONE',  ( -1.224646799147353207E-16, -0.0000000000000000000, -1.000000000000000000 ) ) ;
#78 = EDGE_LOOP ( 'NONE', ( #299, #57, #154, #192 ) ) ;
#79 = EDGE_CURVE ( 'NONE', #106, #7, #193, .T. ) ;
#80 = EDGE_LOOP ( 'NONE', ( #248, #37, #239, #31 ) ) ;
#81 = EDGE_CURVE ( 'NONE', #125, #190, #132, .T. ) ;
#82 = DIRECTION ( 'NONE',  ( 0.0000000000000000000, 0.0000000000000000000, 1.000000000000000000 ) ) ;
#83 = AXIS2_PLACEMENT_3D ( 'NONE', #152, #165, #266 ) ;
#84 = ORIENTED_EDGE ( 'NONE', *, *, #46, .F. ) ;
#85 = ADVANCED_FACE ( 'NONE', ( #2 ), #105, .T. ) ;
#86 = VERTEX_POINT ( 'NONE', #27 ) ;
#87 = DIMENSIONAL_EXPONENTS ( 1.000000000000000000, 0.0000000000000000000, 0.0000000000000000000, 0.0000000000000000000, 0.0000000000000000000, 0.0000000000000000000, 0.0000000000000000000 ) ;
#88 = CARTESIAN_POINT ( 'NONE',  ( -0.1179918899999999188, 1.445707119305702357E-17, 0.7086609999999999854 ) ) ;
#89 = DIRECTION ( 'NONE',  ( 0.0000000000000000000, 0.0000000000000000000, -1.000000000000000000 ) ) ;
#90 = DIRECTION ( 'NONE',  ( 1.000000000000000000, 0.0000000000000000000, 0.0000000000000000000 ) ) ;
#91 = CARTESIAN_POINT ( 'NONE',  ( 8.686797367364864477E-17, 0.0000000000000000000, 0.7093308350957150399 ) ) ;
#92 = AXIS2_PLACEMENT_3D ( 'NONE', #66, #43, #278 ) ;
#93 = DIRECTION ( 'NONE',  ( 1.000000000000000000, 0.0000000000000000000, 0.0000000000000000000 ) ) ;
#94 = UNCERTAINTY_MEASURE_WITH_UNIT (LENGTH_MEASURE( 1.000000000000000082E-05 ), #274, 'distance_accuracy_value', 'NONE');
#95 = ADVANCED_FACE ( 'NONE', ( #228 ), #179, .T. ) ;
#96 = LINE ( 'NONE', #231, #287 ) ;
#97 = AXIS2_PLACEMENT_3D ( 'NONE', #158, #133, #220 ) ;
#98 =( LENGTH_UNIT ( ) NAMED_UNIT ( * ) SI_UNIT ( $, .METRE. ) );
#99 = EDGE_LOOP ( 'NONE', ( #104, #16, #100, #153 ) ) ;
#100 = ORIENTED_EDGE ( 'NONE', *, *, #236, .T. ) ;
#101 = EDGE_CURVE ( 'NONE', #86, #125, #117, .T. ) ;
#102 = FACE_OUTER_BOUND ( 'NONE', #201, .T. ) ;
#103 = EDGE_LOOP ( 'NONE', ( #84, #267, #58, #119 ) ) ;
#104 = ORIENTED_EDGE ( 'NONE', *, *, #101, .F. ) ;
#105 = CONICAL_SURFACE ( 'NONE', #146, 0.1179918900000000159, 0.1745329251994338360 ) ;
#106 = VERTEX_POINT ( 'NONE', #232 ) ;
#107 = ADVANCED_FACE ( 'NONE', ( #116 ), #70, .T. ) ;
#108 = DIMENSIONAL_EXPONENTS ( 1.000000000000000000, 0.0000000000000000000, 0.0000000000000000000, 0.0000000000000000000, 0.0000000000000000000, 0.0000000000000000000, 0.0000000000000000000 ) ;
#109 =( LENGTH_UNIT ( ) NAMED_UNIT ( * ) SI_UNIT ( $, .METRE. ) );
#110 = CARTESIAN_POINT ( 'NONE',  ( -0.1179918899999999188, 1.444983904138465938E-17, 0.7086609999999999854 ) ) ;
#111 = DIRECTION ( 'NONE',  ( -1.224646799147353207E-16, -0.0000000000000000000, -1.000000000000000000 ) ) ;
#112 = CIRCLE ( 'NONE', #175, 0.1179918899999999882 ) ;
#113 = AXIS2_PLACEMENT_3D ( 'NONE', #254, #159, #181 ) ;
#114 = DIRECTION ( 'NONE',  ( 1.224646799147353207E-16, 0.0000000000000000000, 1.000000000000000000 ) ) ;
#115 = CYLINDRICAL_SURFACE ( 'NONE', #149, 0.1179918900000000159 ) ;
#116 = FACE_OUTER_BOUND ( 'NONE', #178, .T. ) ;
#117 = LINE ( 'NONE', #249, #23 ) ;
#118 = DIRECTION ( 'NONE',  ( 0.0000000000000000000, 0.0000000000000000000, 1.000000000000000000 ) ) ;
#119 = ORIENTED_EDGE ( 'NONE', *, *, #141, .F. ) ;
#120 = FACE_OUTER_BOUND ( 'NONE', #244, .T. ) ;
#121 = ORIENTED_EDGE ( 'NONE', *, *, #134, .T. ) ;
#122 = AXIS2_PLACEMENT_3D ( 'NONE', #14, #290, #168 ) ;
#123 = LENGTH_MEASURE_WITH_UNIT ( LENGTH_MEASURE( 0.02539999999999999897 ), #171 );
#124 = SURFACE_SIDE_STYLE ('',( #215 ) ) ;
#125 = VERTEX_POINT ( 'NONE', #138 ) ;
#126 = CIRCLE ( 'NONE', #288, 0.1181100000000000066 ) ;
#127 = SURFACE_STYLE_USAGE ( .BOTH. , #226 ) ;
#128 = EDGE_LOOP ( 'NONE', ( #247, #157 ) ) ;
#129 = PRODUCT ( 'Micro_EMHM-060-4X', 'Micro_EMHM-060-4X', '', ( #219 ) ) ;
#130 = ADVANCED_FACE ( 'NONE', ( #47 ), #115, .T. ) ;
#131 = CARTESIAN_POINT ( 'NONE',  ( 0.1181100000000000066, 1.446430334472939084E-17, 2.229093999999999465 ) ) ;
#132 = CIRCLE ( 'NONE', #113, 0.1179918899999999882 ) ;
#133 = DIRECTION ( 'NONE',  ( 0.0000000000000000000, 0.0000000000000000000, 1.000000000000000000 ) ) ;
#134 = EDGE_CURVE ( 'NONE', #7, #60, #96, .T. ) ;
#135 = LINE ( 'NONE', #110, #139 ) ;
#136 = EDGE_CURVE ( 'NONE', #169, #106, #3, .T. ) ;
#137 = DIRECTION ( 'NONE',  ( 0.0000000000000000000, 0.0000000000000000000, -1.000000000000000000 ) ) ;
#138 = CARTESIAN_POINT ( 'NONE',  ( 0.1179918899999999882, 1.444983904138465938E-17, -1.895600338963814870E-33 ) ) ;
#139 = VECTOR ( 'NONE', #5, 39.37007874015747433 ) ;
#140 = AXIS2_PLACEMENT_3D ( 'NONE', #243, #118, #212 ) ;
#141 = EDGE_CURVE ( 'NONE', #7, #106, #293, .T. ) ;
#142 = DIRECTION ( 'NONE',  ( -1.224646799147353207E-16, -0.0000000000000000000, -1.000000000000000000 ) ) ;
#143 = CARTESIAN_POINT ( 'NONE',  ( -0.1179918900000000159, 0.0000000000000000000, 1.444983904138465938E-17 ) ) ;
#144 = DIRECTION ( 'NONE',  ( -1.000000000000000000, 0.0000000000000000000, 1.224646799147353454E-16 ) ) ;
#145 = EDGE_CURVE ( 'NONE', #151, #169, #218, .T. ) ;
#146 = AXIS2_PLACEMENT_3D ( 'NONE', #210, #29, #209 ) ;
#147 = CYLINDRICAL_SURFACE ( 'NONE', #223, 0.1179918900000000159 ) ;
#148 = FILL_AREA_STYLE_COLOUR ( '', #71 ) ;
#149 = AXIS2_PLACEMENT_3D ( 'NONE', #4, #111, #251 ) ;
#150 =( NAMED_UNIT ( * ) PLANE_ANGLE_UNIT ( ) SI_UNIT ( $, .RADIAN. ) );
#151 = VERTEX_POINT ( 'NONE', #186 ) ;
#152 = CARTESIAN_POINT ( 'NONE',  ( 0.0000000000000000000, 0.0000000000000000000, 0.0000000000000000000 ) ) ;
#153 = ORIENTED_EDGE ( 'NONE', *, *, #81, .F. ) ;
#154 = ORIENTED_EDGE ( 'NONE', *, *, #79, .F. ) ;
#155 = VECTOR ( 'NONE', #206, 39.37007874015748854 ) ;
#156 = CARTESIAN_POINT ( 'NONE',  ( 0.1181100000000000899, 1.446430334472940009E-17, 0.7093308350957150399 ) ) ;
#157 = ORIENTED_EDGE ( 'NONE', *, *, #145, .T. ) ;
#158 = CARTESIAN_POINT ( 'NONE',  ( 0.0000000000000000000, 0.0000000000000000000, 2.244094000000000033 ) ) ;
#159 = DIRECTION ( 'NONE',  ( -1.224646799147353207E-16, -0.0000000000000000000, -1.000000000000000000 ) ) ;
#160 = DIRECTION ( 'NONE',  ( -1.224646799147353207E-16, -0.0000000000000000000, -1.000000000000000000 ) ) ;
#161 = CARTESIAN_POINT ( 'NONE',  ( 1.769594913022618037E-33, 0.0000000000000000000, 1.444983904138465938E-17 ) ) ;
#162 = CARTESIAN_POINT ( 'NONE',  ( -0.1179918899999999882, 0.0000000000000000000, 2.889967808276931875E-17 ) ) ;
#163 = DIRECTION ( 'NONE',  ( 0.0000000000000000000, 0.0000000000000000000, -1.000000000000000000 ) ) ;
#164 = PRODUCT_DEFINITION_CONTEXT ( 'detailed design', #275, 'design' ) ;
#165 = DIRECTION ( 'NONE',  ( 0.0000000000000000000, 0.0000000000000000000, 1.000000000000000000 ) ) ;
#166 = CIRCLE ( 'NONE', #97, 0.1031100000000002570 ) ;
#167 = ORIENTED_EDGE ( 'NONE', *, *, #79, .T. ) ;
#168 = DIRECTION ( 'NONE',  ( -1.000000000000000000, 0.0000000000000000000, 0.0000000000000000000 ) ) ;
#169 = VERTEX_POINT ( 'NONE', #286 ) ;
#170 =( GEOMETRIC_REPRESENTATION_CONTEXT ( 3 ) GLOBAL_UNCERTAINTY_ASSIGNED_CONTEXT ( ( #285 ) ) GLOBAL_UNIT_ASSIGNED_CONTEXT ( ( #11, #240, #55 ) ) REPRESENTATION_CONTEXT ( 'NONE', 'WORKASPACE' ) );
#171 =( LENGTH_UNIT ( ) NAMED_UNIT ( * ) SI_UNIT ( $, .METRE. ) );
#172 = ORIENTED_EDGE ( 'NONE', *, *, #225, .T. ) ;
#173 = ORIENTED_EDGE ( 'NONE', *, *, #204, .T. ) ;
#174 = LINE ( 'NONE', #224, #276 ) ;
#175 = AXIS2_PLACEMENT_3D ( 'NONE', #161, #142, #144 ) ;
#176 = ADVANCED_BREP_SHAPE_REPRESENTATION ( 'Micro_EMHM-060-4X', ( #35, #44 ), #170 ) ;
#177 = FACE_OUTER_BOUND ( 'NONE', #259, .T. ) ;
#178 = EDGE_LOOP ( 'NONE', ( #36, #221, #289, #15 ) ) ;
#179 = CONICAL_SURFACE ( 'NONE', #281, 0.1031100000000002570, 0.7853981633974318477 ) ;
#180 = FACE_OUTER_BOUND ( 'NONE', #103, .T. ) ;
#181 = DIRECTION ( 'NONE',  ( -1.000000000000000000, 0.0000000000000000000, 1.224646799147353454E-16 ) ) ;
#182 = DIRECTION ( 'NONE',  ( -1.224646799147353207E-16, -0.0000000000000000000, -1.000000000000000000 ) ) ;
#183 = DIRECTION ( 'NONE',  ( 1.000000000000000000, 0.0000000000000000000, 0.0000000000000000000 ) ) ;
#184 = VECTOR ( 'NONE', #52, 39.37007874015748143 ) ;
#185 =( GEOMETRIC_REPRESENTATION_CONTEXT ( 3 ) GLOBAL_UNCERTAINTY_ASSIGNED_CONTEXT ( ( #6 ) ) GLOBAL_UNIT_ASSIGNED_CONTEXT ( ( #217, #150, #292 ) ) REPRESENTATION_CONTEXT ( 'NONE', 'WORKASPACE' ) );
#186 = CARTESIAN_POINT ( 'NONE',  ( 0.1031100000000002570, 1.354581824536888722E-17, 2.244094000000000033 ) ) ;
#187 = DIRECTION ( 'NONE',  ( 1.000000000000000000, 0.0000000000000000000, 0.0000000000000000000 ) ) ;
#188 = ORIENTED_EDGE ( 'NONE', *, *, #227, .T. ) ;
#189 = PLANE ( 'NONE',  #83 ) ;
#190 = VERTEX_POINT ( 'NONE', #162 ) ;
#191 = APPLICATION_CONTEXT ( 'automotive_design' ) ;
#192 = ORIENTED_EDGE ( 'NONE', *, *, #136, .F. ) ;
#193 = CIRCLE ( 'NONE', #222, 0.1181100000000000066 ) ;
#194 = DIRECTION ( 'NONE',  ( -1.000000000000000000, 0.0000000000000000000, 1.224646799147352961E-16 ) ) ;
#195 = ORIENTED_EDGE ( 'NONE', *, *, #236, .F. ) ;
#196 = LENGTH_MEASURE_WITH_UNIT ( LENGTH_MEASURE( 0.02539999999999999897 ), #109 );
#197 = PRODUCT_DEFINITION_SHAPE ( 'NONE', 'NONE',  #207 ) ;
#198 =( NAMED_UNIT ( * ) PLANE_ANGLE_UNIT ( ) SI_UNIT ( $, .RADIAN. ) );
#199 = STYLED_ITEM ( 'NONE', ( #20 ), #35 ) ;
#200 = MECHANICAL_DESIGN_GEOMETRIC_PRESENTATION_REPRESENTATION (  '', ( #230 ), #185 ) ;
#201 = EDGE_LOOP ( 'NONE', ( #262, #265, #40, #195 ) ) ;
#202 = DIMENSIONAL_EXPONENTS ( 1.000000000000000000, 0.0000000000000000000, 0.0000000000000000000, 0.0000000000000000000, 0.0000000000000000000, 0.0000000000000000000, 0.0000000000000000000 ) ;
#203 = ORIENTED_EDGE ( 'NONE', *, *, #283, .F. ) ;
#204 = EDGE_CURVE ( 'NONE', #86, #60, #255, .T. ) ;
#205 = CIRCLE ( 'NONE', #241, 0.1179918900000000159 ) ;
#206 = DIRECTION ( 'NONE',  ( -0.7071067811865358044, 0.0000000000000000000, -0.7071067811865590080 ) ) ;
#207 = PRODUCT_DEFINITION ( 'UNKNOWN', '', #242, #164 ) ;
#208 = CARTESIAN_POINT ( 'NONE',  ( -0.1031100000000002570, 0.0000000000000000000, 2.244094000000000033 ) ) ;
#209 = DIRECTION ( 'NONE',  ( 1.000000000000000000, 0.0000000000000000000, 0.0000000000000000000 ) ) ;
#210 = CARTESIAN_POINT ( 'NONE',  ( 8.678594253305624695E-17, 0.0000000000000000000, 0.7086609999999999854 ) ) ;
#211 = CARTESIAN_POINT ( 'NONE',  ( 0.0000000000000000000, 0.0000000000000000000, 2.244094000000000033 ) ) ;
#212 = DIRECTION ( 'NONE',  ( 1.000000000000000000, 0.0000000000000000000, -0.0000000000000000000 ) ) ;
#213 = EDGE_CURVE ( 'NONE', #270, #60, #8, .T. ) ;
#214 = DIRECTION ( 'NONE',  ( -1.224646799147353207E-16, -0.0000000000000000000, -1.000000000000000000 ) ) ;
#215 = SURFACE_STYLE_FILL_AREA ( #238 ) ;
#216 = ADVANCED_FACE ( 'NONE', ( #24 ), #246, .T. ) ;
#217 =( CONVERSION_BASED_UNIT ( 'INCH', #261 ) LENGTH_UNIT ( ) NAMED_UNIT ( #202 ) );
#218 = CIRCLE ( 'NONE', #257, 0.1031100000000002570 ) ;
#219 = PRODUCT_CONTEXT ( 'NONE', #191, 'mechanical' ) ;
#220 = DIRECTION ( 'NONE',  ( 1.000000000000000000, 0.0000000000000000000, 0.0000000000000000000 ) ) ;
#221 = ORIENTED_EDGE ( 'NONE', *, *, #141, .T. ) ;
#222 = AXIS2_PLACEMENT_3D ( 'NONE', #73, #137, #187 ) ;
#223 = AXIS2_PLACEMENT_3D ( 'NONE', #74, #77, #194 ) ;
#224 = CARTESIAN_POINT ( 'NONE',  ( 0.1031100000000002570, 1.262733314600838667E-17, 2.244094000000000033 ) ) ;
#225 = EDGE_CURVE ( 'NONE', #60, #270, #126, .T. ) ;
#226 = SURFACE_SIDE_STYLE ('',( #245 ) ) ;
#227 = EDGE_CURVE ( 'NONE', #190, #125, #112, .T. ) ;
#228 = FACE_OUTER_BOUND ( 'NONE', #78, .T. ) ;
#229 = AXIS2_PLACEMENT_3D ( 'NONE', #234, #114, #256 ) ;
#230 = STYLED_ITEM ( 'NONE', ( #9 ), #176 ) ;
#231 = CARTESIAN_POINT ( 'NONE',  ( 0.1181100000000000066, 1.446430334472939084E-17, 2.244094000000000033 ) ) ;
#232 = CARTESIAN_POINT ( 'NONE',  ( -0.1181100000000000066, 0.0000000000000000000, 2.229093999999999465 ) ) ;
#233 = CARTESIAN_POINT ( 'NONE',  ( 0.0000000000000000000, 0.0000000000000000000, 2.244094000000000033 ) ) ;
#234 = CARTESIAN_POINT ( 'NONE',  ( 8.678594253305624695E-17, 0.0000000000000000000, 0.7086609999999999854 ) ) ;
#235 = CONICAL_SURFACE ( 'NONE', #92, 0.1031100000000002570, 0.7853981633974318477 ) ;
#236 = EDGE_CURVE ( 'NONE', #18, #190, #51, .T. ) ;
#237 = FACE_OUTER_BOUND ( 'NONE', #128, .T. ) ;
#238 = FILL_AREA_STYLE ('',( #148 ) ) ;
#239 = ORIENTED_EDGE ( 'NONE', *, *, #213, .T. ) ;
#240 =( NAMED_UNIT ( * ) PLANE_ANGLE_UNIT ( ) SI_UNIT ( $, .RADIAN. ) );
#241 = AXIS2_PLACEMENT_3D ( 'NONE', #45, #64, #41 ) ;
#242 = PRODUCT_DEFINITION_FORMATION_WITH_SPECIFIED_SOURCE ( 'ANY', '', #129, .NOT_KNOWN. ) ;
#243 = CARTESIAN_POINT ( 'NONE',  ( 0.0000000000000000000, 0.0000000000000000000, 2.244094000000000033 ) ) ;
#244 = EDGE_LOOP ( 'NONE', ( #188, #42 ) ) ;
#245 = SURFACE_STYLE_FILL_AREA ( #68 ) ;
#246 = CONICAL_SURFACE ( 'NONE', #229, 0.1179918900000000159, 0.1745329251994338360 ) ;
#247 = ORIENTED_EDGE ( 'NONE', *, *, #34, .T. ) ;
#248 = ORIENTED_EDGE ( 'NONE', *, *, #53, .F. ) ;
#249 = CARTESIAN_POINT ( 'NONE',  ( 0.1179918900000000159, 1.444983904138465938E-17, -1.444983904138465938E-17 ) ) ;
#250 = ADVANCED_FACE ( 'NONE', ( #120 ), #189, .F. ) ;
#251 = DIRECTION ( 'NONE',  ( -1.000000000000000000, 0.0000000000000000000, 1.224646799147352961E-16 ) ) ;
#252 = CIRCLE ( 'NONE', #122, 0.1179918900000000159 ) ;
#253 = VECTOR ( 'NONE', #258, 39.37007874015748143 ) ;
#254 = CARTESIAN_POINT ( 'NONE',  ( 1.769594913022618037E-33, 0.0000000000000000000, 1.444983904138465938E-17 ) ) ;
#255 = LINE ( 'NONE', #284, #184 ) ;
#256 = DIRECTION ( 'NONE',  ( 1.000000000000000000, 0.0000000000000000000, 0.0000000000000000000 ) ) ;
#257 = AXIS2_PLACEMENT_3D ( 'NONE', #48, #50, #93 ) ;
#258 = DIRECTION ( 'NONE',  ( -0.0000000000000000000, -0.0000000000000000000, -1.000000000000000000 ) ) ;
#259 = EDGE_LOOP ( 'NONE', ( #167, #121, #65, #203 ) ) ;
#260 = EDGE_CURVE ( 'NONE', #86, #18, #252, .T. ) ;
#261 = LENGTH_MEASURE_WITH_UNIT ( LENGTH_MEASURE( 0.02539999999999999897 ), #98 );
#262 = ORIENTED_EDGE ( 'NONE', *, *, #53, .T. ) ;
#263 = CARTESIAN_POINT ( 'NONE',  ( -0.1181099999999999234, 0.0000000000000000000, 0.7093308350957150399 ) ) ;
#264 = MECHANICAL_DESIGN_GEOMETRIC_PRESENTATION_REPRESENTATION (  '', ( #199 ), #63 ) ;
#265 = ORIENTED_EDGE ( 'NONE', *, *, #101, .T. ) ;
#266 = DIRECTION ( 'NONE',  ( 1.000000000000000000, 0.0000000000000000000, -0.0000000000000000000 ) ) ;
#267 = ORIENTED_EDGE ( 'NONE', *, *, #34, .F. ) ;
#268 = DIRECTION ( 'NONE',  ( 1.000000000000000000, 0.0000000000000000000, 0.0000000000000000000 ) ) ;
#269 = ADVANCED_FACE ( 'NONE', ( #102 ), #147, .T. ) ;
#270 = VERTEX_POINT ( 'NONE', #263 ) ;
#271 = DIRECTION ( 'NONE',  ( 0.7071067811865358044, 8.659560562354788645E-17, -0.7071067811865590080 ) ) ;
#272 = CYLINDRICAL_SURFACE ( 'NONE', #277, 0.1181100000000000066 ) ;
#273 = CARTESIAN_POINT ( 'NONE',  ( 0.0000000000000000000, 0.0000000000000000000, 2.244094000000000033 ) ) ;
#274 =( CONVERSION_BASED_UNIT ( 'INCH', #196 ) LENGTH_UNIT ( ) NAMED_UNIT ( #87 ) );
#275 = APPLICATION_CONTEXT ( 'automotive_design' ) ;
#276 = VECTOR ( 'NONE', #271, 39.37007874015748854 ) ;
#277 = AXIS2_PLACEMENT_3D ( 'NONE', #273, #17, #21 ) ;
#278 = DIRECTION ( 'NONE',  ( -1.000000000000000000, 0.0000000000000000000, 0.0000000000000000000 ) ) ;
#279 = CARTESIAN_POINT ( 'NONE',  ( 8.686797367364864477E-17, 0.0000000000000000000, 0.7093308350957150399 ) ) ;
#280 = DIRECTION ( 'NONE',  ( -0.0000000000000000000, -0.0000000000000000000, -1.000000000000000000 ) ) ;
#281 = AXIS2_PLACEMENT_3D ( 'NONE', #233, #163, #22 ) ;
#282 = DIRECTION ( 'NONE',  ( -0.0000000000000000000, -0.0000000000000000000, -1.000000000000000000 ) ) ;
#283 = EDGE_CURVE ( 'NONE', #106, #270, #33, .T. ) ;
#284 = CARTESIAN_POINT ( 'NONE',  ( 0.1179918900000000992, 0.0000000000000000000, 0.7086609999999999854 ) ) ;
#285 = UNCERTAINTY_MEASURE_WITH_UNIT (LENGTH_MEASURE( 1.000000000000000082E-05 ), #11, 'distance_accuracy_value', 'NONE');
#286 = CARTESIAN_POINT ( 'NONE',  ( -0.1031100000000002570, 0.0000000000000000000, 2.244094000000000033 ) ) ;
#287 = VECTOR ( 'NONE', #282, 39.37007874015748143 ) ;
#288 = AXIS2_PLACEMENT_3D ( 'NONE', #279, #182, #69 ) ;
#289 = ORIENTED_EDGE ( 'NONE', *, *, #283, .T. ) ;
#290 = DIRECTION ( 'NONE',  ( -1.224646799147353207E-16, -0.0000000000000000000, -1.000000000000000000 ) ) ;
#291 = EDGE_LOOP ( 'NONE', ( #297, #10, #173, #172 ) ) ;
#292 =( NAMED_UNIT ( * ) SI_UNIT ( $, .STERADIAN. ) SOLID_ANGLE_UNIT ( ) );
#293 = CIRCLE ( 'NONE', #75, 0.1181100000000000066 ) ;
#294 = APPLICATION_PROTOCOL_DEFINITION ( 'draft international standard', 'automotive_design', 1998, #275 ) ;
#295 = ADVANCED_FACE ( 'NONE', ( #237 ), #59, .T. ) ;
#296 = PRESENTATION_LAYER_ASSIGNMENT (  '', '', ( #230 ) ) ;
#297 = ORIENTED_EDGE ( 'NONE', *, *, #62, .F. ) ;
#298 = FILL_AREA_STYLE_COLOUR ( '', #39 ) ;
#299 = ORIENTED_EDGE ( 'NONE', *, *, #145, .F. ) ;
ENDSEC;
END-ISO-10303-21;
