ISO-10303-21;
HEADER;
FILE_DESCRIPTION (( 'STEP AP214' ),
    '1' );
FILE_NAME ('84411.STEP',
    '2023-06-30T23:27:35',
    ( '' ),
    ( '' ),
    'SwSTEP 2.0',
    'SolidWorks 2023',
    '' );
FILE_SCHEMA (( 'AUTOMOTIVE_DESIGN' ));
ENDSEC;

DATA;
#1 =( LENGTH_UNIT ( ) NAMED_UNIT ( * ) SI_UNIT ( $, .METRE. ) );
#2 = ORIENTED_EDGE ( 'NONE', *, *, #367, .T. ) ;
#3 =( NAMED_UNIT ( * ) SI_UNIT ( $, .STERADIAN. ) SOLID_ANGLE_UNIT ( ) );
#4 = STYLED_ITEM ( 'NONE', ( #136 ), #271 ) ;
#5 = DIRECTION ( 'NONE',  ( 0.000000000000000000, 0.000000000000000000, -1.000000000000000000 ) ) ;
#6 = CARTESIAN_POINT ( 'NONE',  ( 0.000000000000000000, 0.4375000000000000000, 0.000000000000000000 ) ) ;
#7 = AXIS2_PLACEMENT_3D ( 'NONE', #281, #301, #122 ) ;
#8 = PRODUCT_CONTEXT ( 'NONE', #278, 'mechanical' ) ;
#9 = CARTESIAN_POINT ( 'NONE',  ( 0.09374999999999994449, 0.4374999999999998890, 1.148106374200641552E-17 ) ) ;
#10 = COLOUR_RGB ( '',1.000000000000000000, 0.000000000000000000, 0.000000000000000000 ) ;
#11 = DIRECTION ( 'NONE',  ( 0.000000000000000000, 0.000000000000000000, 1.000000000000000000 ) ) ;
#12 = LENGTH_MEASURE_WITH_UNIT ( LENGTH_MEASURE( 0.02539999999999999897 ), #209 );
#13 = EDGE_CURVE ( 'NONE', #247, #366, #38, .T. ) ;
#14 =( CONVERSION_BASED_UNIT ( 'INCH', #242 ) LENGTH_UNIT ( ) NAMED_UNIT ( #176 ) );
#15 = COLOUR_RGB ( '',1.000000000000000000, 0.000000000000000000, 0.000000000000000000 ) ;
#16 = FACE_OUTER_BOUND ( 'NONE', #309, .T. ) ;
#17 = EDGE_CURVE ( 'NONE', #275, #222, #282, .T. ) ;
#18 = FILL_AREA_STYLE_COLOUR ( '', #197 ) ;
#19 = AXIS2_PLACEMENT_3D ( 'NONE', #358, #89, #200 ) ;
#20 = CARTESIAN_POINT ( 'NONE',  ( 0.000000000000000000, 0.4375000000000000000, -0.09374999999999995837 ) ) ;
#21 = ORIENTED_EDGE ( 'NONE', *, *, #297, .T. ) ;
#22 = ORIENTED_EDGE ( 'NONE', *, *, #320, .F. ) ;
#23 = PRESENTATION_STYLE_ASSIGNMENT (( #274 ) ) ;
#24 = ORIENTED_EDGE ( 'NONE', *, *, #367, .F. ) ;
#25 = PRESENTATION_LAYER_ASSIGNMENT (  '', '', ( #116 ) ) ;
#26 = PRESENTATION_LAYER_ASSIGNMENT (  '', '', ( #4 ) ) ;
#27 =( CONVERSION_BASED_UNIT ( 'INCH', #276 ) LENGTH_UNIT ( ) NAMED_UNIT ( #205 ) );
#28 = DIRECTION ( 'NONE',  ( 0.000000000000000000, 0.000000000000000000, -1.000000000000000000 ) ) ;
#29 = EDGE_LOOP ( 'NONE', ( #315, #131, #270, #245, #167 ) ) ;
#30 = SURFACE_SIDE_STYLE ('',( #77 ) ) ;
#31 = SURFACE_SIDE_STYLE ('',( #188 ) ) ;
#32 = SURFACE_STYLE_USAGE ( .BOTH. , #177 ) ;
#33 = STYLED_ITEM ( 'NONE', ( #244 ), #186 ) ;
#34 = PRESENTATION_STYLE_ASSIGNMENT (( #133 ) ) ;
#35 = LINE ( 'NONE', #142, #307 ) ;
#36 = PLANE ( 'NONE',  #120 ) ;
#37 = PRESENTATION_LAYER_ASSIGNMENT (  '', '', ( #144 ) ) ;
#38 = CIRCLE ( 'NONE', #204, 0.09374999999999998612 ) ;
#39 =( GEOMETRIC_REPRESENTATION_CONTEXT ( 3 ) GLOBAL_UNCERTAINTY_ASSIGNED_CONTEXT ( ( #229 ) ) GLOBAL_UNIT_ASSIGNED_CONTEXT ( ( #341, #53, #80 ) ) REPRESENTATION_CONTEXT ( 'NONE', 'WORKASPACE' ) );
#40 = DIRECTION ( 'NONE',  ( -1.000000000000000000, -8.327598234202004323E-17, 0.000000000000000000 ) ) ;
#41 = FILL_AREA_STYLE_COLOUR ( '', #10 ) ;
#42 =( GEOMETRIC_REPRESENTATION_CONTEXT ( 3 ) GLOBAL_UNCERTAINTY_ASSIGNED_CONTEXT ( ( #58 ) ) GLOBAL_UNIT_ASSIGNED_CONTEXT ( ( #235, #290, #287 ) ) REPRESENTATION_CONTEXT ( 'NONE', 'WORKASPACE' ) );
#43 =( LENGTH_UNIT ( ) NAMED_UNIT ( * ) SI_UNIT ( $, .METRE. ) );
#44 = PRODUCT_RELATED_PRODUCT_CATEGORY ( 'part', '', ( #288 ) ) ;
#45 = PRESENTATION_LAYER_ASSIGNMENT (  '', '', ( #267 ) ) ;
#46 = DIRECTION ( 'NONE',  ( -8.327598234202004323E-17, 1.000000000000000000, -0.000000000000000000 ) ) ;
#47 = DIMENSIONAL_EXPONENTS ( 1.000000000000000000, 0.000000000000000000, 0.000000000000000000, 0.000000000000000000, 0.000000000000000000, 0.000000000000000000, 0.000000000000000000 ) ;
#48 = SURFACE_STYLE_FILL_AREA ( #216 ) ;
#49 = SURFACE_STYLE_FILL_AREA ( #356 ) ;
#50 = ORIENTED_EDGE ( 'NONE', *, *, #182, .T. ) ;
#51 = DIRECTION ( 'NONE',  ( -0.000000000000000000, -1.000000000000000000, -0.000000000000000000 ) ) ;
#52 = ORIENTED_EDGE ( 'NONE', *, *, #139, .F. ) ;
#53 =( NAMED_UNIT ( * ) PLANE_ANGLE_UNIT ( ) SI_UNIT ( $, .RADIAN. ) );
#54 = ORIENTED_EDGE ( 'NONE', *, *, #139, .T. ) ;
#55 = MANIFOLD_SOLID_BREP ( 'Revolve - Cutting Edge', #156 ) ;
#56 = CLOSED_SHELL ( 'NONE', ( #328, #342, #170, #336 ) ) ;
#57 = CIRCLE ( 'NONE', #321, 0.09374999999999988898 ) ;
#58 = UNCERTAINTY_MEASURE_WITH_UNIT (LENGTH_MEASURE( 1.000000000000000082E-05 ), #235, 'distance_accuracy_value', 'NONE');
#59 = DIRECTION ( 'NONE',  ( 0.000000000000000000, -0.000000000000000000, 1.000000000000000000 ) ) ;
#60 = PRESENTATION_STYLE_ASSIGNMENT (( #70 ) ) ;
#61 = FILL_AREA_STYLE_COLOUR ( '', #338 ) ;
#62 = AXIS2_PLACEMENT_3D ( 'NONE', #264, #115, #362 ) ;
#63 = CARTESIAN_POINT ( 'NONE',  ( 1.148106374200643401E-17, 0.09375000000000001388, 0.09374999999999998612 ) ) ;
#64 = DIRECTION ( 'NONE',  ( 1.000000000000000000, 0.000000000000000000, -1.224646799147353207E-16 ) ) ;
#65 = AXIS2_PLACEMENT_3D ( 'NONE', #100, #257, #261 ) ;
#66 =( NAMED_UNIT ( * ) SI_UNIT ( $, .STERADIAN. ) SOLID_ANGLE_UNIT ( ) );
#67 = CYLINDRICAL_SURFACE ( 'NONE', #19, 0.09374999999999981959 ) ;
#68 =( NAMED_UNIT ( * ) PLANE_ANGLE_UNIT ( ) SI_UNIT ( $, .RADIAN. ) );
#69 = AXIS2_PLACEMENT_3D ( 'NONE', #190, #159, #217 ) ;
#70 = SURFACE_STYLE_USAGE ( .BOTH. , #125 ) ;
#71 = ORIENTED_EDGE ( 'NONE', *, *, #226, .F. ) ;
#72 = FACE_OUTER_BOUND ( 'NONE', #189, .T. ) ;
#73 = EDGE_CURVE ( 'NONE', #101, #305, #255, .T. ) ;
#74 = CARTESIAN_POINT ( 'NONE',  ( -0.09374999999999998612, 0.09375000000000001388, 1.148106374200643247E-17 ) ) ;
#75 = VERTEX_POINT ( 'NONE', #172 ) ;
#76 = EDGE_CURVE ( 'NONE', #213, #78, #137, .T. ) ;
#77 = SURFACE_STYLE_FILL_AREA ( #220 ) ;
#78 = VERTEX_POINT ( 'NONE', #111 ) ;
#79 = PRODUCT_DEFINITION_CONTEXT ( 'detailed design', #310, 'design' ) ;
#80 =( NAMED_UNIT ( * ) SI_UNIT ( $, .STERADIAN. ) SOLID_ANGLE_UNIT ( ) );
#81 = AXIS2_PLACEMENT_3D ( 'NONE', #181, #360, #210 ) ;
#82 = FILL_AREA_STYLE ('',( #272 ) ) ;
#83 =( CONVERSION_BASED_UNIT ( 'INCH', #347 ) LENGTH_UNIT ( ) NAMED_UNIT ( #273 ) );
#84 = SURFACE_STYLE_FILL_AREA ( #240 ) ;
#85 = DIRECTION ( 'NONE',  ( 0.000000000000000000, 0.000000000000000000, -1.000000000000000000 ) ) ;
#86 =( NAMED_UNIT ( * ) PLANE_ANGLE_UNIT ( ) SI_UNIT ( $, .RADIAN. ) );
#87 = CARTESIAN_POINT ( 'NONE',  ( 0.09374999999999995837, 2.000000000000000000, 0.000000000000000000 ) ) ;
#88 = CARTESIAN_POINT ( 'NONE',  ( -1.148106374200643401E-17, 0.09374999999999998612, 0.000000000000000000 ) ) ;
#89 = DIRECTION ( 'NONE',  ( -8.327598234202004323E-17, 1.000000000000000000, -0.000000000000000000 ) ) ;
#90 = PRODUCT_DEFINITION_SHAPE ( 'NONE', 'NONE',  #134 ) ;
#91 =( NAMED_UNIT ( * ) SI_UNIT ( $, .STERADIAN. ) SOLID_ANGLE_UNIT ( ) );
#92 = PRESENTATION_LAYER_ASSIGNMENT (  '', '', ( #329 ) ) ;
#93 = APPLICATION_PROTOCOL_DEFINITION ( 'draft international standard', 'automotive_design', 1998, #278 ) ;
#94 = SPHERICAL_SURFACE ( 'NONE', #108, 0.09374999999999998612 ) ;
#95 = DIRECTION ( 'NONE',  ( 0.000000000000000000, 0.000000000000000000, -1.000000000000000000 ) ) ;
#96 = AXIS2_PLACEMENT_3D ( 'NONE', #212, #332, #166 ) ;
#97 = VECTOR ( 'NONE', #99, 39.37007874015748143 ) ;
#98 = SPHERICAL_SURFACE ( 'NONE', #81, 0.09374999999999998612 ) ;
#99 = DIRECTION ( 'NONE',  ( -0.000000000000000000, -1.000000000000000000, -0.000000000000000000 ) ) ;
#100 = CARTESIAN_POINT ( 'NONE',  ( -1.148106374200643401E-17, 0.09374999999999998612, 0.000000000000000000 ) ) ;
#101 = VERTEX_POINT ( 'NONE', #9 ) ;
#102 = MECHANICAL_DESIGN_GEOMETRIC_PRESENTATION_REPRESENTATION (  '', ( #329 ), #352 ) ;
#103 = ORIENTED_EDGE ( 'NONE', *, *, #182, .F. ) ;
#104 = CARTESIAN_POINT ( 'NONE',  ( 0.000000000000000000, 0.09375000000000001388, -0.09374999999999998612 ) ) ;
#105 = DIRECTION ( 'NONE',  ( -8.327598234202004323E-17, 1.000000000000000000, -0.000000000000000000 ) ) ;
#106 = ORIENTED_EDGE ( 'NONE', *, *, #289, .T. ) ;
#107 = CARTESIAN_POINT ( 'NONE',  ( 0.000000000000000000, 0.4375000000000000000, 0.000000000000000000 ) ) ;
#108 = AXIS2_PLACEMENT_3D ( 'NONE', #286, #203, #230 ) ;
#109 = DIRECTION ( 'NONE',  ( -1.000000000000000000, 0.000000000000000000, 0.000000000000000000 ) ) ;
#110 = UNCERTAINTY_MEASURE_WITH_UNIT (LENGTH_MEASURE( 1.000000000000000082E-05 ), #14, 'distance_accuracy_value', 'NONE');
#111 = CARTESIAN_POINT ( 'NONE',  ( 1.148106374200643247E-17, 0.4375000000000000000, 0.09374999999999995837 ) ) ;
#112 = EDGE_CURVE ( 'NONE', #305, #222, #228, .T. ) ;
#113 = EDGE_CURVE ( 'NONE', #213, #247, #35, .T. ) ;
#114 = CARTESIAN_POINT ( 'NONE',  ( 6.123233995736766036E-17, 2.000000000000000000, 0.000000000000000000 ) ) ;
#115 = DIRECTION ( 'NONE',  ( -0.000000000000000000, -1.000000000000000000, -0.000000000000000000 ) ) ;
#116 = STYLED_ITEM ( 'NONE', ( #34 ), #55 ) ;
#117 = AXIS2_PLACEMENT_3D ( 'NONE', #198, #238, #5 ) ;
#118 =( NAMED_UNIT ( * ) SI_UNIT ( $, .STERADIAN. ) SOLID_ANGLE_UNIT ( ) );
#119 = SURFACE_SIDE_STYLE ('',( #49 ) ) ;
#120 = AXIS2_PLACEMENT_3D ( 'NONE', #266, #237, #40 ) ;
#121 = EDGE_CURVE ( 'NONE', #222, #305, #57, .T. ) ;
#122 = DIRECTION ( 'NONE',  ( -1.000000000000000000, 0.000000000000000000, 0.000000000000000000 ) ) ;
#123 = FACE_OUTER_BOUND ( 'NONE', #158, .T. ) ;
#124 = AXIS2_PLACEMENT_3D ( 'NONE', #107, #227, #59 ) ;
#125 = SURFACE_SIDE_STYLE ('',( #48 ) ) ;
#126 = FILL_AREA_STYLE_COLOUR ( '', #175 ) ;
#127 = UNCERTAINTY_MEASURE_WITH_UNIT (LENGTH_MEASURE( 1.000000000000000082E-05 ), #148, 'distance_accuracy_value', 'NONE');
#128 = DIRECTION ( 'NONE',  ( 0.000000000000000000, 0.000000000000000000, -1.000000000000000000 ) ) ;
#129 = ORIENTED_EDGE ( 'NONE', *, *, #73, .F. ) ;
#130 = CARTESIAN_POINT ( 'NONE',  ( -0.09374999999999975020, 2.000000000000000000, 0.000000000000000000 ) ) ;
#131 = ORIENTED_EDGE ( 'NONE', *, *, #196, .T. ) ;
#132 =( NAMED_UNIT ( * ) SI_UNIT ( $, .STERADIAN. ) SOLID_ANGLE_UNIT ( ) );
#133 = SURFACE_STYLE_USAGE ( .BOTH. , #31 ) ;
#134 = PRODUCT_DEFINITION ( 'UNKNOWN', '', #135, #79 ) ;
#135 = PRODUCT_DEFINITION_FORMATION_WITH_SPECIFIED_SOURCE ( 'ANY', '', #288, .NOT_KNOWN. ) ;
#136 = PRESENTATION_STYLE_ASSIGNMENT (( #195 ) ) ;
#137 = CIRCLE ( 'NONE', #357, 0.09374999999999995837 ) ;
#138 = AXIS2_PLACEMENT_3D ( 'NONE', #114, #174, #349 ) ;
#139 = EDGE_CURVE ( 'NONE', #369, #191, #239, .T. ) ;
#140 = LENGTH_MEASURE_WITH_UNIT ( LENGTH_MEASURE( 0.02539999999999999897 ), #43 );
#141 = CYLINDRICAL_SURFACE ( 'NONE', #62, 0.09374999999999997224 ) ;
#142 = CARTESIAN_POINT ( 'NONE',  ( 0.000000000000000000, 0.000000000000000000, -0.09374999999999997224 ) ) ;
#143 = FACE_OUTER_BOUND ( 'NONE', #249, .T. ) ;
#144 = STYLED_ITEM ( 'NONE', ( #60 ), #303 ) ;
#145 =( GEOMETRIC_REPRESENTATION_CONTEXT ( 3 ) GLOBAL_UNCERTAINTY_ASSIGNED_CONTEXT ( ( #373 ) ) GLOBAL_UNIT_ASSIGNED_CONTEXT ( ( #199, #327, #295 ) ) REPRESENTATION_CONTEXT ( 'NONE', 'WORKASPACE' ) );
#146 = STYLED_ITEM ( 'NONE', ( #178 ), #180 ) ;
#147 = DIRECTION ( 'NONE',  ( 8.327598234202004323E-17, -1.000000000000000000, 0.000000000000000000 ) ) ;
#148 =( CONVERSION_BASED_UNIT ( 'INCH', #12 ) LENGTH_UNIT ( ) NAMED_UNIT ( #47 ) );
#149 = CIRCLE ( 'NONE', #7, 0.09374999999999975020 ) ;
#150 = CYLINDRICAL_SURFACE ( 'NONE', #277, 0.09374999999999981959 ) ;
#151 =( NAMED_UNIT ( * ) PLANE_ANGLE_UNIT ( ) SI_UNIT ( $, .RADIAN. ) );
#152 = AXIS2_PLACEMENT_3D ( 'NONE', #322, #302, #95 ) ;
#153 = ORIENTED_EDGE ( 'NONE', *, *, #196, .F. ) ;
#154 = SURFACE_STYLE_USAGE ( .BOTH. , #119 ) ;
#155 = VECTOR ( 'NONE', #105, 39.37007874015748143 ) ;
#156 = CLOSED_SHELL ( 'NONE', ( #271, #285, #186, #254, #180 ) ) ;
#157 = PRESENTATION_LAYER_ASSIGNMENT (  '', '', ( #146 ) ) ;
#158 = EDGE_LOOP ( 'NONE', ( #24, #219, #333, #337 ) ) ;
#159 = DIRECTION ( 'NONE',  ( -8.327598234202004323E-17, 1.000000000000000000, -0.000000000000000000 ) ) ;
#160 = EDGE_LOOP ( 'NONE', ( #54, #2, #22, #106 ) ) ;
#161 = DIRECTION ( 'NONE',  ( -0.000000000000000000, -1.000000000000000000, -0.000000000000000000 ) ) ;
#162 = AXIS2_PLACEMENT_3D ( 'NONE', #185, #331, #300 ) ;
#163 = ORIENTED_EDGE ( 'NONE', *, *, #76, .F. ) ;
#164 = UNCERTAINTY_MEASURE_WITH_UNIT (LENGTH_MEASURE( 1.000000000000000082E-05 ), #83, 'distance_accuracy_value', 'NONE');
#165 = CYLINDRICAL_SURFACE ( 'NONE', #117, 0.09374999999999997224 ) ;
#166 = DIRECTION ( 'NONE',  ( 0.000000000000000000, 0.000000000000000000, -1.000000000000000000 ) ) ;
#167 = ORIENTED_EDGE ( 'NONE', *, *, #113, .F. ) ;
#168 = CIRCLE ( 'NONE', #299, 0.09374999999999998612 ) ;
#169 = FACE_OUTER_BOUND ( 'NONE', #29, .T. ) ;
#170 = ADVANCED_FACE ( 'NONE', ( #330 ), #150, .T. ) ;
#171 = SURFACE_SIDE_STYLE ('',( #84 ) ) ;
#172 = CARTESIAN_POINT ( 'NONE',  ( -5.740531871003217003E-18, 0.000000000000000000, 0.000000000000000000 ) ) ;
#173 =( GEOMETRIC_REPRESENTATION_CONTEXT ( 3 ) GLOBAL_UNCERTAINTY_ASSIGNED_CONTEXT ( ( #164 ) ) GLOBAL_UNIT_ASSIGNED_CONTEXT ( ( #83, #194, #66 ) ) REPRESENTATION_CONTEXT ( 'NONE', 'WORKASPACE' ) );
#174 = DIRECTION ( 'NONE',  ( -8.327598234202004323E-17, 1.000000000000000000, -0.000000000000000000 ) ) ;
#175 = COLOUR_RGB ( '',1.000000000000000000, 0.000000000000000000, 0.000000000000000000 ) ;
#176 = DIMENSIONAL_EXPONENTS ( 1.000000000000000000, 0.000000000000000000, 0.000000000000000000, 0.000000000000000000, 0.000000000000000000, 0.000000000000000000, 0.000000000000000000 ) ;
#177 = SURFACE_SIDE_STYLE ('',( #236 ) ) ;
#178 = PRESENTATION_STYLE_ASSIGNMENT (( #154 ) ) ;
#179 = CARTESIAN_POINT ( 'NONE',  ( -0.09374999999999956979, 0.4374999999999998890, 0.000000000000000000 ) ) ;
#180 = ADVANCED_FACE ( 'NONE', ( #123 ), #98, .T. ) ;
#181 = CARTESIAN_POINT ( 'NONE',  ( -1.148106374200643401E-17, 0.09374999999999998612, 0.000000000000000000 ) ) ;
#182 = EDGE_CURVE ( 'NONE', #78, #213, #248, .T. ) ;
#183 = COLOUR_RGB ( '',0.7921568627450980005, 0.8196078431372548767, 0.9333333333333333481 ) ;
#184 = DIRECTION ( 'NONE',  ( -1.000000000000000000, 0.000000000000000000, 0.000000000000000000 ) ) ;
#185 = CARTESIAN_POINT ( 'NONE',  ( 0.000000000000000000, 0.4375000000000000000, 0.000000000000000000 ) ) ;
#186 = ADVANCED_FACE ( 'NONE', ( #16 ), #368, .T. ) ;
#187 = LINE ( 'NONE', #344, #97 ) ;
#188 = SURFACE_STYLE_FILL_AREA ( #343 ) ;
#189 = EDGE_LOOP ( 'NONE', ( #153, #50, #361, #372, #52 ) ) ;
#190 = CARTESIAN_POINT ( 'NONE',  ( 1.913510623667739648E-16, 0.4374999999999998890, 0.000000000000000000 ) ) ;
#191 = VERTEX_POINT ( 'NONE', #74 ) ;
#192 =( NAMED_UNIT ( * ) PLANE_ANGLE_UNIT ( ) SI_UNIT ( $, .RADIAN. ) );
#193 = ORIENTED_EDGE ( 'NONE', *, *, #121, .T. ) ;
#194 =( NAMED_UNIT ( * ) PLANE_ANGLE_UNIT ( ) SI_UNIT ( $, .RADIAN. ) );
#195 = SURFACE_STYLE_USAGE ( .BOTH. , #171 ) ;
#196 = EDGE_CURVE ( 'NONE', #78, #369, #187, .T. ) ;
#197 = COLOUR_RGB ( '',0.7921568627450980005, 0.8196078431372548767, 0.9333333333333333481 ) ;
#198 = CARTESIAN_POINT ( 'NONE',  ( 0.000000000000000000, 0.000000000000000000, 0.000000000000000000 ) ) ;
#199 =( CONVERSION_BASED_UNIT ( 'INCH', #284 ) LENGTH_UNIT ( ) NAMED_UNIT ( #364 ) );
#200 = DIRECTION ( 'NONE',  ( -1.000000000000000000, 0.000000000000000000, 0.000000000000000000 ) ) ;
#201 = APPLICATION_PROTOCOL_DEFINITION ( 'draft international standard', 'automotive_design', 1998, #310 ) ;
#202 = LENGTH_MEASURE_WITH_UNIT ( LENGTH_MEASURE( 0.02539999999999999897 ), #232 );
#203 = DIRECTION ( 'NONE',  ( 0.000000000000000000, 0.000000000000000000, 1.000000000000000000 ) ) ;
#204 = AXIS2_PLACEMENT_3D ( 'NONE', #280, #161, #28 ) ;
#205 = DIMENSIONAL_EXPONENTS ( 1.000000000000000000, 0.000000000000000000, 0.000000000000000000, 0.000000000000000000, 0.000000000000000000, 0.000000000000000000, 0.000000000000000000 ) ;
#206 = MECHANICAL_DESIGN_GEOMETRIC_PRESENTATION_REPRESENTATION (  '', ( #4 ), #269 ) ;
#207 =( LENGTH_UNIT ( ) NAMED_UNIT ( * ) SI_UNIT ( $, .METRE. ) );
#208 = DIRECTION ( 'NONE',  ( 1.000000000000000000, 8.327598234202004323E-17, 0.000000000000000000 ) ) ;
#209 =( LENGTH_UNIT ( ) NAMED_UNIT ( * ) SI_UNIT ( $, .METRE. ) );
#210 = DIRECTION ( 'NONE',  ( 1.000000000000000000, 0.000000000000000000, 0.000000000000000000 ) ) ;
#211 = ORIENTED_EDGE ( 'NONE', *, *, #121, .F. ) ;
#212 = CARTESIAN_POINT ( 'NONE',  ( 0.000000000000000000, 0.09375000000000001388, 0.000000000000000000 ) ) ;
#213 = VERTEX_POINT ( 'NONE', #20 ) ;
#214 = MECHANICAL_DESIGN_GEOMETRIC_PRESENTATION_REPRESENTATION (  '', ( #116 ), #145 ) ;
#215 =( GEOMETRIC_REPRESENTATION_CONTEXT ( 3 ) GLOBAL_UNCERTAINTY_ASSIGNED_CONTEXT ( ( #110 ) ) GLOBAL_UNIT_ASSIGNED_CONTEXT ( ( #14, #68, #118 ) ) REPRESENTATION_CONTEXT ( 'NONE', 'WORKASPACE' ) );
#216 = FILL_AREA_STYLE ('',( #18 ) ) ;
#217 = DIRECTION ( 'NONE',  ( -1.000000000000000000, 0.000000000000000000, 0.000000000000000000 ) ) ;
#218 = FILL_AREA_STYLE_COLOUR ( '', #183 ) ;
#219 = ORIENTED_EDGE ( 'NONE', *, *, #234, .T. ) ;
#220 = FILL_AREA_STYLE ('',( #126 ) ) ;
#221 = AXIS2_PLACEMENT_3D ( 'NONE', #335, #51, #128 ) ;
#222 = VERTEX_POINT ( 'NONE', #250 ) ;
#223 = LENGTH_MEASURE_WITH_UNIT ( LENGTH_MEASURE( 0.02539999999999999897 ), #311 );
#224 = UNCERTAINTY_MEASURE_WITH_UNIT (LENGTH_MEASURE( 1.000000000000000082E-05 ), #27, 'distance_accuracy_value', 'NONE');
#225 = SURFACE_SIDE_STYLE ('',( #246 ) ) ;
#226 = EDGE_CURVE ( 'NONE', #101, #275, #316, .T. ) ;
#227 = DIRECTION ( 'NONE',  ( 0.000000000000000000, 1.000000000000000000, 0.000000000000000000 ) ) ;
#228 = CIRCLE ( 'NONE', #138, 0.09374999999999988898 ) ;
#229 = UNCERTAINTY_MEASURE_WITH_UNIT (LENGTH_MEASURE( 1.000000000000000082E-05 ), #341, 'distance_accuracy_value', 'NONE');
#230 = DIRECTION ( 'NONE',  ( 1.000000000000000000, 0.000000000000000000, 0.000000000000000000 ) ) ;
#231 = PRESENTATION_STYLE_ASSIGNMENT (( #32 ) ) ;
#232 =( LENGTH_UNIT ( ) NAMED_UNIT ( * ) SI_UNIT ( $, .METRE. ) );
#233 = CARTESIAN_POINT ( 'NONE',  ( 6.123233995736766036E-17, 2.000000000000000000, 0.000000000000000000 ) ) ;
#234 = EDGE_CURVE ( 'NONE', #191, #247, #359, .T. ) ;
#235 =( CONVERSION_BASED_UNIT ( 'INCH', #202 ) LENGTH_UNIT ( ) NAMED_UNIT ( #308 ) );
#236 = SURFACE_STYLE_FILL_AREA ( #262 ) ;
#237 = DIRECTION ( 'NONE',  ( -8.327598234202004323E-17, 1.000000000000000000, 0.000000000000000000 ) ) ;
#238 = DIRECTION ( 'NONE',  ( -0.000000000000000000, -1.000000000000000000, -0.000000000000000000 ) ) ;
#239 = CIRCLE ( 'NONE', #152, 0.09374999999999998612 ) ;
#240 = FILL_AREA_STYLE ('',( #61 ) ) ;
#241 =( GEOMETRIC_REPRESENTATION_CONTEXT ( 3 ) GLOBAL_UNCERTAINTY_ASSIGNED_CONTEXT ( ( #224 ) ) GLOBAL_UNIT_ASSIGNED_CONTEXT ( ( #27, #192, #132 ) ) REPRESENTATION_CONTEXT ( 'NONE', 'WORKASPACE' ) );
#242 = LENGTH_MEASURE_WITH_UNIT ( LENGTH_MEASURE( 0.02539999999999999897 ), #207 );
#243 = EDGE_LOOP ( 'NONE', ( #21, #346, #211, #279 ) ) ;
#244 = PRESENTATION_STYLE_ASSIGNMENT (( #253 ) ) ;
#245 = ORIENTED_EDGE ( 'NONE', *, *, #13, .F. ) ;
#246 = SURFACE_STYLE_FILL_AREA ( #82 ) ;
#247 = VERTEX_POINT ( 'NONE', #104 ) ;
#248 = CIRCLE ( 'NONE', #162, 0.09374999999999995837 ) ;
#249 = EDGE_LOOP ( 'NONE', ( #193, #313 ) ) ;
#250 = CARTESIAN_POINT ( 'NONE',  ( -0.09374999999999981959, 2.000000000000000000, 0.000000000000000000 ) ) ;
#251 =( LENGTH_UNIT ( ) NAMED_UNIT ( * ) SI_UNIT ( $, .METRE. ) );
#252 = ORIENTED_EDGE ( 'NONE', *, *, #17, .T. ) ;
#253 = SURFACE_STYLE_USAGE ( .BOTH. , #30 ) ;
#254 = ADVANCED_FACE ( 'NONE', ( #72 ), #165, .T. ) ;
#255 = LINE ( 'NONE', #348, #293 ) ;
#256 =( CONVERSION_BASED_UNIT ( 'INCH', #140 ) LENGTH_UNIT ( ) NAMED_UNIT ( #268 ) );
#257 = DIRECTION ( 'NONE',  ( 0.000000000000000000, 0.000000000000000000, -1.000000000000000000 ) ) ;
#258 = DIRECTION ( 'NONE',  ( -8.327598234202004323E-17, 1.000000000000000000, -0.000000000000000000 ) ) ;
#259 = CARTESIAN_POINT ( 'NONE',  ( 0.000000000000000000, 0.000000000000000000, 0.000000000000000000 ) ) ;
#260 = PRESENTATION_LAYER_ASSIGNMENT (  '', '', ( #33 ) ) ;
#261 = DIRECTION ( 'NONE',  ( -1.000000000000000000, 0.000000000000000000, 0.000000000000000000 ) ) ;
#262 = FILL_AREA_STYLE ('',( #283 ) ) ;
#263 = DIRECTION ( 'NONE',  ( -0.000000000000000000, -1.000000000000000000, -0.000000000000000000 ) ) ;
#264 = CARTESIAN_POINT ( 'NONE',  ( 0.000000000000000000, 0.000000000000000000, 0.000000000000000000 ) ) ;
#265 = CARTESIAN_POINT ( 'NONE',  ( 6.123233995736766036E-17, 2.000000000000000000, 0.000000000000000000 ) ) ;
#266 = CARTESIAN_POINT ( 'NONE',  ( 1.913510623667739402E-16, 0.4375000000000000000, 0.000000000000000000 ) ) ;
#267 = STYLED_ITEM ( 'NONE', ( #23 ), #254 ) ;
#268 = DIMENSIONAL_EXPONENTS ( 1.000000000000000000, 0.000000000000000000, 0.000000000000000000, 0.000000000000000000, 0.000000000000000000, 0.000000000000000000, 0.000000000000000000 ) ;
#269 =( GEOMETRIC_REPRESENTATION_CONTEXT ( 3 ) GLOBAL_UNCERTAINTY_ASSIGNED_CONTEXT ( ( #127 ) ) GLOBAL_UNIT_ASSIGNED_CONTEXT ( ( #148, #151, #3 ) ) REPRESENTATION_CONTEXT ( 'NONE', 'WORKASPACE' ) );
#270 = ORIENTED_EDGE ( 'NONE', *, *, #289, .F. ) ;
#271 = ADVANCED_FACE ( 'NONE', ( #318 ), #94, .T. ) ;
#272 = FILL_AREA_STYLE_COLOUR ( '', #345 ) ;
#273 = DIMENSIONAL_EXPONENTS ( 1.000000000000000000, 0.000000000000000000, 0.000000000000000000, 0.000000000000000000, 0.000000000000000000, 0.000000000000000000, 0.000000000000000000 ) ;
#274 = SURFACE_STYLE_USAGE ( .BOTH. , #225 ) ;
#275 = VERTEX_POINT ( 'NONE', #179 ) ;
#276 = LENGTH_MEASURE_WITH_UNIT ( LENGTH_MEASURE( 0.02539999999999999897 ), #1 );
#277 = AXIS2_PLACEMENT_3D ( 'NONE', #265, #46, #184 ) ;
#278 = APPLICATION_CONTEXT ( 'automotive_design' ) ;
#279 = ORIENTED_EDGE ( 'NONE', *, *, #17, .F. ) ;
#280 = CARTESIAN_POINT ( 'NONE',  ( 0.000000000000000000, 0.09375000000000001388, 0.000000000000000000 ) ) ;
#281 = CARTESIAN_POINT ( 'NONE',  ( 1.913510623667739648E-16, 0.4374999999999998890, 0.000000000000000000 ) ) ;
#282 = LINE ( 'NONE', #130, #155 ) ;
#283 = FILL_AREA_STYLE_COLOUR ( '', #15 ) ;
#284 = LENGTH_MEASURE_WITH_UNIT ( LENGTH_MEASURE( 0.02539999999999999897 ), #324 );
#285 = ADVANCED_FACE ( 'NONE', ( #169 ), #141, .T. ) ;
#286 = CARTESIAN_POINT ( 'NONE',  ( -1.148106374200643401E-17, 0.09374999999999998612, 0.000000000000000000 ) ) ;
#287 =( NAMED_UNIT ( * ) SI_UNIT ( $, .STERADIAN. ) SOLID_ANGLE_UNIT ( ) );
#288 = PRODUCT ( '84411', '84411', '', ( #8 ) ) ;
#289 = EDGE_CURVE ( 'NONE', #366, #369, #371, .T. ) ;
#290 =( NAMED_UNIT ( * ) PLANE_ANGLE_UNIT ( ) SI_UNIT ( $, .RADIAN. ) );
#291 = PLANE ( 'NONE',  #363 ) ;
#292 = DIMENSIONAL_EXPONENTS ( 1.000000000000000000, 0.000000000000000000, 0.000000000000000000, 0.000000000000000000, 0.000000000000000000, 0.000000000000000000, 0.000000000000000000 ) ;
#293 = VECTOR ( 'NONE', #258, 39.37007874015748143 ) ;
#294 = MECHANICAL_DESIGN_GEOMETRIC_PRESENTATION_REPRESENTATION (  '', ( #33 ), #241 ) ;
#295 =( NAMED_UNIT ( * ) SI_UNIT ( $, .STERADIAN. ) SOLID_ANGLE_UNIT ( ) );
#296 = FACE_OUTER_BOUND ( 'NONE', #243, .T. ) ;
#297 = EDGE_CURVE ( 'NONE', #275, #101, #149, .T. ) ;
#298 = CARTESIAN_POINT ( 'NONE',  ( 0.09374999999999995837, 2.000000000000000000, 1.148106374200641860E-17 ) ) ;
#299 = AXIS2_PLACEMENT_3D ( 'NONE', #88, #325, #64 ) ;
#300 = DIRECTION ( 'NONE',  ( 0.000000000000000000, 0.000000000000000000, -1.000000000000000000 ) ) ;
#301 = DIRECTION ( 'NONE',  ( -8.327598234202004323E-17, 1.000000000000000000, -0.000000000000000000 ) ) ;
#302 = DIRECTION ( 'NONE',  ( -0.000000000000000000, -1.000000000000000000, -0.000000000000000000 ) ) ;
#303 = MANIFOLD_SOLID_BREP ( 'Revolve - Tool Body (Straight Shanked)', #56 ) ;
#304 = EDGE_LOOP ( 'NONE', ( #306, #71 ) ) ;
#305 = VERTEX_POINT ( 'NONE', #298 ) ;
#306 = ORIENTED_EDGE ( 'NONE', *, *, #297, .F. ) ;
#307 = VECTOR ( 'NONE', #263, 39.37007874015748143 ) ;
#308 = DIMENSIONAL_EXPONENTS ( 1.000000000000000000, 0.000000000000000000, 0.000000000000000000, 0.000000000000000000, 0.000000000000000000, 0.000000000000000000, 0.000000000000000000 ) ;
#309 = EDGE_LOOP ( 'NONE', ( #163, #103 ) ) ;
#310 = APPLICATION_CONTEXT ( 'automotive_design' ) ;
#311 =( LENGTH_UNIT ( ) NAMED_UNIT ( * ) SI_UNIT ( $, .METRE. ) );
#312 = AXIS2_PLACEMENT_3D ( 'NONE', #259, #11, #354 ) ;
#313 = ORIENTED_EDGE ( 'NONE', *, *, #112, .T. ) ;
#314 = ADVANCED_BREP_SHAPE_REPRESENTATION ( '84411', ( #55, #303, #312 ), #42 ) ;
#315 = ORIENTED_EDGE ( 'NONE', *, *, #76, .T. ) ;
#316 = CIRCLE ( 'NONE', #69, 0.09374999999999975020 ) ;
#317 = ORIENTED_EDGE ( 'NONE', *, *, #226, .T. ) ;
#318 = FACE_OUTER_BOUND ( 'NONE', #160, .T. ) ;
#319 = CIRCLE ( 'NONE', #65, 0.09374999999999998612 ) ;
#320 = EDGE_CURVE ( 'NONE', #366, #75, #319, .T. ) ;
#321 = AXIS2_PLACEMENT_3D ( 'NONE', #233, #351, #109 ) ;
#322 = CARTESIAN_POINT ( 'NONE',  ( 0.000000000000000000, 0.09375000000000001388, 0.000000000000000000 ) ) ;
#323 = CARTESIAN_POINT ( 'NONE',  ( 0.09374999999999998612, 0.09375000000000001388, 0.000000000000000000 ) ) ;
#324 =( LENGTH_UNIT ( ) NAMED_UNIT ( * ) SI_UNIT ( $, .METRE. ) );
#325 = DIRECTION ( 'NONE',  ( 1.224646799147353207E-16, -0.000000000000000000, 1.000000000000000000 ) ) ;
#326 = UNCERTAINTY_MEASURE_WITH_UNIT (LENGTH_MEASURE( 1.000000000000000082E-05 ), #256, 'distance_accuracy_value', 'NONE');
#327 =( NAMED_UNIT ( * ) PLANE_ANGLE_UNIT ( ) SI_UNIT ( $, .RADIAN. ) );
#328 = ADVANCED_FACE ( 'NONE', ( #296 ), #67, .T. ) ;
#329 = STYLED_ITEM ( 'NONE', ( #231 ), #285 ) ;
#330 = FACE_OUTER_BOUND ( 'NONE', #339, .T. ) ;
#331 = DIRECTION ( 'NONE',  ( -0.000000000000000000, -1.000000000000000000, -0.000000000000000000 ) ) ;
#332 = DIRECTION ( 'NONE',  ( -0.000000000000000000, -1.000000000000000000, -0.000000000000000000 ) ) ;
#333 = ORIENTED_EDGE ( 'NONE', *, *, #13, .T. ) ;
#334 = MECHANICAL_DESIGN_GEOMETRIC_PRESENTATION_REPRESENTATION (  '', ( #144 ), #173 ) ;
#335 = CARTESIAN_POINT ( 'NONE',  ( 0.000000000000000000, 0.09375000000000001388, 0.000000000000000000 ) ) ;
#336 = ADVANCED_FACE ( 'NONE', ( #143 ), #291, .F. ) ;
#337 = ORIENTED_EDGE ( 'NONE', *, *, #320, .T. ) ;
#338 = COLOUR_RGB ( '',1.000000000000000000, 0.000000000000000000, 0.000000000000000000 ) ;
#339 = EDGE_LOOP ( 'NONE', ( #129, #317, #252, #340 ) ) ;
#340 = ORIENTED_EDGE ( 'NONE', *, *, #112, .F. ) ;
#341 =( CONVERSION_BASED_UNIT ( 'INCH', #223 ) LENGTH_UNIT ( ) NAMED_UNIT ( #292 ) );
#342 = ADVANCED_FACE ( 'NONE', ( #353 ), #36, .F. ) ;
#343 = FILL_AREA_STYLE ('',( #218 ) ) ;
#344 = CARTESIAN_POINT ( 'NONE',  ( 1.148106374200643247E-17, 0.000000000000000000, 0.09374999999999997224 ) ) ;
#345 = COLOUR_RGB ( '',1.000000000000000000, 0.000000000000000000, 0.000000000000000000 ) ;
#346 = ORIENTED_EDGE ( 'NONE', *, *, #73, .T. ) ;
#347 = LENGTH_MEASURE_WITH_UNIT ( LENGTH_MEASURE( 0.02539999999999999897 ), #251 );
#348 = CARTESIAN_POINT ( 'NONE',  ( 0.09374999999999988898, 2.000000000000000000, 1.148106374200641398E-17 ) ) ;
#349 = DIRECTION ( 'NONE',  ( -1.000000000000000000, 0.000000000000000000, 0.000000000000000000 ) ) ;
#350 = SHAPE_DEFINITION_REPRESENTATION ( #90, #314 ) ;
#351 = DIRECTION ( 'NONE',  ( -8.327598234202004323E-17, 1.000000000000000000, -0.000000000000000000 ) ) ;
#352 =( GEOMETRIC_REPRESENTATION_CONTEXT ( 3 ) GLOBAL_UNCERTAINTY_ASSIGNED_CONTEXT ( ( #326 ) ) GLOBAL_UNIT_ASSIGNED_CONTEXT ( ( #256, #86, #91 ) ) REPRESENTATION_CONTEXT ( 'NONE', 'WORKASPACE' ) );
#353 = FACE_OUTER_BOUND ( 'NONE', #304, .T. ) ;
#354 = DIRECTION ( 'NONE',  ( 1.000000000000000000, 0.000000000000000000, 0.000000000000000000 ) ) ;
#355 = DIRECTION ( 'NONE',  ( -0.000000000000000000, -1.000000000000000000, -0.000000000000000000 ) ) ;
#356 = FILL_AREA_STYLE ('',( #41 ) ) ;
#357 = AXIS2_PLACEMENT_3D ( 'NONE', #6, #355, #85 ) ;
#358 = CARTESIAN_POINT ( 'NONE',  ( 6.123233995736766036E-17, 2.000000000000000000, 0.000000000000000000 ) ) ;
#359 = CIRCLE ( 'NONE', #221, 0.09374999999999998612 ) ;
#360 = DIRECTION ( 'NONE',  ( 0.000000000000000000, 0.000000000000000000, 1.000000000000000000 ) ) ;
#361 = ORIENTED_EDGE ( 'NONE', *, *, #113, .T. ) ;
#362 = DIRECTION ( 'NONE',  ( 0.000000000000000000, 0.000000000000000000, -1.000000000000000000 ) ) ;
#363 = AXIS2_PLACEMENT_3D ( 'NONE', #87, #147, #208 ) ;
#364 = DIMENSIONAL_EXPONENTS ( 1.000000000000000000, 0.000000000000000000, 0.000000000000000000, 0.000000000000000000, 0.000000000000000000, 0.000000000000000000, 0.000000000000000000 ) ;
#365 = MECHANICAL_DESIGN_GEOMETRIC_PRESENTATION_REPRESENTATION (  '', ( #146 ), #215 ) ;
#366 = VERTEX_POINT ( 'NONE', #323 ) ;
#367 = EDGE_CURVE ( 'NONE', #191, #75, #168, .T. ) ;
#368 = PLANE ( 'NONE',  #124 ) ;
#369 = VERTEX_POINT ( 'NONE', #63 ) ;
#370 = MECHANICAL_DESIGN_GEOMETRIC_PRESENTATION_REPRESENTATION (  '', ( #267 ), #39 ) ;
#371 = CIRCLE ( 'NONE', #96, 0.09374999999999998612 ) ;
#372 = ORIENTED_EDGE ( 'NONE', *, *, #234, .F. ) ;
#373 = UNCERTAINTY_MEASURE_WITH_UNIT (LENGTH_MEASURE( 1.000000000000000082E-05 ), #199, 'distance_accuracy_value', 'NONE');
ENDSEC;
END-ISO-10303-21;
