ISO-10303-21;
HEADER;
FILE_DESCRIPTION (( 'STEP AP214' ),
    '1' );
FILE_NAME ('59574.STEP',
    '2023-07-24T15:49:23',
    ( '' ),
    ( '' ),
    'SwSTEP 2.0',
    'SolidWorks 2023',
    '' );
FILE_SCHEMA (( 'AUTOMOTIVE_DESIGN' ));
ENDSEC;

DATA;
#1 = CLOSED_SHELL ( 'NONE', ( #120, #3, #209, #154 ) ) ;
#2 = PLANE ( 'NONE',  #99 ) ;
#3 = ADVANCED_FACE ( 'NONE', ( #100 ), #250, .F. ) ;
#4 = AXIS2_PLACEMENT_3D ( 'NONE', #219, #161, #31 ) ;
#5 = AXIS2_PLACEMENT_3D ( 'NONE', #206, #224, #107 ) ;
#6 = CLOSED_SHELL ( 'NONE', ( #13, #88, #22, #96 ) ) ;
#7 = VECTOR ( 'NONE', #150, 1000.000000000000000 ) ;
#8 = DIRECTION ( 'NONE',  ( -0.000000000000000000, -1.000000000000000000, -0.000000000000000000 ) ) ;
#9 = SURFACE_STYLE_USAGE ( .BOTH. , #131 ) ;
#10 =( GEOMETRIC_REPRESENTATION_CONTEXT ( 3 ) GLOBAL_UNCERTAINTY_ASSIGNED_CONTEXT ( ( #35 ) ) GLOBAL_UNIT_ASSIGNED_CONTEXT ( ( #21, #54, #76 ) ) REPRESENTATION_CONTEXT ( 'NONE', 'WORKASPACE' ) );
#11 = DIRECTION ( 'NONE',  ( 2.721437331438562546E-17, 1.000000000000000000, -0.000000000000000000 ) ) ;
#12 =( NAMED_UNIT ( * ) SI_UNIT ( $, .STERADIAN. ) SOLID_ANGLE_UNIT ( ) );
#13 = ADVANCED_FACE ( 'NONE', ( #124 ), #255, .T. ) ;
#14 = EDGE_LOOP ( 'NONE', ( #53, #188, #106, #265 ) ) ;
#15 = DIRECTION ( 'NONE',  ( 2.721437331438562546E-17, 1.000000000000000000, -0.000000000000000000 ) ) ;
#16 = DIRECTION ( 'NONE',  ( 0.000000000000000000, 0.000000000000000000, -1.000000000000000000 ) ) ;
#17 = DIRECTION ( 'NONE',  ( 0.000000000000000000, 0.000000000000000000, -1.000000000000000000 ) ) ;
#18 = DIRECTION ( 'NONE',  ( -1.000000000000000000, 0.000000000000000000, 0.000000000000000000 ) ) ;
#19 = SURFACE_SIDE_STYLE ('',( #45 ) ) ;
#20 = CARTESIAN_POINT ( 'NONE',  ( 1.469576158976823750E-15, 63.00000000000000000, 0.000000000000000000 ) ) ;
#21 =( LENGTH_UNIT ( ) NAMED_UNIT ( * ) SI_UNIT ( .MILLI., .METRE. ) );
#22 = ADVANCED_FACE ( 'NONE', ( #187 ), #115, .T. ) ;
#23 =( NAMED_UNIT ( * ) SI_UNIT ( $, .STERADIAN. ) SOLID_ANGLE_UNIT ( ) );
#24 = STYLED_ITEM ( 'NONE', ( #71 ), #96 ) ;
#25 = SURFACE_SIDE_STYLE ('',( #66 ) ) ;
#26 = PLANE ( 'NONE',  #129 ) ;
#27 = SURFACE_STYLE_FILL_AREA ( #117 ) ;
#28 = COLOUR_RGB ( '',1.000000000000000000, 0.000000000000000000, 0.000000000000000000 ) ;
#29 = COLOUR_RGB ( '',0.7921568627450980005, 0.8196078431372548767, 0.9333333333333333481 ) ;
#30 =( LENGTH_UNIT ( ) NAMED_UNIT ( * ) SI_UNIT ( .MILLI., .METRE. ) );
#31 = DIRECTION ( 'NONE',  ( -1.000000000000000000, 2.721437331438562546E-17, 0.000000000000000000 ) ) ;
#32 = COLOUR_RGB ( '',1.000000000000000000, 0.000000000000000000, 0.000000000000000000 ) ;
#33 = STYLED_ITEM ( 'NONE', ( #236 ), #271 ) ;
#34 = PRODUCT_RELATED_PRODUCT_CATEGORY ( 'part', '', ( #141 ) ) ;
#35 = UNCERTAINTY_MEASURE_WITH_UNIT (LENGTH_MEASURE( 1.000000000000000082E-05 ), #21, 'distance_accuracy_value', 'NONE');
#36 = CARTESIAN_POINT ( 'NONE',  ( 3.673940397442059868E-16, 0.000000000000000000, 3.000000000000000000 ) ) ;
#37 =( LENGTH_UNIT ( ) NAMED_UNIT ( * ) SI_UNIT ( .MILLI., .METRE. ) );
#38 = EDGE_LOOP ( 'NONE', ( #173, #247, #229, #277 ) ) ;
#39 = APPLICATION_PROTOCOL_DEFINITION ( 'draft international standard', 'automotive_design', 1998, #44 ) ;
#40 = CARTESIAN_POINT ( 'NONE',  ( 1.469576158976823750E-15, 63.00000000000000000, 0.000000000000000000 ) ) ;
#41 = PRESENTATION_LAYER_ASSIGNMENT (  '', '', ( #113 ) ) ;
#42 = DIRECTION ( 'NONE',  ( -0.000000000000000000, -1.000000000000000000, -0.000000000000000000 ) ) ;
#43 = EDGE_CURVE ( 'NONE', #272, #55, #138, .T. ) ;
#44 = APPLICATION_CONTEXT ( 'automotive_design' ) ;
#45 = SURFACE_STYLE_FILL_AREA ( #85 ) ;
#46 = DIRECTION ( 'NONE',  ( 0.000000000000000000, 0.000000000000000000, -1.000000000000000000 ) ) ;
#47 = UNCERTAINTY_MEASURE_WITH_UNIT (LENGTH_MEASURE( 1.000000000000000082E-05 ), #30, 'distance_accuracy_value', 'NONE');
#48 = CARTESIAN_POINT ( 'NONE',  ( 3.000000000000000000, 63.00000000000000000, 0.000000000000000000 ) ) ;
#49 =( LENGTH_UNIT ( ) NAMED_UNIT ( * ) SI_UNIT ( .MILLI., .METRE. ) );
#50 = MECHANICAL_DESIGN_GEOMETRIC_PRESENTATION_REPRESENTATION (  '', ( #240 ), #139 ) ;
#51 = DIRECTION ( 'NONE',  ( -0.000000000000000000, -1.000000000000000000, -0.000000000000000000 ) ) ;
#52 = PRESENTATION_STYLE_ASSIGNMENT (( #140 ) ) ;
#53 = ORIENTED_EDGE ( 'NONE', *, *, #180, .F. ) ;
#54 =( NAMED_UNIT ( * ) PLANE_ANGLE_UNIT ( ) SI_UNIT ( $, .RADIAN. ) );
#55 = VERTEX_POINT ( 'NONE', #264 ) ;
#56 = COLOUR_RGB ( '',1.000000000000000000, 0.000000000000000000, 0.000000000000000000 ) ;
#57 = VERTEX_POINT ( 'NONE', #178 ) ;
#58 = VERTEX_POINT ( 'NONE', #239 ) ;
#59 = EDGE_CURVE ( 'NONE', #155, #137, #251, .T. ) ;
#60 = ORIENTED_EDGE ( 'NONE', *, *, #59, .F. ) ;
#61 = AXIS2_PLACEMENT_3D ( 'NONE', #20, #64, #116 ) ;
#62 = ORIENTED_EDGE ( 'NONE', *, *, #65, .T. ) ;
#63 = APPLICATION_PROTOCOL_DEFINITION ( 'draft international standard', 'automotive_design', 1998, #77 ) ;
#64 = DIRECTION ( 'NONE',  ( 2.721437331438562546E-17, 1.000000000000000000, -0.000000000000000000 ) ) ;
#65 = EDGE_CURVE ( 'NONE', #272, #57, #167, .T. ) ;
#66 = SURFACE_STYLE_FILL_AREA ( #241 ) ;
#67 = VERTEX_POINT ( 'NONE', #121 ) ;
#68 = AXIS2_PLACEMENT_3D ( 'NONE', #136, #95, #266 ) ;
#69 = AXIS2_PLACEMENT_3D ( 'NONE', #190, #15, #194 ) ;
#70 = EDGE_LOOP ( 'NONE', ( #60, #156 ) ) ;
#71 = PRESENTATION_STYLE_ASSIGNMENT (( #262 ) ) ;
#72 = ORIENTED_EDGE ( 'NONE', *, *, #234, .T. ) ;
#73 = FILL_AREA_STYLE_COLOUR ( '', #29 ) ;
#74 = EDGE_LOOP ( 'NONE', ( #80, #197, #196, #179 ) ) ;
#75 =( GEOMETRIC_REPRESENTATION_CONTEXT ( 3 ) GLOBAL_UNCERTAINTY_ASSIGNED_CONTEXT ( ( #207 ) ) GLOBAL_UNIT_ASSIGNED_CONTEXT ( ( #130, #172, #204 ) ) REPRESENTATION_CONTEXT ( 'NONE', 'WORKASPACE' ) );
#76 =( NAMED_UNIT ( * ) SI_UNIT ( $, .STERADIAN. ) SOLID_ANGLE_UNIT ( ) );
#77 = APPLICATION_CONTEXT ( 'automotive_design' ) ;
#78 = CYLINDRICAL_SURFACE ( 'NONE', #263, 2.999999999999999112 ) ;
#79 =( LENGTH_UNIT ( ) NAMED_UNIT ( * ) SI_UNIT ( .MILLI., .METRE. ) );
#80 = ORIENTED_EDGE ( 'NONE', *, *, #59, .T. ) ;
#81 = AXIS2_PLACEMENT_3D ( 'NONE', #237, #135, #18 ) ;
#82 = FILL_AREA_STYLE_COLOUR ( '', #28 ) ;
#83 =( NAMED_UNIT ( * ) SI_UNIT ( $, .STERADIAN. ) SOLID_ANGLE_UNIT ( ) );
#84 = CARTESIAN_POINT ( 'NONE',  ( 0.000000000000000000, 9.000000000000000000, 0.000000000000000000 ) ) ;
#85 = FILL_AREA_STYLE ('',( #82 ) ) ;
#86 = ORIENTED_EDGE ( 'NONE', *, *, #43, .F. ) ;
#87 = SURFACE_SIDE_STYLE ('',( #143 ) ) ;
#88 = ADVANCED_FACE ( 'NONE', ( #151 ), #2, .T. ) ;
#89 = CYLINDRICAL_SURFACE ( 'NONE', #94, 2.999999999999999112 ) ;
#90 = CARTESIAN_POINT ( 'NONE',  ( 0.000000000000000000, 0.000000000000000000, -3.000000000000000000 ) ) ;
#91 = SHAPE_DEFINITION_REPRESENTATION ( #103, #249 ) ;
#92 = MANIFOLD_SOLID_BREP ( 'Revolve - Tool Body (Straight Shanked)', #1 ) ;
#93 = DIRECTION ( 'NONE',  ( 0.000000000000000000, 1.000000000000000000, 0.000000000000000000 ) ) ;
#94 = AXIS2_PLACEMENT_3D ( 'NONE', #112, #128, #278 ) ;
#95 = DIRECTION ( 'NONE',  ( 2.721437331438562546E-17, 1.000000000000000000, -0.000000000000000000 ) ) ;
#96 = ADVANCED_FACE ( 'NONE', ( #214 ), #26, .T. ) ;
#97 = DIRECTION ( 'NONE',  ( 0.000000000000000000, 0.000000000000000000, -1.000000000000000000 ) ) ;
#98 = MECHANICAL_DESIGN_GEOMETRIC_PRESENTATION_REPRESENTATION (  '', ( #113 ), #184 ) ;
#99 = AXIS2_PLACEMENT_3D ( 'NONE', #212, #93, #215 ) ;
#100 = FACE_OUTER_BOUND ( 'NONE', #70, .T. ) ;
#101 = AXIS2_PLACEMENT_3D ( 'NONE', #147, #231, #16 ) ;
#102 = CARTESIAN_POINT ( 'NONE',  ( 3.673940397442059868E-16, 0.000000000000000000, 3.000000000000000000 ) ) ;
#103 = PRODUCT_DEFINITION_SHAPE ( 'NONE', 'NONE',  #269 ) ;
#104 = PRODUCT_DEFINITION_CONTEXT ( 'detailed design', #44, 'design' ) ;
#105 = LINE ( 'NONE', #202, #257 ) ;
#106 = ORIENTED_EDGE ( 'NONE', *, *, #146, .T. ) ;
#107 = DIRECTION ( 'NONE',  ( 1.000000000000000000, 0.000000000000000000, 0.000000000000000000 ) ) ;
#108 = EDGE_CURVE ( 'NONE', #57, #111, #223, .T. ) ;
#109 = FACE_OUTER_BOUND ( 'NONE', #226, .T. ) ;
#110 = CARTESIAN_POINT ( 'NONE',  ( 0.000000000000000000, 0.000000000000000000, 0.000000000000000000 ) ) ;
#111 = VERTEX_POINT ( 'NONE', #102 ) ;
#112 = CARTESIAN_POINT ( 'NONE',  ( 1.469576158976823750E-15, 63.00000000000000000, 0.000000000000000000 ) ) ;
#113 = STYLED_ITEM ( 'NONE', ( #191 ), #22 ) ;
#114 = CARTESIAN_POINT ( 'NONE',  ( -3.000000000000000000, 9.000000000000001776, 0.000000000000000000 ) ) ;
#115 = CYLINDRICAL_SURFACE ( 'NONE', #101, 3.000000000000000000 ) ;
#116 = DIRECTION ( 'NONE',  ( -1.000000000000000000, 0.000000000000000000, 0.000000000000000000 ) ) ;
#117 = FILL_AREA_STYLE ('',( #73 ) ) ;
#118 = FILL_AREA_STYLE_COLOUR ( '', #56 ) ;
#119 =( GEOMETRIC_REPRESENTATION_CONTEXT ( 3 ) GLOBAL_UNCERTAINTY_ASSIGNED_CONTEXT ( ( #47 ) ) GLOBAL_UNIT_ASSIGNED_CONTEXT ( ( #30, #158, #12 ) ) REPRESENTATION_CONTEXT ( 'NONE', 'WORKASPACE' ) );
#120 = ADVANCED_FACE ( 'NONE', ( #270 ), #78, .T. ) ;
#121 = CARTESIAN_POINT ( 'NONE',  ( 3.000000000000000444, 63.00000000000000000, 3.673940397442059868E-16 ) ) ;
#122 = FILL_AREA_STYLE_COLOUR ( '', #268 ) ;
#123 = AXIS2_PLACEMENT_3D ( 'NONE', #84, #42, #46 ) ;
#124 = FACE_OUTER_BOUND ( 'NONE', #218, .T. ) ;
#125 = PRESENTATION_LAYER_ASSIGNMENT (  '', '', ( #216 ) ) ;
#126 = CARTESIAN_POINT ( 'NONE',  ( 3.000000000000000444, 9.000000000000001776, 3.673940397442059868E-16 ) ) ;
#127 =( NAMED_UNIT ( * ) PLANE_ANGLE_UNIT ( ) SI_UNIT ( $, .RADIAN. ) );
#128 = DIRECTION ( 'NONE',  ( 2.721437331438562546E-17, 1.000000000000000000, -0.000000000000000000 ) ) ;
#129 = AXIS2_PLACEMENT_3D ( 'NONE', #110, #279, #225 ) ;
#130 =( LENGTH_UNIT ( ) NAMED_UNIT ( * ) SI_UNIT ( .MILLI., .METRE. ) );
#131 = SURFACE_SIDE_STYLE ('',( #256 ) ) ;
#132 = DIRECTION ( 'NONE',  ( 1.000000000000000000, -2.721437331438562546E-17, 0.000000000000000000 ) ) ;
#133 =( NAMED_UNIT ( * ) PLANE_ANGLE_UNIT ( ) SI_UNIT ( $, .RADIAN. ) );
#134 = PRESENTATION_LAYER_ASSIGNMENT (  '', '', ( #24 ) ) ;
#135 = DIRECTION ( 'NONE',  ( 2.721437331438562546E-17, 1.000000000000000000, -0.000000000000000000 ) ) ;
#136 = CARTESIAN_POINT ( 'NONE',  ( 0.000000000000000000, 9.000000000000001776, 0.000000000000000000 ) ) ;
#137 = VERTEX_POINT ( 'NONE', #126 ) ;
#138 = LINE ( 'NONE', #90, #244 ) ;
#139 =( GEOMETRIC_REPRESENTATION_CONTEXT ( 3 ) GLOBAL_UNCERTAINTY_ASSIGNED_CONTEXT ( ( #200 ) ) GLOBAL_UNIT_ASSIGNED_CONTEXT ( ( #243, #157, #23 ) ) REPRESENTATION_CONTEXT ( 'NONE', 'WORKASPACE' ) );
#140 = SURFACE_STYLE_USAGE ( .BOTH. , #25 ) ;
#141 = PRODUCT ( '59574', '59574', '', ( #288 ) ) ;
#142 = UNCERTAINTY_MEASURE_WITH_UNIT (LENGTH_MEASURE( 1.000000000000000082E-05 ), #37, 'distance_accuracy_value', 'NONE');
#143 = SURFACE_STYLE_FILL_AREA ( #284 ) ;
#144 = EDGE_LOOP ( 'NONE', ( #253, #261 ) ) ;
#145 = CARTESIAN_POINT ( 'NONE',  ( 0.000000000000000000, 0.000000000000000000, 0.000000000000000000 ) ) ;
#146 = EDGE_CURVE ( 'NONE', #155, #58, #105, .T. ) ;
#147 = CARTESIAN_POINT ( 'NONE',  ( 0.000000000000000000, 0.000000000000000000, 0.000000000000000000 ) ) ;
#148 = UNCERTAINTY_MEASURE_WITH_UNIT (LENGTH_MEASURE( 1.000000000000000082E-05 ), #79, 'distance_accuracy_value', 'NONE');
#149 =( NAMED_UNIT ( * ) SI_UNIT ( $, .STERADIAN. ) SOLID_ANGLE_UNIT ( ) );
#150 = DIRECTION ( 'NONE',  ( 2.721437331438562546E-17, 1.000000000000000000, -0.000000000000000000 ) ) ;
#151 = FACE_OUTER_BOUND ( 'NONE', #144, .T. ) ;
#152 = STYLED_ITEM ( 'NONE', ( #203 ), #13 ) ;
#153 = MECHANICAL_DESIGN_GEOMETRIC_PRESENTATION_REPRESENTATION (  '', ( #33 ), #160 ) ;
#154 = ADVANCED_FACE ( 'NONE', ( #109 ), #171, .F. ) ;
#155 = VERTEX_POINT ( 'NONE', #114 ) ;
#156 = ORIENTED_EDGE ( 'NONE', *, *, #185, .F. ) ;
#157 =( NAMED_UNIT ( * ) PLANE_ANGLE_UNIT ( ) SI_UNIT ( $, .RADIAN. ) );
#158 =( NAMED_UNIT ( * ) PLANE_ANGLE_UNIT ( ) SI_UNIT ( $, .RADIAN. ) );
#159 =( GEOMETRIC_REPRESENTATION_CONTEXT ( 3 ) GLOBAL_UNCERTAINTY_ASSIGNED_CONTEXT ( ( #142 ) ) GLOBAL_UNIT_ASSIGNED_CONTEXT ( ( #37, #127, #149 ) ) REPRESENTATION_CONTEXT ( 'NONE', 'WORKASPACE' ) );
#160 =( GEOMETRIC_REPRESENTATION_CONTEXT ( 3 ) GLOBAL_UNCERTAINTY_ASSIGNED_CONTEXT ( ( #170 ) ) GLOBAL_UNIT_ASSIGNED_CONTEXT ( ( #49, #230, #83 ) ) REPRESENTATION_CONTEXT ( 'NONE', 'WORKASPACE' ) );
#161 = DIRECTION ( 'NONE',  ( 2.721437331438562546E-17, 1.000000000000000000, -0.000000000000000000 ) ) ;
#162 = AXIS2_PLACEMENT_3D ( 'NONE', #267, #242, #97 ) ;
#163 = PRODUCT_DEFINITION_FORMATION_WITH_SPECIFIED_SOURCE ( 'ANY', '', #141, .NOT_KNOWN. ) ;
#164 = SURFACE_STYLE_USAGE ( .BOTH. , #19 ) ;
#165 = DIRECTION ( 'NONE',  ( -1.000000000000000000, 0.000000000000000000, 0.000000000000000000 ) ) ;
#166 = ORIENTED_EDGE ( 'NONE', *, *, #108, .T. ) ;
#167 = CIRCLE ( 'NONE', #162, 3.000000000000000000 ) ;
#168 = CIRCLE ( 'NONE', #81, 3.000000000000000000 ) ;
#169 = CARTESIAN_POINT ( 'NONE',  ( 0.000000000000000000, 9.000000000000000000, -3.000000000000000000 ) ) ;
#170 = UNCERTAINTY_MEASURE_WITH_UNIT (LENGTH_MEASURE( 1.000000000000000082E-05 ), #49, 'distance_accuracy_value', 'NONE');
#171 = PLANE ( 'NONE',  #199 ) ;
#172 =( NAMED_UNIT ( * ) PLANE_ANGLE_UNIT ( ) SI_UNIT ( $, .RADIAN. ) );
#173 = ORIENTED_EDGE ( 'NONE', *, *, #108, .F. ) ;
#174 = EDGE_CURVE ( 'NONE', #58, #67, #177, .T. ) ;
#175 = SURFACE_STYLE_FILL_AREA ( #260 ) ;
#176 = ORIENTED_EDGE ( 'NONE', *, *, #220, .T. ) ;
#177 = CIRCLE ( 'NONE', #61, 2.999999999999998668 ) ;
#178 = CARTESIAN_POINT ( 'NONE',  ( 3.673940397442059868E-16, 9.000000000000000000, 3.000000000000000000 ) ) ;
#179 = ORIENTED_EDGE ( 'NONE', *, *, #146, .F. ) ;
#180 = EDGE_CURVE ( 'NONE', #137, #67, #233, .T. ) ;
#181 = SURFACE_SIDE_STYLE ('',( #175 ) ) ;
#182 = MECHANICAL_DESIGN_GEOMETRIC_PRESENTATION_REPRESENTATION (  '', ( #24 ), #119 ) ;
#183 = ORIENTED_EDGE ( 'NONE', *, *, #189, .F. ) ;
#184 =( GEOMETRIC_REPRESENTATION_CONTEXT ( 3 ) GLOBAL_UNCERTAINTY_ASSIGNED_CONTEXT ( ( #148 ) ) GLOBAL_UNIT_ASSIGNED_CONTEXT ( ( #79, #133, #280 ) ) REPRESENTATION_CONTEXT ( 'NONE', 'WORKASPACE' ) );
#185 = EDGE_CURVE ( 'NONE', #137, #155, #168, .T. ) ;
#186 = VECTOR ( 'NONE', #8, 1000.000000000000000 ) ;
#187 = FACE_OUTER_BOUND ( 'NONE', #38, .T. ) ;
#188 = ORIENTED_EDGE ( 'NONE', *, *, #185, .T. ) ;
#189 = EDGE_CURVE ( 'NONE', #55, #111, #208, .T. ) ;
#190 = CARTESIAN_POINT ( 'NONE',  ( 1.469576158976823750E-15, 63.00000000000000000, 0.000000000000000000 ) ) ;
#191 = PRESENTATION_STYLE_ASSIGNMENT (( #164 ) ) ;
#192 = CARTESIAN_POINT ( 'NONE',  ( 3.000000000000000444, 63.00000000000000000, 3.673940397442058882E-16 ) ) ;
#193 = SURFACE_STYLE_USAGE ( .BOTH. , #246 ) ;
#194 = DIRECTION ( 'NONE',  ( -1.000000000000000000, 0.000000000000000000, 0.000000000000000000 ) ) ;
#195 = DIRECTION ( 'NONE',  ( 0.000000000000000000, 0.000000000000000000, -1.000000000000000000 ) ) ;
#196 = ORIENTED_EDGE ( 'NONE', *, *, #174, .F. ) ;
#197 = ORIENTED_EDGE ( 'NONE', *, *, #180, .T. ) ;
#198 = PRESENTATION_LAYER_ASSIGNMENT (  '', '', ( #240 ) ) ;
#199 = AXIS2_PLACEMENT_3D ( 'NONE', #48, #259, #132 ) ;
#200 = UNCERTAINTY_MEASURE_WITH_UNIT (LENGTH_MEASURE( 1.000000000000000082E-05 ), #243, 'distance_accuracy_value', 'NONE');
#201 = CARTESIAN_POINT ( 'NONE',  ( 0.000000000000000000, 0.000000000000000000, 0.000000000000000000 ) ) ;
#202 = CARTESIAN_POINT ( 'NONE',  ( -2.999999999999997780, 63.00000000000000000, 0.000000000000000000 ) ) ;
#203 = PRESENTATION_STYLE_ASSIGNMENT (( #228 ) ) ;
#204 =( NAMED_UNIT ( * ) SI_UNIT ( $, .STERADIAN. ) SOLID_ANGLE_UNIT ( ) );
#205 = ORIENTED_EDGE ( 'NONE', *, *, #174, .T. ) ;
#206 = CARTESIAN_POINT ( 'NONE',  ( 0.000000000000000000, 0.000000000000000000, 0.000000000000000000 ) ) ;
#207 = UNCERTAINTY_MEASURE_WITH_UNIT (LENGTH_MEASURE( 1.000000000000000082E-05 ), #130, 'distance_accuracy_value', 'NONE');
#208 = CIRCLE ( 'NONE', #245, 3.000000000000000000 ) ;
#209 = ADVANCED_FACE ( 'NONE', ( #210 ), #89, .T. ) ;
#210 = FACE_OUTER_BOUND ( 'NONE', #14, .T. ) ;
#211 = DIRECTION ( 'NONE',  ( -0.000000000000000000, -1.000000000000000000, -0.000000000000000000 ) ) ;
#212 = CARTESIAN_POINT ( 'NONE',  ( 0.000000000000000000, 9.000000000000000000, 0.000000000000000000 ) ) ;
#213 = EDGE_LOOP ( 'NONE', ( #281, #176 ) ) ;
#214 = FACE_OUTER_BOUND ( 'NONE', #213, .T. ) ;
#215 = DIRECTION ( 'NONE',  ( 0.000000000000000000, -0.000000000000000000, 1.000000000000000000 ) ) ;
#216 = STYLED_ITEM ( 'NONE', ( #52 ), #88 ) ;
#217 = FILL_AREA_STYLE_COLOUR ( '', #32 ) ;
#218 = EDGE_LOOP ( 'NONE', ( #62, #166, #183, #86 ) ) ;
#219 = CARTESIAN_POINT ( 'NONE',  ( 1.110933172342116556E-33, 9.000000000000000000, 0.000000000000000000 ) ) ;
#220 = EDGE_CURVE ( 'NONE', #111, #55, #227, .T. ) ;
#221 = AXIS2_PLACEMENT_3D ( 'NONE', #201, #258, #235 ) ;
#222 = COLOUR_RGB ( '',0.7921568627450980005, 0.8196078431372548767, 0.9333333333333333481 ) ;
#223 = LINE ( 'NONE', #36, #186 ) ;
#224 = DIRECTION ( 'NONE',  ( 0.000000000000000000, 0.000000000000000000, 1.000000000000000000 ) ) ;
#225 = DIRECTION ( 'NONE',  ( 0.000000000000000000, 0.000000000000000000, -1.000000000000000000 ) ) ;
#226 = EDGE_LOOP ( 'NONE', ( #205, #72 ) ) ;
#227 = CIRCLE ( 'NONE', #248, 3.000000000000000000 ) ;
#228 = SURFACE_STYLE_USAGE ( .BOTH. , #87 ) ;
#229 = ORIENTED_EDGE ( 'NONE', *, *, #43, .T. ) ;
#230 =( NAMED_UNIT ( * ) PLANE_ANGLE_UNIT ( ) SI_UNIT ( $, .RADIAN. ) );
#231 = DIRECTION ( 'NONE',  ( -0.000000000000000000, -1.000000000000000000, -0.000000000000000000 ) ) ;
#232 = DIRECTION ( 'NONE',  ( -0.000000000000000000, -1.000000000000000000, -0.000000000000000000 ) ) ;
#233 = LINE ( 'NONE', #192, #7 ) ;
#234 = EDGE_CURVE ( 'NONE', #67, #58, #252, .T. ) ;
#235 = DIRECTION ( 'NONE',  ( 0.000000000000000000, 0.000000000000000000, -1.000000000000000000 ) ) ;
#236 = PRESENTATION_STYLE_ASSIGNMENT (( #9 ) ) ;
#237 = CARTESIAN_POINT ( 'NONE',  ( 0.000000000000000000, 9.000000000000001776, 0.000000000000000000 ) ) ;
#238 = MECHANICAL_DESIGN_GEOMETRIC_PRESENTATION_REPRESENTATION (  '', ( #152 ), #159 ) ;
#239 = CARTESIAN_POINT ( 'NONE',  ( -2.999999999999997335, 63.00000000000000000, 0.000000000000000000 ) ) ;
#240 = STYLED_ITEM ( 'NONE', ( #287 ), #92 ) ;
#241 = FILL_AREA_STYLE ('',( #118 ) ) ;
#242 = DIRECTION ( 'NONE',  ( -0.000000000000000000, -1.000000000000000000, -0.000000000000000000 ) ) ;
#243 =( LENGTH_UNIT ( ) NAMED_UNIT ( * ) SI_UNIT ( .MILLI., .METRE. ) );
#244 = VECTOR ( 'NONE', #211, 1000.000000000000000 ) ;
#245 = AXIS2_PLACEMENT_3D ( 'NONE', #286, #51, #195 ) ;
#246 = SURFACE_SIDE_STYLE ('',( #27 ) ) ;
#247 = ORIENTED_EDGE ( 'NONE', *, *, #254, .T. ) ;
#248 = AXIS2_PLACEMENT_3D ( 'NONE', #145, #232, #17 ) ;
#249 = ADVANCED_BREP_SHAPE_REPRESENTATION ( '59574', ( #271, #92, #5 ), #75 ) ;
#250 = PLANE ( 'NONE',  #4 ) ;
#251 = CIRCLE ( 'NONE', #68, 3.000000000000000000 ) ;
#252 = CIRCLE ( 'NONE', #69, 2.999999999999998668 ) ;
#253 = ORIENTED_EDGE ( 'NONE', *, *, #65, .F. ) ;
#254 = EDGE_CURVE ( 'NONE', #57, #272, #283, .T. ) ;
#255 = CYLINDRICAL_SURFACE ( 'NONE', #221, 3.000000000000000000 ) ;
#256 = SURFACE_STYLE_FILL_AREA ( #285 ) ;
#257 = VECTOR ( 'NONE', #11, 1000.000000000000000 ) ;
#258 = DIRECTION ( 'NONE',  ( -0.000000000000000000, -1.000000000000000000, -0.000000000000000000 ) ) ;
#259 = DIRECTION ( 'NONE',  ( -2.721437331438562546E-17, -1.000000000000000000, 0.000000000000000000 ) ) ;
#260 = FILL_AREA_STYLE ('',( #122 ) ) ;
#261 = ORIENTED_EDGE ( 'NONE', *, *, #254, .F. ) ;
#262 = SURFACE_STYLE_USAGE ( .BOTH. , #181 ) ;
#263 = AXIS2_PLACEMENT_3D ( 'NONE', #40, #276, #165 ) ;
#264 = CARTESIAN_POINT ( 'NONE',  ( 0.000000000000000000, 0.000000000000000000, -3.000000000000000000 ) ) ;
#265 = ORIENTED_EDGE ( 'NONE', *, *, #234, .F. ) ;
#266 = DIRECTION ( 'NONE',  ( -1.000000000000000000, 0.000000000000000000, 0.000000000000000000 ) ) ;
#267 = CARTESIAN_POINT ( 'NONE',  ( 0.000000000000000000, 9.000000000000000000, 0.000000000000000000 ) ) ;
#268 = COLOUR_RGB ( '',1.000000000000000000, 0.000000000000000000, 0.000000000000000000 ) ;
#269 = PRODUCT_DEFINITION ( 'UNKNOWN', '', #163, #104 ) ;
#270 = FACE_OUTER_BOUND ( 'NONE', #74, .T. ) ;
#271 = MANIFOLD_SOLID_BREP ( 'Revolve - Cutting Edge', #6 ) ;
#272 = VERTEX_POINT ( 'NONE', #169 ) ;
#273 = MECHANICAL_DESIGN_GEOMETRIC_PRESENTATION_REPRESENTATION (  '', ( #216 ), #10 ) ;
#274 = PRESENTATION_LAYER_ASSIGNMENT (  '', '', ( #33 ) ) ;
#275 = FILL_AREA_STYLE_COLOUR ( '', #222 ) ;
#276 = DIRECTION ( 'NONE',  ( 2.721437331438562546E-17, 1.000000000000000000, -0.000000000000000000 ) ) ;
#277 = ORIENTED_EDGE ( 'NONE', *, *, #220, .F. ) ;
#278 = DIRECTION ( 'NONE',  ( -1.000000000000000000, 0.000000000000000000, 0.000000000000000000 ) ) ;
#279 = DIRECTION ( 'NONE',  ( 0.000000000000000000, -1.000000000000000000, -0.000000000000000000 ) ) ;
#280 =( NAMED_UNIT ( * ) SI_UNIT ( $, .STERADIAN. ) SOLID_ANGLE_UNIT ( ) );
#281 = ORIENTED_EDGE ( 'NONE', *, *, #189, .T. ) ;
#282 = PRESENTATION_LAYER_ASSIGNMENT (  '', '', ( #152 ) ) ;
#283 = CIRCLE ( 'NONE', #123, 3.000000000000000000 ) ;
#284 = FILL_AREA_STYLE ('',( #217 ) ) ;
#285 = FILL_AREA_STYLE ('',( #275 ) ) ;
#286 = CARTESIAN_POINT ( 'NONE',  ( 0.000000000000000000, 0.000000000000000000, 0.000000000000000000 ) ) ;
#287 = PRESENTATION_STYLE_ASSIGNMENT (( #193 ) ) ;
#288 = PRODUCT_CONTEXT ( 'NONE', #77, 'mechanical' ) ;
ENDSEC;
END-ISO-10303-21;
