ISO-10303-21;
HEADER;
FILE_DESCRIPTION (( 'STEP AP214' ),
    '1' );
FILE_NAME ('59718.STEP',
    '2023-07-24T15:28:22',
    ( '' ),
    ( '' ),
    'SwSTEP 2.0',
    'SolidWorks 2023',
    '' );
FILE_SCHEMA (( 'AUTOMOTIVE_DESIGN' ));
ENDSEC;

DATA;
#1 = UNCERTAINTY_MEASURE_WITH_UNIT (LENGTH_MEASURE( 1.000000000000000082E-05 ), #157, 'distance_accuracy_value', 'NONE');
#2 = EDGE_CURVE ( 'NONE', #97, #292, #59, .T. ) ;
#3 = AXIS2_PLACEMENT_3D ( 'NONE', #254, #48, #119 ) ;
#4 = VECTOR ( 'NONE', #85, 1000.000000000000000 ) ;
#5 =( NAMED_UNIT ( * ) SI_UNIT ( $, .STERADIAN. ) SOLID_ANGLE_UNIT ( ) );
#6 = SURFACE_STYLE_USAGE ( .BOTH. , #60 ) ;
#7 = APPLICATION_PROTOCOL_DEFINITION ( 'draft international standard', 'automotive_design', 1998, #266 ) ;
#8 = CLOSED_SHELL ( 'NONE', ( #350, #175, #209, #274, #171, #321 ) ) ;
#9 = AXIS2_PLACEMENT_3D ( 'NONE', #311, #117, #143 ) ;
#10 = UNCERTAINTY_MEASURE_WITH_UNIT (LENGTH_MEASURE( 1.000000000000000082E-05 ), #304, 'distance_accuracy_value', 'NONE');
#11 = EDGE_LOOP ( 'NONE', ( #179, #103, #233, #15 ) ) ;
#12 = FILL_AREA_STYLE_COLOUR ( '', #319 ) ;
#13 = VERTEX_POINT ( 'NONE', #219 ) ;
#14 = COLOUR_RGB ( '',1.000000000000000000, 0.000000000000000000, 0.000000000000000000 ) ;
#15 = ORIENTED_EDGE ( 'NONE', *, *, #357, .F. ) ;
#16 = FACE_OUTER_BOUND ( 'NONE', #349, .T. ) ;
#17 = SURFACE_STYLE_FILL_AREA ( #44 ) ;
#18 = ORIENTED_EDGE ( 'NONE', *, *, #257, .F. ) ;
#19 = EDGE_CURVE ( 'NONE', #292, #137, #114, .T. ) ;
#20 = ORIENTED_EDGE ( 'NONE', *, *, #245, .T. ) ;
#21 = CARTESIAN_POINT ( 'NONE',  ( 0.000000000000000000, 1.000000000000000000, 0.000000000000000000 ) ) ;
#22 = PRESENTATION_LAYER_ASSIGNMENT (  '', '', ( #67 ) ) ;
#23 = PRODUCT_DEFINITION_FORMATION_WITH_SPECIFIED_SOURCE ( 'ANY', '', #197, .NOT_KNOWN. ) ;
#24 = FACE_OUTER_BOUND ( 'NONE', #237, .T. ) ;
#25 = DIRECTION ( 'NONE',  ( 0.000000000000000000, 1.000000000000000000, 0.000000000000000000 ) ) ;
#26 = CARTESIAN_POINT ( 'NONE',  ( 0.000000000000000000, 0.000000000000000000, -7.000000000000000000 ) ) ;
#27 = SURFACE_SIDE_STYLE ('',( #364 ) ) ;
#28 = CARTESIAN_POINT ( 'NONE',  ( 6.288372600415925717E-15, 23.99999999999999289, 0.000000000000000000 ) ) ;
#29 = MECHANICAL_DESIGN_GEOMETRIC_PRESENTATION_REPRESENTATION (  '', ( #113 ), #101 ) ;
#30 = SURFACE_SIDE_STYLE ('',( #80 ) ) ;
#31 = FACE_OUTER_BOUND ( 'NONE', #65, .T. ) ;
#32 = PRODUCT_CONTEXT ( 'NONE', #266, 'mechanical' ) ;
#33 = DIRECTION ( 'NONE',  ( -1.231212018341879827E-16, 1.000000000000000000, -0.000000000000000000 ) ) ;
#34 = PRODUCT_DEFINITION_SHAPE ( 'NONE', 'NONE',  #133 ) ;
#35 = DIRECTION ( 'NONE',  ( 0.000000000000000000, 0.000000000000000000, -1.000000000000000000 ) ) ;
#36 = ORIENTED_EDGE ( 'NONE', *, *, #19, .F. ) ;
#37 = ORIENTED_EDGE ( 'NONE', *, *, #288, .T. ) ;
#38 = FACE_OUTER_BOUND ( 'NONE', #352, .T. ) ;
#39 = ORIENTED_EDGE ( 'NONE', *, *, #226, .F. ) ;
#40 = MECHANICAL_DESIGN_GEOMETRIC_PRESENTATION_REPRESENTATION (  '', ( #76 ), #250 ) ;
#41 = ORIENTED_EDGE ( 'NONE', *, *, #317, .T. ) ;
#42 = DIRECTION ( 'NONE',  ( 0.000000000000000000, 0.000000000000000000, -1.000000000000000000 ) ) ;
#43 = ORIENTED_EDGE ( 'NONE', *, *, #49, .F. ) ;
#44 = FILL_AREA_STYLE ('',( #12 ) ) ;
#45 = CARTESIAN_POINT ( 'NONE',  ( 7.999999999999994671, 89.00000000000000000, 9.797174393178821713E-16 ) ) ;
#46 = SURFACE_SIDE_STYLE ('',( #17 ) ) ;
#47 =( NAMED_UNIT ( * ) SI_UNIT ( $, .STERADIAN. ) SOLID_ANGLE_UNIT ( ) );
#48 = DIRECTION ( 'NONE',  ( -1.000000000000000000, 0.000000000000000000, 0.000000000000000000 ) ) ;
#49 = EDGE_CURVE ( 'NONE', #137, #13, #223, .T. ) ;
#50 = DIRECTION ( 'NONE',  ( 1.000000000000000000, 0.000000000000000000, -1.224646799147353207E-16 ) ) ;
#51 =( NAMED_UNIT ( * ) SI_UNIT ( $, .STERADIAN. ) SOLID_ANGLE_UNIT ( ) );
#52 = CARTESIAN_POINT ( 'NONE',  ( 0.000000000000000000, 1.000000000000000000, 0.000000000000000000 ) ) ;
#53 = DIRECTION ( 'NONE',  ( -0.000000000000000000, -1.000000000000000000, -0.000000000000000000 ) ) ;
#54 = CARTESIAN_POINT ( 'NONE',  ( 9.797174393178825657E-16, 1.000000000000000000, 8.000000000000000000 ) ) ;
#55 =( GEOMETRIC_REPRESENTATION_CONTEXT ( 3 ) GLOBAL_UNCERTAINTY_ASSIGNED_CONTEXT ( ( #58 ) ) GLOBAL_UNIT_ASSIGNED_CONTEXT ( ( #106, #339, #47 ) ) REPRESENTATION_CONTEXT ( 'NONE', 'WORKASPACE' ) );
#56 =( GEOMETRIC_REPRESENTATION_CONTEXT ( 3 ) GLOBAL_UNCERTAINTY_ASSIGNED_CONTEXT ( ( #1 ) ) GLOBAL_UNIT_ASSIGNED_CONTEXT ( ( #157, #104, #140 ) ) REPRESENTATION_CONTEXT ( 'NONE', 'WORKASPACE' ) );
#57 = FILL_AREA_STYLE ('',( #107 ) ) ;
#58 = UNCERTAINTY_MEASURE_WITH_UNIT (LENGTH_MEASURE( 1.000000000000000082E-05 ), #106, 'distance_accuracy_value', 'NONE');
#59 = CIRCLE ( 'NONE', #139, 7.999999999999992895 ) ;
#60 = SURFACE_SIDE_STYLE ('',( #89 ) ) ;
#61 = UNCERTAINTY_MEASURE_WITH_UNIT (LENGTH_MEASURE( 1.000000000000000082E-05 ), #287, 'distance_accuracy_value', 'NONE');
#62 = CIRCLE ( 'NONE', #356, 7.000000000000000000 ) ;
#63 = DIRECTION ( 'NONE',  ( 0.000000000000000000, 0.000000000000000000, -1.000000000000000000 ) ) ;
#64 = CYLINDRICAL_SURFACE ( 'NONE', #202, 7.999999999999996447 ) ;
#65 = EDGE_LOOP ( 'NONE', ( #66, #70 ) ) ;
#66 = ORIENTED_EDGE ( 'NONE', *, *, #2, .F. ) ;
#67 = STYLED_ITEM ( 'NONE', ( #269 ), #175 ) ;
#68 = EDGE_LOOP ( 'NONE', ( #263, #270, #185, #183 ) ) ;
#69 = PRESENTATION_STYLE_ASSIGNMENT (( #161 ) ) ;
#70 = ORIENTED_EDGE ( 'NONE', *, *, #79, .F. ) ;
#71 = DIRECTION ( 'NONE',  ( 0.000000000000000000, 0.000000000000000000, -1.000000000000000000 ) ) ;
#72 = SURFACE_STYLE_USAGE ( .BOTH. , #333 ) ;
#73 = PRESENTATION_STYLE_ASSIGNMENT (( #252 ) ) ;
#74 = CARTESIAN_POINT ( 'NONE',  ( -1.714505518806293849E-15, 89.00000000000000000, 0.000000000000000000 ) ) ;
#75 = CIRCLE ( 'NONE', #152, 8.000000000000000000 ) ;
#76 = STYLED_ITEM ( 'NONE', ( #341 ), #340 ) ;
#77 = CARTESIAN_POINT ( 'NONE',  ( 9.184850993605147944E-16, 0.000000000000000000, 7.000000000000000000 ) ) ;
#78 = UNCERTAINTY_MEASURE_WITH_UNIT (LENGTH_MEASURE( 1.000000000000000082E-05 ), #195, 'distance_accuracy_value', 'NONE');
#79 = EDGE_CURVE ( 'NONE', #292, #97, #365, .T. ) ;
#80 = SURFACE_STYLE_FILL_AREA ( #57 ) ;
#81 = AXIS2_PLACEMENT_3D ( 'NONE', #187, #282, #315 ) ;
#82 = CARTESIAN_POINT ( 'NONE',  ( 0.000000000000000000, 0.000000000000000000, -8.000000000000000000 ) ) ;
#83 = PRODUCT_DEFINITION_CONTEXT ( 'detailed design', #90, 'design' ) ;
#84 = MANIFOLD_SOLID_BREP ( 'Revolve - Cutting Edge', #8 ) ;
#85 = DIRECTION ( 'NONE',  ( -0.000000000000000000, -1.000000000000000000, -0.000000000000000000 ) ) ;
#86 = AXIS2_PLACEMENT_3D ( 'NONE', #225, #122, #258 ) ;
#87 = CIRCLE ( 'NONE', #93, 7.000000000000000000 ) ;
#88 = AXIS2_PLACEMENT_3D ( 'NONE', #159, #264, #232 ) ;
#89 = SURFACE_STYLE_FILL_AREA ( #284 ) ;
#90 = APPLICATION_CONTEXT ( 'automotive_design' ) ;
#91 = APPLICATION_PROTOCOL_DEFINITION ( 'draft international standard', 'automotive_design', 1998, #90 ) ;
#92 = ORIENTED_EDGE ( 'NONE', *, *, #257, .T. ) ;
#93 = AXIS2_PLACEMENT_3D ( 'NONE', #313, #167, #149 ) ;
#94 = COLOUR_RGB ( '',1.000000000000000000, 0.000000000000000000, 0.000000000000000000 ) ;
#95 = VERTEX_POINT ( 'NONE', #163 ) ;
#96 =( LENGTH_UNIT ( ) NAMED_UNIT ( * ) SI_UNIT ( .MILLI., .METRE. ) );
#97 = VERTEX_POINT ( 'NONE', #192 ) ;
#98 = CARTESIAN_POINT ( 'NONE',  ( -7.999999999999998224, 89.00000000000000000, 0.000000000000000000 ) ) ;
#99 = SURFACE_STYLE_USAGE ( .BOTH. , #102 ) ;
#100 = VERTEX_POINT ( 'NONE', #77 ) ;
#101 =( GEOMETRIC_REPRESENTATION_CONTEXT ( 3 ) GLOBAL_UNCERTAINTY_ASSIGNED_CONTEXT ( ( #125 ) ) GLOBAL_UNIT_ASSIGNED_CONTEXT ( ( #141, #207, #307 ) ) REPRESENTATION_CONTEXT ( 'NONE', 'WORKASPACE' ) );
#102 = SURFACE_SIDE_STYLE ('',( #236 ) ) ;
#103 = ORIENTED_EDGE ( 'NONE', *, *, #128, .T. ) ;
#104 =( NAMED_UNIT ( * ) PLANE_ANGLE_UNIT ( ) SI_UNIT ( $, .RADIAN. ) );
#105 = DIRECTION ( 'NONE',  ( -0.000000000000000000, -1.000000000000000000, -0.000000000000000000 ) ) ;
#106 =( LENGTH_UNIT ( ) NAMED_UNIT ( * ) SI_UNIT ( .MILLI., .METRE. ) );
#107 = FILL_AREA_STYLE_COLOUR ( '', #170 ) ;
#108 = FACE_OUTER_BOUND ( 'NONE', #68, .T. ) ;
#109 = SURFACE_STYLE_USAGE ( .BOTH. , #146 ) ;
#110 = PRESENTATION_LAYER_ASSIGNMENT (  '', '', ( #76 ) ) ;
#111 = CARTESIAN_POINT ( 'NONE',  ( 9.797174393178825657E-16, 24.00000000000000000, 8.000000000000000000 ) ) ;
#112 = AXIS2_PLACEMENT_3D ( 'NONE', #279, #222, #246 ) ;
#113 = STYLED_ITEM ( 'NONE', ( #330 ), #209 ) ;
#114 = LINE ( 'NONE', #45, #180 ) ;
#115 = CYLINDRICAL_SURFACE ( 'NONE', #216, 8.000000000000000000 ) ;
#116 = CARTESIAN_POINT ( 'NONE',  ( 6.288372600415925717E-15, 24.00000000000000000, 0.000000000000000000 ) ) ;
#117 = DIRECTION ( 'NONE',  ( 1.231212018341879827E-16, -1.000000000000000000, 0.000000000000000000 ) ) ;
#118 =( NAMED_UNIT ( * ) SI_UNIT ( $, .STERADIAN. ) SOLID_ANGLE_UNIT ( ) );
#119 = DIRECTION ( 'NONE',  ( 0.000000000000000000, 0.000000000000000000, 1.000000000000000000 ) ) ;
#120 = AXIS2_PLACEMENT_3D ( 'NONE', #312, #50, #305 ) ;
#121 =( GEOMETRIC_REPRESENTATION_CONTEXT ( 3 ) GLOBAL_UNCERTAINTY_ASSIGNED_CONTEXT ( ( #286 ) ) GLOBAL_UNIT_ASSIGNED_CONTEXT ( ( #337, #189, #277 ) ) REPRESENTATION_CONTEXT ( 'NONE', 'WORKASPACE' ) );
#122 = DIRECTION ( 'NONE',  ( 0.000000000000000000, 0.000000000000000000, 1.000000000000000000 ) ) ;
#123 = UNCERTAINTY_MEASURE_WITH_UNIT (LENGTH_MEASURE( 1.000000000000000082E-05 ), #96, 'distance_accuracy_value', 'NONE');
#124 = EDGE_CURVE ( 'NONE', #100, #132, #62, .T. ) ;
#125 = UNCERTAINTY_MEASURE_WITH_UNIT (LENGTH_MEASURE( 1.000000000000000082E-05 ), #141, 'distance_accuracy_value', 'NONE');
#126 = STYLED_ITEM ( 'NONE', ( #69 ), #274 ) ;
#127 =( GEOMETRIC_REPRESENTATION_CONTEXT ( 3 ) GLOBAL_UNCERTAINTY_ASSIGNED_CONTEXT ( ( #78 ) ) GLOBAL_UNIT_ASSIGNED_CONTEXT ( ( #195, #255, #118 ) ) REPRESENTATION_CONTEXT ( 'NONE', 'WORKASPACE' ) );
#128 = EDGE_CURVE ( 'NONE', #239, #347, #190, .T. ) ;
#129 = EDGE_LOOP ( 'NONE', ( #41, #162 ) ) ;
#130 = CARTESIAN_POINT ( 'NONE',  ( 0.000000000000000000, 24.00000000000000000, 0.000000000000000000 ) ) ;
#131 = FILL_AREA_STYLE ('',( #361 ) ) ;
#132 = VERTEX_POINT ( 'NONE', #26 ) ;
#133 = PRODUCT_DEFINITION ( 'UNKNOWN', '', #23, #83 ) ;
#134 = VECTOR ( 'NONE', #303, 1000.000000000000000 ) ;
#135 = COLOUR_RGB ( '',1.000000000000000000, 0.000000000000000000, 0.000000000000000000 ) ;
#136 =( NAMED_UNIT ( * ) SI_UNIT ( $, .STERADIAN. ) SOLID_ANGLE_UNIT ( ) );
#137 = VERTEX_POINT ( 'NONE', #335 ) ;
#138 = EDGE_LOOP ( 'NONE', ( #328, #39 ) ) ;
#139 = AXIS2_PLACEMENT_3D ( 'NONE', #206, #203, #322 ) ;
#140 =( NAMED_UNIT ( * ) SI_UNIT ( $, .STERADIAN. ) SOLID_ANGLE_UNIT ( ) );
#141 =( LENGTH_UNIT ( ) NAMED_UNIT ( * ) SI_UNIT ( .MILLI., .METRE. ) );
#142 = CYLINDRICAL_SURFACE ( 'NONE', #241, 8.000000000000000000 ) ;
#143 = DIRECTION ( 'NONE',  ( 1.000000000000000000, 1.231212018341879827E-16, 0.000000000000000000 ) ) ;
#144 = FILL_AREA_STYLE ('',( #242 ) ) ;
#145 = DIRECTION ( 'NONE',  ( -1.231212018341879827E-16, 1.000000000000000000, -0.000000000000000000 ) ) ;
#146 = SURFACE_SIDE_STYLE ('',( #220 ) ) ;
#147 = MECHANICAL_DESIGN_GEOMETRIC_PRESENTATION_REPRESENTATION (  '', ( #297 ), #291 ) ;
#148 = AXIS2_PLACEMENT_3D ( 'NONE', #351, #234, #243 ) ;
#149 = DIRECTION ( 'NONE',  ( 0.000000000000000000, 0.000000000000000000, -1.000000000000000000 ) ) ;
#150 = FILL_AREA_STYLE_COLOUR ( '', #135 ) ;
#151 = PRESENTATION_LAYER_ASSIGNMENT (  '', '', ( #297 ) ) ;
#152 = AXIS2_PLACEMENT_3D ( 'NONE', #130, #229, #204 ) ;
#153 = EDGE_CURVE ( 'NONE', #347, #100, #173, .T. ) ;
#154 = STYLED_ITEM ( 'NONE', ( #344 ), #350 ) ;
#155 = EDGE_CURVE ( 'NONE', #132, #100, #87, .T. ) ;
#156 = ORIENTED_EDGE ( 'NONE', *, *, #124, .F. ) ;
#157 =( LENGTH_UNIT ( ) NAMED_UNIT ( * ) SI_UNIT ( .MILLI., .METRE. ) );
#158 = EDGE_LOOP ( 'NONE', ( #20, #295, #271, #18 ) ) ;
#159 = CARTESIAN_POINT ( 'NONE',  ( -1.714505518806293652E-15, 89.00000000000000000, 0.000000000000000000 ) ) ;
#160 = VERTEX_POINT ( 'NONE', #251 ) ;
#161 = SURFACE_STYLE_USAGE ( .BOTH. , #177 ) ;
#162 = ORIENTED_EDGE ( 'NONE', *, *, #49, .T. ) ;
#163 = CARTESIAN_POINT ( 'NONE',  ( 0.000000000000000000, 1.000000000000000000, -8.000000000000000000 ) ) ;
#164 = CARTESIAN_POINT ( 'NONE',  ( 0.000000000000000000, 24.00000000000000000, 0.000000000000000000 ) ) ;
#165 = SURFACE_STYLE_USAGE ( .BOTH. , #27 ) ;
#166 = CARTESIAN_POINT ( 'NONE',  ( 0.000000000000000000, 0.000000000000000000, 0.000000000000000000 ) ) ;
#167 = DIRECTION ( 'NONE',  ( -0.000000000000000000, -1.000000000000000000, -0.000000000000000000 ) ) ;
#168 = DIRECTION ( 'NONE',  ( 0.000000000000000000, 0.000000000000000000, -1.000000000000000000 ) ) ;
#169 = CIRCLE ( 'NONE', #81, 8.000000000000000000 ) ;
#170 = COLOUR_RGB ( '',1.000000000000000000, 0.000000000000000000, 0.000000000000000000 ) ;
#171 = ADVANCED_FACE ( 'NONE', ( #24 ), #142, .T. ) ;
#172 = CARTESIAN_POINT ( 'NONE',  ( 0.000000000000000000, 0.000000000000000000, 0.000000000000000000 ) ) ;
#173 = CIRCLE ( 'NONE', #120, 1.000000000000000000 ) ;
#174 = PRESENTATION_LAYER_ASSIGNMENT (  '', '', ( #298 ) ) ;
#175 = ADVANCED_FACE ( 'NONE', ( #332 ), #194, .T. ) ;
#176 = ORIENTED_EDGE ( 'NONE', *, *, #357, .T. ) ;
#177 = SURFACE_SIDE_STYLE ('',( #360 ) ) ;
#178 = SURFACE_STYLE_USAGE ( .BOTH. , #46 ) ;
#179 = ORIENTED_EDGE ( 'NONE', *, *, #294, .T. ) ;
#180 = VECTOR ( 'NONE', #145, 1000.000000000000000 ) ;
#181 = MECHANICAL_DESIGN_GEOMETRIC_PRESENTATION_REPRESENTATION (  '', ( #67 ), #358 ) ;
#182 =( NAMED_UNIT ( * ) PLANE_ANGLE_UNIT ( ) SI_UNIT ( $, .RADIAN. ) );
#183 = ORIENTED_EDGE ( 'NONE', *, *, #288, .F. ) ;
#184 =( NAMED_UNIT ( * ) PLANE_ANGLE_UNIT ( ) SI_UNIT ( $, .RADIAN. ) );
#185 = ORIENTED_EDGE ( 'NONE', *, *, #317, .F. ) ;
#186 = PRESENTATION_STYLE_ASSIGNMENT (( #72 ) ) ;
#187 = CARTESIAN_POINT ( 'NONE',  ( 0.000000000000000000, 24.00000000000000000, 0.000000000000000000 ) ) ;
#188 = DIRECTION ( 'NONE',  ( 0.000000000000000000, 0.000000000000000000, -1.000000000000000000 ) ) ;
#189 =( NAMED_UNIT ( * ) PLANE_ANGLE_UNIT ( ) SI_UNIT ( $, .RADIAN. ) );
#190 = LINE ( 'NONE', #316, #248 ) ;
#191 = DIRECTION ( 'NONE',  ( 0.000000000000000000, -0.000000000000000000, 1.000000000000000000 ) ) ;
#192 = CARTESIAN_POINT ( 'NONE',  ( -7.999999999999986677, 23.99999999999999289, 0.000000000000000000 ) ) ;
#193 = COLOUR_RGB ( '',0.7921568627450980005, 0.8196078431372548767, 0.9333333333333333481 ) ;
#194 = TOROIDAL_SURFACE ( 'NONE', #217, 7.000000000000000000, 1.000000000000000000 ) ;
#195 =( LENGTH_UNIT ( ) NAMED_UNIT ( * ) SI_UNIT ( .MILLI., .METRE. ) );
#196 = ADVANCED_FACE ( 'NONE', ( #323 ), #64, .T. ) ;
#197 = PRODUCT ( '59718', '59718', '', ( #32 ) ) ;
#198 = DIRECTION ( 'NONE',  ( -0.000000000000000000, -1.000000000000000000, -0.000000000000000000 ) ) ;
#199 = STYLED_ITEM ( 'NONE', ( #369 ), #84 ) ;
#200 = CIRCLE ( 'NONE', #88, 8.000000000000001776 ) ;
#201 = MECHANICAL_DESIGN_GEOMETRIC_PRESENTATION_REPRESENTATION (  '', ( #199 ), #55 ) ;
#202 = AXIS2_PLACEMENT_3D ( 'NONE', #238, #355, #272 ) ;
#203 = DIRECTION ( 'NONE',  ( -1.231212018341879827E-16, 1.000000000000000000, -0.000000000000000000 ) ) ;
#204 = DIRECTION ( 'NONE',  ( 0.000000000000000000, 0.000000000000000000, -1.000000000000000000 ) ) ;
#205 = ADVANCED_BREP_SHAPE_REPRESENTATION ( '59718', ( #84, #340, #86 ), #127 ) ;
#206 = CARTESIAN_POINT ( 'NONE',  ( 6.288372600415925717E-15, 23.99999999999999289, 0.000000000000000000 ) ) ;
#207 =( NAMED_UNIT ( * ) PLANE_ANGLE_UNIT ( ) SI_UNIT ( $, .RADIAN. ) );
#208 = ORIENTED_EDGE ( 'NONE', *, *, #318, .F. ) ;
#209 = ADVANCED_FACE ( 'NONE', ( #38 ), #296, .T. ) ;
#210 = ORIENTED_EDGE ( 'NONE', *, *, #318, .T. ) ;
#211 = AXIS2_PLACEMENT_3D ( 'NONE', #21, #268, #63 ) ;
#212 =( NAMED_UNIT ( * ) SI_UNIT ( $, .STERADIAN. ) SOLID_ANGLE_UNIT ( ) );
#213 = FILL_AREA_STYLE ('',( #367 ) ) ;
#214 = CYLINDRICAL_SURFACE ( 'NONE', #256, 7.999999999999996447 ) ;
#215 = DIRECTION ( 'NONE',  ( -0.000000000000000000, -1.000000000000000000, -0.000000000000000000 ) ) ;
#216 = AXIS2_PLACEMENT_3D ( 'NONE', #172, #198, #35 ) ;
#217 = AXIS2_PLACEMENT_3D ( 'NONE', #262, #105, #71 ) ;
#218 = DIRECTION ( 'NONE',  ( 0.000000000000000000, -1.000000000000000000, -0.000000000000000000 ) ) ;
#219 = CARTESIAN_POINT ( 'NONE',  ( -8.000000000000003553, 89.00000000000000000, 0.000000000000000000 ) ) ;
#220 = SURFACE_STYLE_FILL_AREA ( #213 ) ;
#221 = DIRECTION ( 'NONE',  ( -1.000000000000000000, -1.231212018341879827E-16, 0.000000000000000000 ) ) ;
#222 = DIRECTION ( 'NONE',  ( -1.231212018341879827E-16, 1.000000000000000000, -0.000000000000000000 ) ) ;
#223 = CIRCLE ( 'NONE', #112, 8.000000000000001776 ) ;
#224 = SHAPE_DEFINITION_REPRESENTATION ( #34, #205 ) ;
#225 = CARTESIAN_POINT ( 'NONE',  ( 0.000000000000000000, 0.000000000000000000, 0.000000000000000000 ) ) ;
#226 = EDGE_CURVE ( 'NONE', #239, #160, #169, .T. ) ;
#227 =( NAMED_UNIT ( * ) PLANE_ANGLE_UNIT ( ) SI_UNIT ( $, .RADIAN. ) );
#228 = DIRECTION ( 'NONE',  ( -1.000000000000000000, 0.000000000000000000, 0.000000000000000000 ) ) ;
#229 = DIRECTION ( 'NONE',  ( -0.000000000000000000, -1.000000000000000000, -0.000000000000000000 ) ) ;
#230 = MECHANICAL_DESIGN_GEOMETRIC_PRESENTATION_REPRESENTATION (  '', ( #126 ), #56 ) ;
#231 = EDGE_LOOP ( 'NONE', ( #36, #302, #37, #43 ) ) ;
#232 = DIRECTION ( 'NONE',  ( -1.000000000000000000, 0.000000000000000000, 0.000000000000000000 ) ) ;
#233 = ORIENTED_EDGE ( 'NONE', *, *, #245, .F. ) ;
#234 = DIRECTION ( 'NONE',  ( -0.000000000000000000, -1.000000000000000000, -0.000000000000000000 ) ) ;
#235 = ADVANCED_FACE ( 'NONE', ( #31 ), #368, .F. ) ;
#236 = SURFACE_STYLE_FILL_AREA ( #131 ) ;
#237 = EDGE_LOOP ( 'NONE', ( #265, #324, #176, #208 ) ) ;
#238 = CARTESIAN_POINT ( 'NONE',  ( -1.714505518806293849E-15, 89.00000000000000000, 0.000000000000000000 ) ) ;
#239 = VERTEX_POINT ( 'NONE', #111 ) ;
#240 = PRESENTATION_LAYER_ASSIGNMENT (  '', '', ( #199 ) ) ;
#241 = AXIS2_PLACEMENT_3D ( 'NONE', #353, #301, #42 ) ;
#242 = FILL_AREA_STYLE_COLOUR ( '', #309 ) ;
#243 = DIRECTION ( 'NONE',  ( 0.000000000000000000, 0.000000000000000000, -1.000000000000000000 ) ) ;
#244 = DIRECTION ( 'NONE',  ( -1.231212018341879827E-16, 1.000000000000000000, -0.000000000000000000 ) ) ;
#245 = EDGE_CURVE ( 'NONE', #95, #347, #366, .T. ) ;
#246 = DIRECTION ( 'NONE',  ( -1.000000000000000000, 0.000000000000000000, 0.000000000000000000 ) ) ;
#247 =( GEOMETRIC_REPRESENTATION_CONTEXT ( 3 ) GLOBAL_UNCERTAINTY_ASSIGNED_CONTEXT ( ( #61 ) ) GLOBAL_UNIT_ASSIGNED_CONTEXT ( ( #287, #227, #5 ) ) REPRESENTATION_CONTEXT ( 'NONE', 'WORKASPACE' ) );
#248 = VECTOR ( 'NONE', #215, 1000.000000000000000 ) ;
#249 = TOROIDAL_SURFACE ( 'NONE', #211, 7.000000000000000000, 1.000000000000000000 ) ;
#250 =( GEOMETRIC_REPRESENTATION_CONTEXT ( 3 ) GLOBAL_UNCERTAINTY_ASSIGNED_CONTEXT ( ( #346 ) ) GLOBAL_UNIT_ASSIGNED_CONTEXT ( ( #334, #314, #51 ) ) REPRESENTATION_CONTEXT ( 'NONE', 'WORKASPACE' ) );
#251 = CARTESIAN_POINT ( 'NONE',  ( 0.000000000000000000, 24.00000000000000000, -8.000000000000000000 ) ) ;
#252 = SURFACE_STYLE_USAGE ( .BOTH. , #30 ) ;
#253 = ADVANCED_FACE ( 'NONE', ( #370 ), #342, .F. ) ;
#254 = CARTESIAN_POINT ( 'NONE',  ( 0.000000000000000000, 1.000000000000000000, -7.000000000000000000 ) ) ;
#255 =( NAMED_UNIT ( * ) PLANE_ANGLE_UNIT ( ) SI_UNIT ( $, .RADIAN. ) );
#256 = AXIS2_PLACEMENT_3D ( 'NONE', #74, #33, #228 ) ;
#257 = EDGE_CURVE ( 'NONE', #95, #132, #348, .T. ) ;
#258 = DIRECTION ( 'NONE',  ( 1.000000000000000000, 0.000000000000000000, 0.000000000000000000 ) ) ;
#259 = AXIS2_PLACEMENT_3D ( 'NONE', #164, #25, #191 ) ;
#260 = ADVANCED_FACE ( 'NONE', ( #108 ), #214, .T. ) ;
#261 = CARTESIAN_POINT ( 'NONE',  ( 8.000000000000000000, 23.99999999999999289, 9.797174393178825657E-16 ) ) ;
#262 = CARTESIAN_POINT ( 'NONE',  ( 0.000000000000000000, 1.000000000000000000, 0.000000000000000000 ) ) ;
#263 = ORIENTED_EDGE ( 'NONE', *, *, #2, .T. ) ;
#264 = DIRECTION ( 'NONE',  ( -1.231212018341879827E-16, 1.000000000000000000, -0.000000000000000000 ) ) ;
#265 = ORIENTED_EDGE ( 'NONE', *, *, #128, .F. ) ;
#266 = APPLICATION_CONTEXT ( 'automotive_design' ) ;
#267 = PRODUCT_RELATED_PRODUCT_CATEGORY ( 'part', '', ( #197 ) ) ;
#268 = DIRECTION ( 'NONE',  ( -0.000000000000000000, -1.000000000000000000, -0.000000000000000000 ) ) ;
#269 = PRESENTATION_STYLE_ASSIGNMENT (( #178 ) ) ;
#270 = ORIENTED_EDGE ( 'NONE', *, *, #19, .T. ) ;
#271 = ORIENTED_EDGE ( 'NONE', *, *, #155, .F. ) ;
#272 = DIRECTION ( 'NONE',  ( -1.000000000000000000, 0.000000000000000000, 0.000000000000000000 ) ) ;
#273 = CIRCLE ( 'NONE', #148, 8.000000000000000000 ) ;
#274 = ADVANCED_FACE ( 'NONE', ( #16 ), #249, .T. ) ;
#275 = DIRECTION ( 'NONE',  ( 0.000000000000000000, 0.000000000000000000, -1.000000000000000000 ) ) ;
#276 = FILL_AREA_STYLE ('',( #363 ) ) ;
#277 =( NAMED_UNIT ( * ) SI_UNIT ( $, .STERADIAN. ) SOLID_ANGLE_UNIT ( ) );
#278 = DIRECTION ( 'NONE',  ( -0.000000000000000000, -1.000000000000000000, -0.000000000000000000 ) ) ;
#279 = CARTESIAN_POINT ( 'NONE',  ( -1.714505518806293652E-15, 89.00000000000000000, 0.000000000000000000 ) ) ;
#280 = PLANE ( 'NONE',  #259 ) ;
#281 = AXIS2_PLACEMENT_3D ( 'NONE', #116, #338, #221 ) ;
#282 = DIRECTION ( 'NONE',  ( -0.000000000000000000, -1.000000000000000000, -0.000000000000000000 ) ) ;
#283 = LINE ( 'NONE', #82, #4 ) ;
#284 = FILL_AREA_STYLE ('',( #150 ) ) ;
#285 = AXIS2_PLACEMENT_3D ( 'NONE', #326, #218, #275 ) ;
#286 = UNCERTAINTY_MEASURE_WITH_UNIT (LENGTH_MEASURE( 1.000000000000000082E-05 ), #337, 'distance_accuracy_value', 'NONE');
#287 =( LENGTH_UNIT ( ) NAMED_UNIT ( * ) SI_UNIT ( .MILLI., .METRE. ) );
#288 = EDGE_CURVE ( 'NONE', #97, #13, #300, .T. ) ;
#289 = CLOSED_SHELL ( 'NONE', ( #260, #235, #196, #253 ) ) ;
#290 = PRESENTATION_LAYER_ASSIGNMENT (  '', '', ( #113 ) ) ;
#291 =( GEOMETRIC_REPRESENTATION_CONTEXT ( 3 ) GLOBAL_UNCERTAINTY_ASSIGNED_CONTEXT ( ( #123 ) ) GLOBAL_UNIT_ASSIGNED_CONTEXT ( ( #96, #182, #136 ) ) REPRESENTATION_CONTEXT ( 'NONE', 'WORKASPACE' ) );
#292 = VERTEX_POINT ( 'NONE', #261 ) ;
#293 = FILL_AREA_STYLE_COLOUR ( '', #94 ) ;
#294 = EDGE_CURVE ( 'NONE', #160, #239, #75, .T. ) ;
#295 = ORIENTED_EDGE ( 'NONE', *, *, #153, .T. ) ;
#296 = PLANE ( 'NONE',  #285 ) ;
#297 = STYLED_ITEM ( 'NONE', ( #186 ), #171 ) ;
#298 = STYLED_ITEM ( 'NONE', ( #73 ), #321 ) ;
#299 = ORIENTED_EDGE ( 'NONE', *, *, #153, .F. ) ;
#300 = LINE ( 'NONE', #98, #134 ) ;
#301 = DIRECTION ( 'NONE',  ( -0.000000000000000000, -1.000000000000000000, -0.000000000000000000 ) ) ;
#302 = ORIENTED_EDGE ( 'NONE', *, *, #79, .T. ) ;
#303 = DIRECTION ( 'NONE',  ( -1.231212018341879827E-16, 1.000000000000000000, -0.000000000000000000 ) ) ;
#304 =( LENGTH_UNIT ( ) NAMED_UNIT ( * ) SI_UNIT ( .MILLI., .METRE. ) );
#305 = DIRECTION ( 'NONE',  ( -1.224646799147353454E-16, 0.000000000000000000, -1.000000000000000000 ) ) ;
#306 = FACE_OUTER_BOUND ( 'NONE', #138, .T. ) ;
#307 =( NAMED_UNIT ( * ) SI_UNIT ( $, .STERADIAN. ) SOLID_ANGLE_UNIT ( ) );
#308 = DIRECTION ( 'NONE',  ( -1.000000000000000000, 0.000000000000000000, 0.000000000000000000 ) ) ;
#309 = COLOUR_RGB ( '',1.000000000000000000, 0.000000000000000000, 0.000000000000000000 ) ;
#310 = PRESENTATION_LAYER_ASSIGNMENT (  '', '', ( #126 ) ) ;
#311 = CARTESIAN_POINT ( 'NONE',  ( 8.000000000000000000, 89.00000000000000000, 0.000000000000000000 ) ) ;
#312 = CARTESIAN_POINT ( 'NONE',  ( 8.572527594031473190E-16, 1.000000000000000000, 7.000000000000000000 ) ) ;
#313 = CARTESIAN_POINT ( 'NONE',  ( 0.000000000000000000, 0.000000000000000000, 0.000000000000000000 ) ) ;
#314 =( NAMED_UNIT ( * ) PLANE_ANGLE_UNIT ( ) SI_UNIT ( $, .RADIAN. ) );
#315 = DIRECTION ( 'NONE',  ( 0.000000000000000000, 0.000000000000000000, -1.000000000000000000 ) ) ;
#316 = CARTESIAN_POINT ( 'NONE',  ( 9.797174393178825657E-16, 0.000000000000000000, 8.000000000000000000 ) ) ;
#317 = EDGE_CURVE ( 'NONE', #13, #137, #200, .T. ) ;
#318 = EDGE_CURVE ( 'NONE', #347, #95, #273, .T. ) ;
#319 = COLOUR_RGB ( '',1.000000000000000000, 0.000000000000000000, 0.000000000000000000 ) ;
#320 = PRESENTATION_LAYER_ASSIGNMENT (  '', '', ( #154 ) ) ;
#321 = ADVANCED_FACE ( 'NONE', ( #306 ), #280, .T. ) ;
#322 = DIRECTION ( 'NONE',  ( -1.000000000000000000, 0.000000000000000000, 0.000000000000000000 ) ) ;
#323 = FACE_OUTER_BOUND ( 'NONE', #231, .T. ) ;
#324 = ORIENTED_EDGE ( 'NONE', *, *, #226, .T. ) ;
#325 = FILL_AREA_STYLE ('',( #293 ) ) ;
#326 = CARTESIAN_POINT ( 'NONE',  ( 0.000000000000000000, 0.000000000000000000, 0.000000000000000000 ) ) ;
#327 = MECHANICAL_DESIGN_GEOMETRIC_PRESENTATION_REPRESENTATION (  '', ( #298 ), #121 ) ;
#328 = ORIENTED_EDGE ( 'NONE', *, *, #294, .F. ) ;
#329 = MECHANICAL_DESIGN_GEOMETRIC_PRESENTATION_REPRESENTATION (  '', ( #154 ), #247 ) ;
#330 = PRESENTATION_STYLE_ASSIGNMENT (( #99 ) ) ;
#331 = FACE_OUTER_BOUND ( 'NONE', #11, .T. ) ;
#332 = FACE_OUTER_BOUND ( 'NONE', #158, .T. ) ;
#333 = SURFACE_SIDE_STYLE ('',( #362 ) ) ;
#334 =( LENGTH_UNIT ( ) NAMED_UNIT ( * ) SI_UNIT ( .MILLI., .METRE. ) );
#335 = CARTESIAN_POINT ( 'NONE',  ( 8.000000000000000000, 89.00000000000000000, 9.797174393178825657E-16 ) ) ;
#336 = AXIS2_PLACEMENT_3D ( 'NONE', #52, #278, #168 ) ;
#337 =( LENGTH_UNIT ( ) NAMED_UNIT ( * ) SI_UNIT ( .MILLI., .METRE. ) );
#338 = DIRECTION ( 'NONE',  ( -1.231212018341879827E-16, 1.000000000000000000, 0.000000000000000000 ) ) ;
#339 =( NAMED_UNIT ( * ) PLANE_ANGLE_UNIT ( ) SI_UNIT ( $, .RADIAN. ) );
#340 = MANIFOLD_SOLID_BREP ( 'Revolve - Tool Body (Straight Shanked)', #289 ) ;
#341 = PRESENTATION_STYLE_ASSIGNMENT (( #109 ) ) ;
#342 = PLANE ( 'NONE',  #9 ) ;
#343 = AXIS2_PLACEMENT_3D ( 'NONE', #28, #244, #308 ) ;
#344 = PRESENTATION_STYLE_ASSIGNMENT (( #6 ) ) ;
#345 = COLOUR_RGB ( '',0.7921568627450980005, 0.8196078431372548767, 0.9333333333333333481 ) ;
#346 = UNCERTAINTY_MEASURE_WITH_UNIT (LENGTH_MEASURE( 1.000000000000000082E-05 ), #334, 'distance_accuracy_value', 'NONE');
#347 = VERTEX_POINT ( 'NONE', #54 ) ;
#348 = CIRCLE ( 'NONE', #3, 1.000000000000000000 ) ;
#349 = EDGE_LOOP ( 'NONE', ( #299, #210, #92, #156 ) ) ;
#350 = ADVANCED_FACE ( 'NONE', ( #331 ), #115, .T. ) ;
#351 = CARTESIAN_POINT ( 'NONE',  ( 0.000000000000000000, 1.000000000000000000, 0.000000000000000000 ) ) ;
#352 = EDGE_LOOP ( 'NONE', ( #359, #354 ) ) ;
#353 = CARTESIAN_POINT ( 'NONE',  ( 0.000000000000000000, 0.000000000000000000, 0.000000000000000000 ) ) ;
#354 = ORIENTED_EDGE ( 'NONE', *, *, #124, .T. ) ;
#355 = DIRECTION ( 'NONE',  ( -1.231212018341879827E-16, 1.000000000000000000, -0.000000000000000000 ) ) ;
#356 = AXIS2_PLACEMENT_3D ( 'NONE', #166, #53, #188 ) ;
#357 = EDGE_CURVE ( 'NONE', #160, #95, #283, .T. ) ;
#358 =( GEOMETRIC_REPRESENTATION_CONTEXT ( 3 ) GLOBAL_UNCERTAINTY_ASSIGNED_CONTEXT ( ( #10 ) ) GLOBAL_UNIT_ASSIGNED_CONTEXT ( ( #304, #184, #212 ) ) REPRESENTATION_CONTEXT ( 'NONE', 'WORKASPACE' ) );
#359 = ORIENTED_EDGE ( 'NONE', *, *, #155, .T. ) ;
#360 = SURFACE_STYLE_FILL_AREA ( #325 ) ;
#361 = FILL_AREA_STYLE_COLOUR ( '', #14 ) ;
#362 = SURFACE_STYLE_FILL_AREA ( #144 ) ;
#363 = FILL_AREA_STYLE_COLOUR ( '', #193 ) ;
#364 = SURFACE_STYLE_FILL_AREA ( #276 ) ;
#365 = CIRCLE ( 'NONE', #343, 7.999999999999992895 ) ;
#366 = CIRCLE ( 'NONE', #336, 8.000000000000000000 ) ;
#367 = FILL_AREA_STYLE_COLOUR ( '', #345 ) ;
#368 = PLANE ( 'NONE',  #281 ) ;
#369 = PRESENTATION_STYLE_ASSIGNMENT (( #165 ) ) ;
#370 = FACE_OUTER_BOUND ( 'NONE', #129, .T. ) ;
ENDSEC;
END-ISO-10303-21;
