ISO-10303-21;
HEADER;
FILE_DESCRIPTION (( 'STEP AP214' ),
    '1' );
FILE_NAME ('Micro_SFLM-050-60.STEP',
    '2021-09-02T05:40:35',
    ( '' ),
    ( '' ),
    'SwSTEP 2.0',
    'SolidWorks 2020',
    '' );
FILE_SCHEMA (( 'AUTOMOTIVE_DESIGN' ));
ENDSEC;

DATA;
#1 = CARTESIAN_POINT ( 'NONE',  ( 1.350004094801674599E-16, 0.0000000000000000000, 1.102362000000000064 ) ) ;
#2 = DIRECTION ( 'NONE',  ( -1.000000000000000000, 0.0000000000000000000, 0.0000000000000000000 ) ) ;
#3 = CIRCLE ( 'NONE', #227, 0.1031099999999991607 ) ;
#4 = LINE ( 'NONE', #51, #108 ) ;
#5 = FACE_OUTER_BOUND ( 'NONE', #298, .T. ) ;
#6 = EDGE_CURVE ( 'NONE', #91, #299, #7, .T. ) ;
#7 = CIRCLE ( 'NONE', #118, 0.1181100000000000066 ) ;
#8 = CARTESIAN_POINT ( 'NONE',  ( 0.1031099999999991607, 1.262733314600825571E-17, 2.952755999999999936 ) ) ;
#9 = CIRCLE ( 'NONE', #246, 0.1181100000000000066 ) ;
#10 = DIRECTION ( 'NONE',  ( 0.1736481776669312749, 0.0000000000000000000, 0.9848077530122077983 ) ) ;
#11 = CARTESIAN_POINT ( 'NONE',  ( -0.1181099999999998540, 0.0000000000000000000, 1.214559378532270140 ) ) ;
#12 = CARTESIAN_POINT ( 'NONE',  ( 0.1031099999999991607, 1.354581824536882251E-17, 2.952755999999999936 ) ) ;
#13 = LINE ( 'NONE', #32, #178 ) ;
#14 = AXIS2_PLACEMENT_3D ( 'NONE', #175, #265, #17 ) ;
#15 = DIRECTION ( 'NONE',  ( -1.224646799147353207E-16, -0.0000000000000000000, -1.000000000000000000 ) ) ;
#16 = ADVANCED_FACE ( 'NONE', ( #54 ), #80, .T. ) ;
#17 = DIRECTION ( 'NONE',  ( -1.000000000000000000, 0.0000000000000000000, 0.0000000000000000000 ) ) ;
#18 = ORIENTED_EDGE ( 'NONE', *, *, #207, .F. ) ;
#19 =( GEOMETRIC_REPRESENTATION_CONTEXT ( 3 ) GLOBAL_UNCERTAINTY_ASSIGNED_CONTEXT ( ( #176 ) ) GLOBAL_UNIT_ASSIGNED_CONTEXT ( ( #186, #88, #117 ) ) REPRESENTATION_CONTEXT ( 'NONE', 'WORKASPACE' ) );
#20 = ADVANCED_FACE ( 'NONE', ( #125 ), #264, .T. ) ;
#21 = EDGE_LOOP ( 'NONE', ( #141, #255, #273, #18 ) ) ;
#22 =( LENGTH_UNIT ( ) NAMED_UNIT ( * ) SI_UNIT ( $, .METRE. ) );
#23 = ORIENTED_EDGE ( 'NONE', *, *, #53, .T. ) ;
#24 = CIRCLE ( 'NONE', #137, 0.09832657499999998552 ) ;
#25 = DIRECTION ( 'NONE',  ( -1.224646799147353207E-16, -0.0000000000000000000, -1.000000000000000000 ) ) ;
#26 = CYLINDRICAL_SURFACE ( 'NONE', #223, 0.1181100000000000066 ) ;
#27 = CONICAL_SURFACE ( 'NONE', #103, 0.09832657499999998552, 0.1745329251994337805 ) ;
#28 = DIRECTION ( 'NONE',  ( -0.0000000000000000000, -0.0000000000000000000, -1.000000000000000000 ) ) ;
#29 = CARTESIAN_POINT ( 'NONE',  ( -0.09832657499999986062, 1.204153253448721512E-17, 1.102362000000000064 ) ) ;
#30 = DIRECTION ( 'NONE',  ( -1.224646799147353207E-16, -0.0000000000000000000, -1.000000000000000000 ) ) ;
#31 = MECHANICAL_DESIGN_GEOMETRIC_PRESENTATION_REPRESENTATION (  '', ( #129 ), #19 ) ;
#32 = CARTESIAN_POINT ( 'NONE',  ( 0.1181100000000000066, 1.446430334472939084E-17, 2.952755999999999936 ) ) ;
#33 =( CONVERSION_BASED_UNIT ( 'INCH', #289 ) LENGTH_UNIT ( ) NAMED_UNIT ( #277 ) );
#34 = PRESENTATION_STYLE_ASSIGNMENT (( #38 ) ) ;
#35 = FACE_OUTER_BOUND ( 'NONE', #92, .T. ) ;
#36 = CIRCLE ( 'NONE', #120, 0.09832657499999998552 ) ;
#37 = PRODUCT_RELATED_PRODUCT_CATEGORY ( 'part', '', ( #113 ) ) ;
#38 = SURFACE_STYLE_USAGE ( .BOTH. , #202 ) ;
#39 = APPLICATION_CONTEXT ( 'automotive_design' ) ;
#40 = SURFACE_SIDE_STYLE ('',( #279 ) ) ;
#41 = ORIENTED_EDGE ( 'NONE', *, *, #197, .F. ) ;
#42 = EDGE_CURVE ( 'NONE', #209, #66, #67, .T. ) ;
#43 = ORIENTED_EDGE ( 'NONE', *, *, #42, .T. ) ;
#44 = AXIS2_PLACEMENT_3D ( 'NONE', #106, #224, #158 ) ;
#45 = CARTESIAN_POINT ( 'NONE',  ( 0.1181100000000000066, 1.446430334472939084E-17, 2.937755999999999368 ) ) ;
#46 = ORIENTED_EDGE ( 'NONE', *, *, #150, .T. ) ;
#47 = DIMENSIONAL_EXPONENTS ( 1.000000000000000000, 0.0000000000000000000, 0.0000000000000000000, 0.0000000000000000000, 0.0000000000000000000, 0.0000000000000000000, 0.0000000000000000000 ) ;
#48 = ORIENTED_EDGE ( 'NONE', *, *, #142, .F. ) ;
#49 = ORIENTED_EDGE ( 'NONE', *, *, #93, .T. ) ;
#50 = VECTOR ( 'NONE', #203, 39.37007874015748143 ) ;
#51 = CARTESIAN_POINT ( 'NONE',  ( -0.1181100000000000066, 0.0000000000000000000, 2.952755999999999936 ) ) ;
#52 = DIRECTION ( 'NONE',  ( 0.0000000000000000000, 0.0000000000000000000, -1.000000000000000000 ) ) ;
#53 = EDGE_CURVE ( 'NONE', #251, #212, #9, .T. ) ;
#54 = FACE_OUTER_BOUND ( 'NONE', #115, .T. ) ;
#55 = DIRECTION ( 'NONE',  ( -1.224646799147353207E-16, -0.0000000000000000000, -1.000000000000000000 ) ) ;
#56 = DIRECTION ( 'NONE',  ( 1.000000000000000000, 0.0000000000000000000, 0.0000000000000000000 ) ) ;
#57 = CARTESIAN_POINT ( 'NONE',  ( 0.0000000000000000000, 0.0000000000000000000, 0.0000000000000000000 ) ) ;
#58 = PRODUCT_DEFINITION_CONTEXT ( 'detailed design', #39, 'design' ) ;
#59 = VECTOR ( 'NONE', #123, 39.37007874015748854 ) ;
#60 = CARTESIAN_POINT ( 'NONE',  ( -0.1031099999999991607, 0.0000000000000000000, 2.952755999999999936 ) ) ;
#61 = PLANE ( 'NONE',  #201 ) ;
#62 = EDGE_CURVE ( 'NONE', #161, #275, #221, .T. ) ;
#63 = CYLINDRICAL_SURFACE ( 'NONE', #204, 0.09832657499999998552 ) ;
#64 = VECTOR ( 'NONE', #291, 39.37007874015748854 ) ;
#65 = EDGE_LOOP ( 'NONE', ( #119, #43 ) ) ;
#66 = VERTEX_POINT ( 'NONE', #102 ) ;
#67 = CIRCLE ( 'NONE', #188, 0.1031099999999991607 ) ;
#68 = ORIENTED_EDGE ( 'NONE', *, *, #62, .F. ) ;
#69 = ORIENTED_EDGE ( 'NONE', *, *, #228, .T. ) ;
#70 = ORIENTED_EDGE ( 'NONE', *, *, #82, .T. ) ;
#71 = DIRECTION ( 'NONE',  ( 0.7071067811865486830, 8.659560562354947649E-17, -0.7071067811865462405 ) ) ;
#72 = DIRECTION ( 'NONE',  ( 0.0000000000000000000, 0.0000000000000000000, -1.000000000000000000 ) ) ;
#73 = ADVANCED_FACE ( 'NONE', ( #238 ), #266, .T. ) ;
#74 = CARTESIAN_POINT ( 'NONE',  ( 0.09832657500000012429, 0.0000000000000000000, 1.102362000000000064 ) ) ;
#75 = CARTESIAN_POINT ( 'NONE',  ( 0.09832657499999998552, 1.204153253448721512E-17, -1.204153253448721512E-17 ) ) ;
#76 = CIRCLE ( 'NONE', #44, 0.1181100000000000066 ) ;
#77 = CARTESIAN_POINT ( 'NONE',  ( 0.0000000000000000000, 0.0000000000000000000, 2.952755999999999936 ) ) ;
#78 = CYLINDRICAL_SURFACE ( 'NONE', #14, 0.1181100000000000066 ) ;
#79 = DIRECTION ( 'NONE',  ( -0.0000000000000000000, -0.0000000000000000000, -1.000000000000000000 ) ) ;
#80 = CONICAL_SURFACE ( 'NONE', #290, 0.1031099999999991607, 0.7853981633974500554 ) ;
#81 = PRESENTATION_LAYER_ASSIGNMENT (  '', '', ( #253 ) ) ;
#82 = EDGE_CURVE ( 'NONE', #275, #236, #285, .T. ) ;
#83 = ADVANCED_FACE ( 'NONE', ( #5 ), #231, .T. ) ;
#84 = FACE_OUTER_BOUND ( 'NONE', #252, .T. ) ;
#85 = DIRECTION ( 'NONE',  ( 1.000000000000000000, 0.0000000000000000000, 0.0000000000000000000 ) ) ;
#86 = VECTOR ( 'NONE', #71, 39.37007874015748854 ) ;
#87 = EDGE_LOOP ( 'NONE', ( #159, #70 ) ) ;
#88 =( NAMED_UNIT ( * ) PLANE_ANGLE_UNIT ( ) SI_UNIT ( $, .RADIAN. ) );
#89 = ORIENTED_EDGE ( 'NONE', *, *, #82, .F. ) ;
#90 = FILL_AREA_STYLE_COLOUR ( '', #173 ) ;
#91 = VERTEX_POINT ( 'NONE', #97 ) ;
#92 = EDGE_LOOP ( 'NONE', ( #297, #112, #121, #136 ) ) ;
#93 = EDGE_CURVE ( 'NONE', #299, #91, #98, .T. ) ;
#94 = PRODUCT_CONTEXT ( 'NONE', #254, 'mechanical' ) ;
#95 = ORIENTED_EDGE ( 'NONE', *, *, #93, .F. ) ;
#96 = CARTESIAN_POINT ( 'NONE',  ( 1.474662427518848307E-33, 0.0000000000000000000, 1.204153253448721512E-17 ) ) ;
#97 = CARTESIAN_POINT ( 'NONE',  ( -0.1181100000000000066, 0.0000000000000000000, 2.937755999999999368 ) ) ;
#98 = CIRCLE ( 'NONE', #148, 0.1181100000000000066 ) ;
#99 = VECTOR ( 'NONE', #55, 39.37007874015748143 ) ;
#100 = CARTESIAN_POINT ( 'NONE',  ( 0.0000000000000000000, 0.0000000000000000000, 2.952755999999999936 ) ) ;
#101 = DIRECTION ( 'NONE',  ( 1.000000000000000000, 0.0000000000000000000, 0.0000000000000000000 ) ) ;
#102 = CARTESIAN_POINT ( 'NONE',  ( -0.1031099999999991607, 0.0000000000000000000, 2.952755999999999936 ) ) ;
#103 = AXIS2_PLACEMENT_3D ( 'NONE', #109, #180, #134 ) ;
#104 = CARTESIAN_POINT ( 'NONE',  ( 0.09832657499999998552, 1.204153253448721512E-17, 0.0000000000000000000 ) ) ;
#105 = UNCERTAINTY_MEASURE_WITH_UNIT (LENGTH_MEASURE( 1.000000000000000082E-05 ), #33, 'distance_accuracy_value', 'NONE');
#106 = CARTESIAN_POINT ( 'NONE',  ( 1.487406255293943111E-16, 0.0000000000000000000, 1.214559378532270140 ) ) ;
#107 = ADVANCED_FACE ( 'NONE', ( #200 ), #199, .T. ) ;
#108 = VECTOR ( 'NONE', #168, 39.37007874015748143 ) ;
#109 = CARTESIAN_POINT ( 'NONE',  ( 1.350004094801674599E-16, 0.0000000000000000000, 1.102362000000000064 ) ) ;
#110 = LINE ( 'NONE', #269, #162 ) ;
#111 =( CONVERSION_BASED_UNIT ( 'INCH', #274 ) LENGTH_UNIT ( ) NAMED_UNIT ( #282 ) );
#112 = ORIENTED_EDGE ( 'NONE', *, *, #131, .T. ) ;
#113 = PRODUCT ( 'Micro_SFLM-050-60', 'Micro_SFLM-050-60', '', ( #94 ) ) ;
#114 = DIRECTION ( 'NONE',  ( 0.0000000000000000000, 0.0000000000000000000, -1.000000000000000000 ) ) ;
#115 = EDGE_LOOP ( 'NONE', ( #143, #167, #230, #166 ) ) ;
#116 = EDGE_CURVE ( 'NONE', #161, #235, #249, .T. ) ;
#117 =( NAMED_UNIT ( * ) SI_UNIT ( $, .STERADIAN. ) SOLID_ANGLE_UNIT ( ) );
#118 = AXIS2_PLACEMENT_3D ( 'NONE', #233, #114, #262 ) ;
#119 = ORIENTED_EDGE ( 'NONE', *, *, #151, .T. ) ;
#120 = AXIS2_PLACEMENT_3D ( 'NONE', #247, #156, #293 ) ;
#121 = ORIENTED_EDGE ( 'NONE', *, *, #197, .T. ) ;
#122 = FACE_OUTER_BOUND ( 'NONE', #190, .T. ) ;
#123 = DIRECTION ( 'NONE',  ( -0.1736481776669310528, 2.126576849575781776E-17, 0.9848077530122080203 ) ) ;
#124 = AXIS2_PLACEMENT_3D ( 'NONE', #194, #261, #219 ) ;
#125 = FACE_OUTER_BOUND ( 'NONE', #21, .T. ) ;
#126 = LINE ( 'NONE', #8, #86 ) ;
#127 = ADVANCED_FACE ( 'NONE', ( #122 ), #26, .T. ) ;
#128 = DIRECTION ( 'NONE',  ( -1.224646799147353207E-16, -0.0000000000000000000, -1.000000000000000000 ) ) ;
#129 = STYLED_ITEM ( 'NONE', ( #208 ), #272 ) ;
#130 = FILL_AREA_STYLE ('',( #155 ) ) ;
#131 = EDGE_CURVE ( 'NONE', #235, #212, #170, .T. ) ;
#132 =( LENGTH_UNIT ( ) NAMED_UNIT ( * ) SI_UNIT ( $, .METRE. ) );
#133 =( GEOMETRIC_REPRESENTATION_CONTEXT ( 3 ) GLOBAL_UNCERTAINTY_ASSIGNED_CONTEXT ( ( #288 ) ) GLOBAL_UNIT_ASSIGNED_CONTEXT ( ( #111, #232, #189 ) ) REPRESENTATION_CONTEXT ( 'NONE', 'WORKASPACE' ) );
#134 = DIRECTION ( 'NONE',  ( 1.000000000000000000, 0.0000000000000000000, 0.0000000000000000000 ) ) ;
#135 = CARTESIAN_POINT ( 'NONE',  ( 0.0000000000000000000, 0.0000000000000000000, 0.0000000000000000000 ) ) ;
#136 = ORIENTED_EDGE ( 'NONE', *, *, #267, .F. ) ;
#137 = AXIS2_PLACEMENT_3D ( 'NONE', #149, #128, #280 ) ;
#138 = ORIENTED_EDGE ( 'NONE', *, *, #150, .F. ) ;
#139 = SURFACE_STYLE_USAGE ( .BOTH. , #40 ) ;
#140 = EDGE_CURVE ( 'NONE', #236, #275, #24, .T. ) ;
#141 = ORIENTED_EDGE ( 'NONE', *, *, #198, .T. ) ;
#142 = EDGE_CURVE ( 'NONE', #209, #299, #126, .T. ) ;
#143 = ORIENTED_EDGE ( 'NONE', *, *, #42, .F. ) ;
#144 = ORIENTED_EDGE ( 'NONE', *, *, #207, .T. ) ;
#145 = CARTESIAN_POINT ( 'NONE',  ( 0.0000000000000000000, 0.0000000000000000000, 2.952755999999999936 ) ) ;
#146 = DIRECTION ( 'NONE',  ( 0.0000000000000000000, 0.0000000000000000000, -1.000000000000000000 ) ) ;
#147 = DIRECTION ( 'NONE',  ( 1.000000000000000000, 0.0000000000000000000, 0.0000000000000000000 ) ) ;
#148 = AXIS2_PLACEMENT_3D ( 'NONE', #152, #52, #101 ) ;
#149 = CARTESIAN_POINT ( 'NONE',  ( 1.474662427518848307E-33, 0.0000000000000000000, 1.204153253448721512E-17 ) ) ;
#150 = EDGE_CURVE ( 'NONE', #91, #212, #4, .T. ) ;
#151 = EDGE_CURVE ( 'NONE', #66, #209, #3, .T. ) ;
#152 = CARTESIAN_POINT ( 'NONE',  ( 0.0000000000000000000, 0.0000000000000000000, 2.937755999999999368 ) ) ;
#153 = DIRECTION ( 'NONE',  ( 0.0000000000000000000, 0.0000000000000000000, 1.000000000000000000 ) ) ;
#154 = SURFACE_STYLE_FILL_AREA ( #130 ) ;
#155 = FILL_AREA_STYLE_COLOUR ( '', #183 ) ;
#156 = DIRECTION ( 'NONE',  ( -1.224646799147353207E-16, -0.0000000000000000000, -1.000000000000000000 ) ) ;
#157 = AXIS2_PLACEMENT_3D ( 'NONE', #96, #25, #286 ) ;
#158 = DIRECTION ( 'NONE',  ( 1.000000000000000000, 0.0000000000000000000, 0.0000000000000000000 ) ) ;
#159 = ORIENTED_EDGE ( 'NONE', *, *, #140, .T. ) ;
#160 = DIRECTION ( 'NONE',  ( 0.0000000000000000000, 0.0000000000000000000, 1.000000000000000000 ) ) ;
#161 = VERTEX_POINT ( 'NONE', #74 ) ;
#162 = VECTOR ( 'NONE', #10, 39.37007874015748143 ) ;
#163 = ADVANCED_FACE ( 'NONE', ( #268 ), #61, .F. ) ;
#164 = EDGE_LOOP ( 'NONE', ( #48, #257, #187, #95 ) ) ;
#165 = FILL_AREA_STYLE ('',( #90 ) ) ;
#166 = ORIENTED_EDGE ( 'NONE', *, *, #182, .F. ) ;
#167 = ORIENTED_EDGE ( 'NONE', *, *, #142, .T. ) ;
#168 = DIRECTION ( 'NONE',  ( -0.0000000000000000000, -0.0000000000000000000, -1.000000000000000000 ) ) ;
#169 = PRESENTATION_LAYER_ASSIGNMENT (  '', '', ( #129 ) ) ;
#170 = LINE ( 'NONE', #29, #59 ) ;
#171 = DIRECTION ( 'NONE',  ( -1.000000000000000000, 0.0000000000000000000, 1.224646799147353207E-16 ) ) ;
#172 = DIRECTION ( 'NONE',  ( 1.224646799147353207E-16, 0.0000000000000000000, 1.000000000000000000 ) ) ;
#173 = COLOUR_RGB ( '',0.7921568627450980005, 0.8196078431372548767, 0.9333333333333333481 ) ;
#174 = DIRECTION ( 'NONE',  ( 0.0000000000000000000, 0.0000000000000000000, 1.000000000000000000 ) ) ;
#175 = CARTESIAN_POINT ( 'NONE',  ( 0.0000000000000000000, 0.0000000000000000000, 2.952755999999999936 ) ) ;
#176 = UNCERTAINTY_MEASURE_WITH_UNIT (LENGTH_MEASURE( 1.000000000000000082E-05 ), #186, 'distance_accuracy_value', 'NONE');
#177 = CARTESIAN_POINT ( 'NONE',  ( -0.09832657499999998552, 0.0000000000000000000, 2.408306506897443024E-17 ) ) ;
#178 = VECTOR ( 'NONE', #79, 39.37007874015748143 ) ;
#179 = DIRECTION ( 'NONE',  ( 1.000000000000000000, 0.0000000000000000000, -0.0000000000000000000 ) ) ;
#180 = DIRECTION ( 'NONE',  ( 1.224646799147353207E-16, 0.0000000000000000000, 1.000000000000000000 ) ) ;
#181 = PRODUCT_DEFINITION_SHAPE ( 'NONE', 'NONE',  #206 ) ;
#182 = EDGE_CURVE ( 'NONE', #66, #91, #245, .T. ) ;
#183 = COLOUR_RGB ( '',0.7921568627450980005, 0.8196078431372548767, 0.9333333333333333481 ) ;
#184 = ORIENTED_EDGE ( 'NONE', *, *, #131, .F. ) ;
#185 = ORIENTED_EDGE ( 'NONE', *, *, #6, .T. ) ;
#186 =( CONVERSION_BASED_UNIT ( 'INCH', #259 ) LENGTH_UNIT ( ) NAMED_UNIT ( #47 ) );
#187 = ORIENTED_EDGE ( 'NONE', *, *, #182, .T. ) ;
#188 = AXIS2_PLACEMENT_3D ( 'NONE', #77, #174, #147 ) ;
#189 =( NAMED_UNIT ( * ) SI_UNIT ( $, .STERADIAN. ) SOLID_ANGLE_UNIT ( ) );
#190 = EDGE_LOOP ( 'NONE', ( #211, #49, #46, #215 ) ) ;
#191 = APPLICATION_PROTOCOL_DEFINITION ( 'draft international standard', 'automotive_design', 1998, #39 ) ;
#192 = ORIENTED_EDGE ( 'NONE', *, *, #116, .T. ) ;
#193 = DIRECTION ( 'NONE',  ( -1.000000000000000000, 0.0000000000000000000, 0.0000000000000000000 ) ) ;
#194 = CARTESIAN_POINT ( 'NONE',  ( 0.0000000000000000000, 0.0000000000000000000, 2.952755999999999936 ) ) ;
#195 = AXIS2_PLACEMENT_3D ( 'NONE', #135, #160, #85 ) ;
#196 = DIRECTION ( 'NONE',  ( 0.0000000000000000000, 0.0000000000000000000, 1.000000000000000000 ) ) ;
#197 = EDGE_CURVE ( 'NONE', #212, #251, #76, .T. ) ;
#198 = EDGE_CURVE ( 'NONE', #235, #161, #36, .T. ) ;
#199 = PLANE ( 'NONE',  #124 ) ;
#200 = FACE_OUTER_BOUND ( 'NONE', #65, .T. ) ;
#201 = AXIS2_PLACEMENT_3D ( 'NONE', #57, #153, #179 ) ;
#202 = SURFACE_SIDE_STYLE ('',( #154 ) ) ;
#203 = DIRECTION ( 'NONE',  ( -1.224646799147353207E-16, -0.0000000000000000000, -1.000000000000000000 ) ) ;
#204 = AXIS2_PLACEMENT_3D ( 'NONE', #229, #15, #222 ) ;
#205 =( NAMED_UNIT ( * ) SI_UNIT ( $, .STERADIAN. ) SOLID_ANGLE_UNIT ( ) );
#206 = PRODUCT_DEFINITION ( 'UNKNOWN', '', #296, #58 ) ;
#207 = EDGE_CURVE ( 'NONE', #235, #236, #225, .T. ) ;
#208 = PRESENTATION_STYLE_ASSIGNMENT (( #139 ) ) ;
#209 = VERTEX_POINT ( 'NONE', #12 ) ;
#210 =( LENGTH_UNIT ( ) NAMED_UNIT ( * ) SI_UNIT ( $, .METRE. ) );
#211 = ORIENTED_EDGE ( 'NONE', *, *, #228, .F. ) ;
#212 = VERTEX_POINT ( 'NONE', #11 ) ;
#213 = AXIS2_PLACEMENT_3D ( 'NONE', #1, #172, #56 ) ;
#214 = APPLICATION_PROTOCOL_DEFINITION ( 'draft international standard', 'automotive_design', 1998, #254 ) ;
#215 = ORIENTED_EDGE ( 'NONE', *, *, #53, .F. ) ;
#216 = EDGE_LOOP ( 'NONE', ( #185, #69, #41, #138 ) ) ;
#217 = CARTESIAN_POINT ( 'NONE',  ( 0.0000000000000000000, 0.0000000000000000000, 2.952755999999999936 ) ) ;
#218 =( GEOMETRIC_REPRESENTATION_CONTEXT ( 3 ) GLOBAL_UNCERTAINTY_ASSIGNED_CONTEXT ( ( #105 ) ) GLOBAL_UNIT_ASSIGNED_CONTEXT ( ( #33, #226, #205 ) ) REPRESENTATION_CONTEXT ( 'NONE', 'WORKASPACE' ) );
#219 = DIRECTION ( 'NONE',  ( 1.000000000000000000, 0.0000000000000000000, -0.0000000000000000000 ) ) ;
#220 = DIRECTION ( 'NONE',  ( 1.000000000000000000, 0.0000000000000000000, 0.0000000000000000000 ) ) ;
#221 = LINE ( 'NONE', #75, #99 ) ;
#222 = DIRECTION ( 'NONE',  ( -1.000000000000000000, 0.0000000000000000000, 1.224646799147353207E-16 ) ) ;
#223 = AXIS2_PLACEMENT_3D ( 'NONE', #284, #28, #2 ) ;
#224 = DIRECTION ( 'NONE',  ( -1.224646799147353207E-16, -0.0000000000000000000, -1.000000000000000000 ) ) ;
#225 = LINE ( 'NONE', #250, #50 ) ;
#226 =( NAMED_UNIT ( * ) PLANE_ANGLE_UNIT ( ) SI_UNIT ( $, .RADIAN. ) );
#227 = AXIS2_PLACEMENT_3D ( 'NONE', #100, #196, #283 ) ;
#228 = EDGE_CURVE ( 'NONE', #299, #251, #13, .T. ) ;
#229 = CARTESIAN_POINT ( 'NONE',  ( 0.0000000000000000000, 0.0000000000000000000, 0.0000000000000000000 ) ) ;
#230 = ORIENTED_EDGE ( 'NONE', *, *, #6, .F. ) ;
#231 = CONICAL_SURFACE ( 'NONE', #213, 0.09832657499999998552, 0.1745329251994337805 ) ;
#232 =( NAMED_UNIT ( * ) PLANE_ANGLE_UNIT ( ) SI_UNIT ( $, .RADIAN. ) );
#233 = CARTESIAN_POINT ( 'NONE',  ( 0.0000000000000000000, 0.0000000000000000000, 2.937755999999999368 ) ) ;
#234 = ORIENTED_EDGE ( 'NONE', *, *, #267, .T. ) ;
#235 = VERTEX_POINT ( 'NONE', #248 ) ;
#236 = VERTEX_POINT ( 'NONE', #177 ) ;
#237 = CARTESIAN_POINT ( 'NONE',  ( 1.487406255293943111E-16, 0.0000000000000000000, 1.214559378532270140 ) ) ;
#238 = FACE_OUTER_BOUND ( 'NONE', #164, .T. ) ;
#239 = AXIS2_PLACEMENT_3D ( 'NONE', #263, #30, #193 ) ;
#240 = DIRECTION ( 'NONE',  ( -1.224646799147353207E-16, -0.0000000000000000000, -1.000000000000000000 ) ) ;
#241 = CARTESIAN_POINT ( 'NONE',  ( 0.0000000000000000000, 0.0000000000000000000, 0.0000000000000000000 ) ) ;
#242 = DIRECTION ( 'NONE',  ( -1.224646799147353207E-16, -0.0000000000000000000, -1.000000000000000000 ) ) ;
#243 = CLOSED_SHELL ( 'NONE', ( #20, #256, #16, #278, #127, #107, #73, #83, #258, #163 ) ) ;
#244 = MANIFOLD_SOLID_BREP ( 'Cut-Revolve1', #243 ) ;
#245 = LINE ( 'NONE', #60, #64 ) ;
#246 = AXIS2_PLACEMENT_3D ( 'NONE', #237, #240, #220 ) ;
#247 = CARTESIAN_POINT ( 'NONE',  ( 1.350004094801674599E-16, 0.0000000000000000000, 1.102362000000000064 ) ) ;
#248 = CARTESIAN_POINT ( 'NONE',  ( -0.09832657499999986062, 1.325291793960830067E-17, 1.102362000000000064 ) ) ;
#249 = CIRCLE ( 'NONE', #239, 0.09832657499999998552 ) ;
#250 = CARTESIAN_POINT ( 'NONE',  ( -0.09832657499999998552, 0.0000000000000000000, 1.204153253448721512E-17 ) ) ;
#251 = VERTEX_POINT ( 'NONE', #292 ) ;
#252 = EDGE_LOOP ( 'NONE', ( #68, #192, #144, #89 ) ) ;
#253 = STYLED_ITEM ( 'NONE', ( #34 ), #244 ) ;
#254 = APPLICATION_CONTEXT ( 'automotive_design' ) ;
#255 = ORIENTED_EDGE ( 'NONE', *, *, #62, .T. ) ;
#256 = ADVANCED_FACE ( 'NONE', ( #35 ), #27, .T. ) ;
#257 = ORIENTED_EDGE ( 'NONE', *, *, #151, .F. ) ;
#258 = ADVANCED_FACE ( 'NONE', ( #84 ), #63, .T. ) ;
#259 = LENGTH_MEASURE_WITH_UNIT ( LENGTH_MEASURE( 0.02539999999999999897 ), #22 );
#260 = DIRECTION ( 'NONE',  ( -1.000000000000000000, 0.0000000000000000000, 0.0000000000000000000 ) ) ;
#261 = DIRECTION ( 'NONE',  ( 0.0000000000000000000, 0.0000000000000000000, 1.000000000000000000 ) ) ;
#262 = DIRECTION ( 'NONE',  ( 1.000000000000000000, 0.0000000000000000000, 0.0000000000000000000 ) ) ;
#263 = CARTESIAN_POINT ( 'NONE',  ( 1.350004094801674599E-16, 0.0000000000000000000, 1.102362000000000064 ) ) ;
#264 = CYLINDRICAL_SURFACE ( 'NONE', #276, 0.09832657499999998552 ) ;
#265 = DIRECTION ( 'NONE',  ( -0.0000000000000000000, -0.0000000000000000000, -1.000000000000000000 ) ) ;
#266 = CONICAL_SURFACE ( 'NONE', #270, 0.1031099999999991607, 0.7853981633974500554 ) ;
#267 = EDGE_CURVE ( 'NONE', #161, #251, #110, .T. ) ;
#268 = FACE_OUTER_BOUND ( 'NONE', #87, .T. ) ;
#269 = CARTESIAN_POINT ( 'NONE',  ( 0.09832657500000012429, 0.0000000000000000000, 1.102362000000000064 ) ) ;
#270 = AXIS2_PLACEMENT_3D ( 'NONE', #217, #72, #260 ) ;
#271 = ORIENTED_EDGE ( 'NONE', *, *, #116, .F. ) ;
#272 = ADVANCED_BREP_SHAPE_REPRESENTATION ( 'Micro_SFLM-050-60', ( #244, #195 ), #133 ) ;
#273 = ORIENTED_EDGE ( 'NONE', *, *, #140, .F. ) ;
#274 = LENGTH_MEASURE_WITH_UNIT ( LENGTH_MEASURE( 0.02539999999999999897 ), #210 );
#275 = VERTEX_POINT ( 'NONE', #104 ) ;
#276 = AXIS2_PLACEMENT_3D ( 'NONE', #241, #242, #171 ) ;
#277 = DIMENSIONAL_EXPONENTS ( 1.000000000000000000, 0.0000000000000000000, 0.0000000000000000000, 0.0000000000000000000, 0.0000000000000000000, 0.0000000000000000000, 0.0000000000000000000 ) ;
#278 = ADVANCED_FACE ( 'NONE', ( #287 ), #78, .T. ) ;
#279 = SURFACE_STYLE_FILL_AREA ( #165 ) ;
#280 = DIRECTION ( 'NONE',  ( -1.000000000000000000, 0.0000000000000000000, 1.224646799147353207E-16 ) ) ;
#281 = DIRECTION ( 'NONE',  ( -1.000000000000000000, 0.0000000000000000000, 0.0000000000000000000 ) ) ;
#282 = DIMENSIONAL_EXPONENTS ( 1.000000000000000000, 0.0000000000000000000, 0.0000000000000000000, 0.0000000000000000000, 0.0000000000000000000, 0.0000000000000000000, 0.0000000000000000000 ) ;
#283 = DIRECTION ( 'NONE',  ( 1.000000000000000000, 0.0000000000000000000, 0.0000000000000000000 ) ) ;
#284 = CARTESIAN_POINT ( 'NONE',  ( 0.0000000000000000000, 0.0000000000000000000, 2.952755999999999936 ) ) ;
#285 = CIRCLE ( 'NONE', #157, 0.09832657499999998552 ) ;
#286 = DIRECTION ( 'NONE',  ( -1.000000000000000000, 0.0000000000000000000, 1.224646799147353207E-16 ) ) ;
#287 = FACE_OUTER_BOUND ( 'NONE', #216, .T. ) ;
#288 = UNCERTAINTY_MEASURE_WITH_UNIT (LENGTH_MEASURE( 1.000000000000000082E-05 ), #111, 'distance_accuracy_value', 'NONE');
#289 = LENGTH_MEASURE_WITH_UNIT ( LENGTH_MEASURE( 0.02539999999999999897 ), #132 );
#290 = AXIS2_PLACEMENT_3D ( 'NONE', #145, #146, #281 ) ;
#291 = DIRECTION ( 'NONE',  ( -0.7071067811865486830, 0.0000000000000000000, -0.7071067811865462405 ) ) ;
#292 = CARTESIAN_POINT ( 'NONE',  ( 0.1181100000000001593, 1.446430334472940933E-17, 1.214559378532270140 ) ) ;
#293 = DIRECTION ( 'NONE',  ( -1.000000000000000000, 0.0000000000000000000, 0.0000000000000000000 ) ) ;
#294 = SHAPE_DEFINITION_REPRESENTATION ( #181, #272 ) ;
#295 = MECHANICAL_DESIGN_GEOMETRIC_PRESENTATION_REPRESENTATION (  '', ( #253 ), #218 ) ;
#296 = PRODUCT_DEFINITION_FORMATION_WITH_SPECIFIED_SOURCE ( 'ANY', '', #113, .NOT_KNOWN. ) ;
#297 = ORIENTED_EDGE ( 'NONE', *, *, #198, .F. ) ;
#298 = EDGE_LOOP ( 'NONE', ( #184, #271, #234, #23 ) ) ;
#299 = VERTEX_POINT ( 'NONE', #45 ) ;
ENDSEC;
END-ISO-10303-21;
