ISO-10303-21;
HEADER;
FILE_DESCRIPTION (( 'STEP AP214' ),
    '1' );
FILE_NAME ('30152W.STEP',
    '2023-06-22T18:04:24',
    ( '' ),
    ( '' ),
    'SwSTEP 2.0',
    'SolidWorks 2023',
    '' );
FILE_SCHEMA (( 'AUTOMOTIVE_DESIGN' ));
ENDSEC;

DATA;
#1 = UNCERTAINTY_MEASURE_WITH_UNIT (LENGTH_MEASURE( 1.000000000000000082E-05 ), #80, 'distance_accuracy_value', 'NONE');
#2 = CARTESIAN_POINT ( 'NONE',  ( 0.000000000000000000, 0.000000000000000000, 0.000000000000000000 ) ) ;
#3 = DIMENSIONAL_EXPONENTS ( 1.000000000000000000, 0.000000000000000000, 0.000000000000000000, 0.000000000000000000, 0.000000000000000000, 0.000000000000000000, 0.000000000000000000 ) ;
#4 = FILL_AREA_STYLE_COLOUR ( '', #68 ) ;
#5 =( NAMED_UNIT ( * ) PLANE_ANGLE_UNIT ( ) SI_UNIT ( $, .RADIAN. ) );
#6 = AXIS2_PLACEMENT_3D ( 'NONE', #300, #60, #136 ) ;
#7 = SURFACE_STYLE_USAGE ( .BOTH. , #270 ) ;
#8 = CARTESIAN_POINT ( 'NONE',  ( 0.1249999999999999861, 2.500000000000000000, 0.000000000000000000 ) ) ;
#9 = AXIS2_PLACEMENT_3D ( 'NONE', #18, #175, #104 ) ;
#10 = DIMENSIONAL_EXPONENTS ( 1.000000000000000000, 0.000000000000000000, 0.000000000000000000, 0.000000000000000000, 0.000000000000000000, 0.000000000000000000, 0.000000000000000000 ) ;
#11 = COLOUR_RGB ( '',0.7921568627450980005, 0.8196078431372548767, 0.9333333333333333481 ) ;
#12 = PLANE ( 'NONE',  #172 ) ;
#13 = CARTESIAN_POINT ( 'NONE',  ( 0.000000000000000000, 0.7500000000000001110, 0.000000000000000000 ) ) ;
#14 = LENGTH_MEASURE_WITH_UNIT ( LENGTH_MEASURE( 0.02539999999999999897 ), #88 );
#15 = ORIENTED_EDGE ( 'NONE', *, *, #197, .F. ) ;
#16 = DIRECTION ( 'NONE',  ( 1.000000000000000000, 3.498990854706722745E-17, 0.000000000000000000 ) ) ;
#17 = DIRECTION ( 'NONE',  ( -0.000000000000000000, -1.000000000000000000, -0.000000000000000000 ) ) ;
#18 = CARTESIAN_POINT ( 'NONE',  ( -6.123233995736766036E-17, 2.500000000000000000, 0.000000000000000000 ) ) ;
#19 = CIRCLE ( 'NONE', #298, 0.1250000000000000278 ) ;
#20 = FILL_AREA_STYLE ('',( #210 ) ) ;
#21 = ORIENTED_EDGE ( 'NONE', *, *, #305, .F. ) ;
#22 = EDGE_CURVE ( 'NONE', #162, #25, #222, .T. ) ;
#23 = UNCERTAINTY_MEASURE_WITH_UNIT (LENGTH_MEASURE( 1.000000000000000082E-05 ), #279, 'distance_accuracy_value', 'NONE');
#24 = FILL_AREA_STYLE_COLOUR ( '', #11 ) ;
#25 = VERTEX_POINT ( 'NONE', #43 ) ;
#26 = AXIS2_PLACEMENT_3D ( 'NONE', #259, #181, #133 ) ;
#27 = LENGTH_MEASURE_WITH_UNIT ( LENGTH_MEASURE( 0.02539999999999999897 ), #250 );
#28 =( NAMED_UNIT ( * ) PLANE_ANGLE_UNIT ( ) SI_UNIT ( $, .RADIAN. ) );
#29 = AXIS2_PLACEMENT_3D ( 'NONE', #192, #76, #161 ) ;
#30 = DIMENSIONAL_EXPONENTS ( 1.000000000000000000, 0.000000000000000000, 0.000000000000000000, 0.000000000000000000, 0.000000000000000000, 0.000000000000000000, 0.000000000000000000 ) ;
#31 = LENGTH_MEASURE_WITH_UNIT ( LENGTH_MEASURE( 0.02539999999999999897 ), #53 );
#32 = CYLINDRICAL_SURFACE ( 'NONE', #84, 0.1250000000000000000 ) ;
#33 = ORIENTED_EDGE ( 'NONE', *, *, #22, .T. ) ;
#34 = CARTESIAN_POINT ( 'NONE',  ( 0.1249999999999999584, 2.500000000000000000, 1.530808498934191817E-17 ) ) ;
#35 = CARTESIAN_POINT ( 'NONE',  ( 0.000000000000000000, 0.000000000000000000, -0.1250000000000000000 ) ) ;
#36 = EDGE_LOOP ( 'NONE', ( #191, #74, #67, #264 ) ) ;
#37 = CLOSED_SHELL ( 'NONE', ( #238, #113, #82, #63 ) ) ;
#38 = AXIS2_PLACEMENT_3D ( 'NONE', #291, #196, #248 ) ;
#39 = FACE_OUTER_BOUND ( 'NONE', #301, .T. ) ;
#40 =( GEOMETRIC_REPRESENTATION_CONTEXT ( 3 ) GLOBAL_UNCERTAINTY_ASSIGNED_CONTEXT ( ( #1 ) ) GLOBAL_UNIT_ASSIGNED_CONTEXT ( ( #80, #28, #272 ) ) REPRESENTATION_CONTEXT ( 'NONE', 'WORKASPACE' ) );
#41 = EDGE_CURVE ( 'NONE', #241, #162, #119, .T. ) ;
#42 = CARTESIAN_POINT ( 'NONE',  ( 0.000000000000000000, 0.000000000000000000, 0.000000000000000000 ) ) ;
#43 = CARTESIAN_POINT ( 'NONE',  ( 1.530808498934191509E-17, 0.000000000000000000, 0.1250000000000000000 ) ) ;
#44 = SURFACE_STYLE_FILL_AREA ( #207 ) ;
#45 = FACE_OUTER_BOUND ( 'NONE', #144, .T. ) ;
#46 =( GEOMETRIC_REPRESENTATION_CONTEXT ( 3 ) GLOBAL_UNCERTAINTY_ASSIGNED_CONTEXT ( ( #123 ) ) GLOBAL_UNIT_ASSIGNED_CONTEXT ( ( #304, #209, #73 ) ) REPRESENTATION_CONTEXT ( 'NONE', 'WORKASPACE' ) );
#47 = ORIENTED_EDGE ( 'NONE', *, *, #244, .T. ) ;
#48 = SURFACE_STYLE_USAGE ( .BOTH. , #72 ) ;
#49 = DIRECTION ( 'NONE',  ( -0.000000000000000000, -1.000000000000000000, -0.000000000000000000 ) ) ;
#50 = MECHANICAL_DESIGN_GEOMETRIC_PRESENTATION_REPRESENTATION (  '', ( #243 ), #52 ) ;
#51 = APPLICATION_PROTOCOL_DEFINITION ( 'draft international standard', 'automotive_design', 1998, #57 ) ;
#52 =( GEOMETRIC_REPRESENTATION_CONTEXT ( 3 ) GLOBAL_UNCERTAINTY_ASSIGNED_CONTEXT ( ( #145 ) ) GLOBAL_UNIT_ASSIGNED_CONTEXT ( ( #129, #5, #83 ) ) REPRESENTATION_CONTEXT ( 'NONE', 'WORKASPACE' ) );
#53 =( LENGTH_UNIT ( ) NAMED_UNIT ( * ) SI_UNIT ( $, .METRE. ) );
#54 = PRODUCT_DEFINITION ( 'UNKNOWN', '', #249, #195 ) ;
#55 = DIRECTION ( 'NONE',  ( 0.000000000000000000, 0.000000000000000000, 1.000000000000000000 ) ) ;
#56 = PRESENTATION_STYLE_ASSIGNMENT (( #154 ) ) ;
#57 = APPLICATION_CONTEXT ( 'automotive_design' ) ;
#58 = ADVANCED_FACE ( 'NONE', ( #45 ), #141, .F. ) ;
#59 = AXIS2_PLACEMENT_3D ( 'NONE', #294, #176, #200 ) ;
#60 = DIRECTION ( 'NONE',  ( 0.000000000000000000, 1.000000000000000000, 0.000000000000000000 ) ) ;
#61 = VECTOR ( 'NONE', #138, 39.37007874015748143 ) ;
#62 = UNCERTAINTY_MEASURE_WITH_UNIT (LENGTH_MEASURE( 1.000000000000000082E-05 ), #213, 'distance_accuracy_value', 'NONE');
#63 = ADVANCED_FACE ( 'NONE', ( #284 ), #120, .T. ) ;
#64 = LINE ( 'NONE', #87, #247 ) ;
#65 = SURFACE_STYLE_USAGE ( .BOTH. , #203 ) ;
#66 = PRESENTATION_STYLE_ASSIGNMENT (( #65 ) ) ;
#67 = ORIENTED_EDGE ( 'NONE', *, *, #179, .T. ) ;
#68 = COLOUR_RGB ( '',1.000000000000000000, 0.000000000000000000, 0.000000000000000000 ) ;
#69 = AXIS2_PLACEMENT_3D ( 'NONE', #92, #116, #70 ) ;
#70 = DIRECTION ( 'NONE',  ( -1.000000000000000000, 0.000000000000000000, 0.000000000000000000 ) ) ;
#71 = ORIENTED_EDGE ( 'NONE', *, *, #41, .F. ) ;
#72 = SURFACE_SIDE_STYLE ('',( #267 ) ) ;
#73 =( NAMED_UNIT ( * ) SI_UNIT ( $, .STERADIAN. ) SOLID_ANGLE_UNIT ( ) );
#74 = ORIENTED_EDGE ( 'NONE', *, *, #305, .T. ) ;
#75 = ADVANCED_FACE ( 'NONE', ( #188 ), #139, .T. ) ;
#76 = DIRECTION ( 'NONE',  ( -0.000000000000000000, -1.000000000000000000, -0.000000000000000000 ) ) ;
#77 = EDGE_LOOP ( 'NONE', ( #33, #255 ) ) ;
#78 = PLANE ( 'NONE',  #6 ) ;
#79 = COLOUR_RGB ( '',1.000000000000000000, 0.000000000000000000, 0.000000000000000000 ) ;
#80 =( CONVERSION_BASED_UNIT ( 'INCH', #293 ) LENGTH_UNIT ( ) NAMED_UNIT ( #3 ) );
#81 = FACE_OUTER_BOUND ( 'NONE', #182, .T. ) ;
#82 = ADVANCED_FACE ( 'NONE', ( #127 ), #103, .T. ) ;
#83 =( NAMED_UNIT ( * ) SI_UNIT ( $, .STERADIAN. ) SOLID_ANGLE_UNIT ( ) );
#84 = AXIS2_PLACEMENT_3D ( 'NONE', #42, #17, #143 ) ;
#85 = FILL_AREA_STYLE_COLOUR ( '', #79 ) ;
#86 = DIMENSIONAL_EXPONENTS ( 1.000000000000000000, 0.000000000000000000, 0.000000000000000000, 0.000000000000000000, 0.000000000000000000, 0.000000000000000000, 0.000000000000000000 ) ;
#87 = CARTESIAN_POINT ( 'NONE',  ( -0.1250000000000001110, 2.500000000000000000, 0.000000000000000000 ) ) ;
#88 =( LENGTH_UNIT ( ) NAMED_UNIT ( * ) SI_UNIT ( $, .METRE. ) );
#89 = PRESENTATION_LAYER_ASSIGNMENT (  '', '', ( #198 ) ) ;
#90 = DIRECTION ( 'NONE',  ( -1.000000000000000000, 0.000000000000000000, 0.000000000000000000 ) ) ;
#91 = ORIENTED_EDGE ( 'NONE', *, *, #140, .T. ) ;
#92 = CARTESIAN_POINT ( 'NONE',  ( -6.123233995736766036E-17, 2.500000000000000000, 0.000000000000000000 ) ) ;
#93 = VECTOR ( 'NONE', #95, 39.37007874015748143 ) ;
#94 =( NAMED_UNIT ( * ) PLANE_ANGLE_UNIT ( ) SI_UNIT ( $, .RADIAN. ) );
#95 = DIRECTION ( 'NONE',  ( -0.000000000000000000, -1.000000000000000000, -0.000000000000000000 ) ) ;
#96 = DIRECTION ( 'NONE',  ( 0.000000000000000000, 0.000000000000000000, -1.000000000000000000 ) ) ;
#97 = ORIENTED_EDGE ( 'NONE', *, *, #244, .F. ) ;
#98 = ORIENTED_EDGE ( 'NONE', *, *, #41, .T. ) ;
#99 = COLOUR_RGB ( '',0.7921568627450980005, 0.8196078431372548767, 0.9333333333333333481 ) ;
#100 = DIRECTION ( 'NONE',  ( -1.000000000000000000, 0.000000000000000000, 0.000000000000000000 ) ) ;
#101 =( NAMED_UNIT ( * ) PLANE_ANGLE_UNIT ( ) SI_UNIT ( $, .RADIAN. ) );
#102 = ADVANCED_FACE ( 'NONE', ( #126 ), #220, .T. ) ;
#103 = CYLINDRICAL_SURFACE ( 'NONE', #59, 0.1250000000000000000 ) ;
#104 = DIRECTION ( 'NONE',  ( -1.000000000000000000, 0.000000000000000000, 0.000000000000000000 ) ) ;
#105 = PRESENTATION_LAYER_ASSIGNMENT (  '', '', ( #153 ) ) ;
#106 = DIRECTION ( 'NONE',  ( 1.000000000000000000, 0.000000000000000000, 0.000000000000000000 ) ) ;
#107 = FILL_AREA_STYLE ('',( #152 ) ) ;
#108 = PRESENTATION_STYLE_ASSIGNMENT (( #7 ) ) ;
#109 = DIRECTION ( 'NONE',  ( 3.498990854706722745E-17, -1.000000000000000000, 0.000000000000000000 ) ) ;
#110 = DIRECTION ( 'NONE',  ( -3.498990854706722745E-17, 1.000000000000000000, -0.000000000000000000 ) ) ;
#111 = ORIENTED_EDGE ( 'NONE', *, *, #252, .T. ) ;
#112 = CIRCLE ( 'NONE', #205, 0.1250000000000000278 ) ;
#113 = ADVANCED_FACE ( 'NONE', ( #81 ), #78, .T. ) ;
#114 = CARTESIAN_POINT ( 'NONE',  ( -7.582401355855259480E-33, 0.7499999999999998890, 0.000000000000000000 ) ) ;
#115 = SURFACE_SIDE_STYLE ('',( #266 ) ) ;
#116 = DIRECTION ( 'NONE',  ( -3.498990854706722745E-17, 1.000000000000000000, -0.000000000000000000 ) ) ;
#117 = EDGE_LOOP ( 'NONE', ( #278, #91, #15, #165 ) ) ;
#118 = PRESENTATION_LAYER_ASSIGNMENT (  '', '', ( #276 ) ) ;
#119 = LINE ( 'NONE', #307, #93 ) ;
#120 = PLANE ( 'NONE',  #285 ) ;
#121 = DIMENSIONAL_EXPONENTS ( 1.000000000000000000, 0.000000000000000000, 0.000000000000000000, 0.000000000000000000, 0.000000000000000000, 0.000000000000000000, 0.000000000000000000 ) ;
#122 = VECTOR ( 'NONE', #158, 39.37007874015748143 ) ;
#123 = UNCERTAINTY_MEASURE_WITH_UNIT (LENGTH_MEASURE( 1.000000000000000082E-05 ), #304, 'distance_accuracy_value', 'NONE');
#124 =( NAMED_UNIT ( * ) SI_UNIT ( $, .STERADIAN. ) SOLID_ANGLE_UNIT ( ) );
#125 = SHAPE_DEFINITION_REPRESENTATION ( #226, #268 ) ;
#126 = FACE_OUTER_BOUND ( 'NONE', #117, .T. ) ;
#127 = FACE_OUTER_BOUND ( 'NONE', #137, .T. ) ;
#128 =( GEOMETRIC_REPRESENTATION_CONTEXT ( 3 ) GLOBAL_UNCERTAINTY_ASSIGNED_CONTEXT ( ( #23 ) ) GLOBAL_UNIT_ASSIGNED_CONTEXT ( ( #279, #274, #299 ) ) REPRESENTATION_CONTEXT ( 'NONE', 'WORKASPACE' ) );
#129 =( CONVERSION_BASED_UNIT ( 'INCH', #27 ) LENGTH_UNIT ( ) NAMED_UNIT ( #10 ) );
#130 =( NAMED_UNIT ( * ) PLANE_ANGLE_UNIT ( ) SI_UNIT ( $, .RADIAN. ) );
#131 = CARTESIAN_POINT ( 'NONE',  ( 0.1250000000000000000, 2.500000000000000000, 1.530808498934192125E-17 ) ) ;
#132 = FILL_AREA_STYLE ('',( #180 ) ) ;
#133 = DIRECTION ( 'NONE',  ( -1.000000000000000000, 0.000000000000000000, 0.000000000000000000 ) ) ;
#134 =( GEOMETRIC_REPRESENTATION_CONTEXT ( 3 ) GLOBAL_UNCERTAINTY_ASSIGNED_CONTEXT ( ( #288 ) ) GLOBAL_UNIT_ASSIGNED_CONTEXT ( ( #186, #94, #206 ) ) REPRESENTATION_CONTEXT ( 'NONE', 'WORKASPACE' ) );
#135 = VERTEX_POINT ( 'NONE', #131 ) ;
#136 = DIRECTION ( 'NONE',  ( 0.000000000000000000, -0.000000000000000000, 1.000000000000000000 ) ) ;
#137 = EDGE_LOOP ( 'NONE', ( #97, #296, #98, #167 ) ) ;
#138 = DIRECTION ( 'NONE',  ( -0.000000000000000000, -1.000000000000000000, -0.000000000000000000 ) ) ;
#139 = CYLINDRICAL_SURFACE ( 'NONE', #9, 0.1250000000000000278 ) ;
#140 = EDGE_CURVE ( 'NONE', #282, #135, #251, .T. ) ;
#141 = PLANE ( 'NONE',  #150 ) ;
#142 = MECHANICAL_DESIGN_GEOMETRIC_PRESENTATION_REPRESENTATION (  '', ( #153 ), #46 ) ;
#143 = DIRECTION ( 'NONE',  ( 0.000000000000000000, 0.000000000000000000, -1.000000000000000000 ) ) ;
#144 = EDGE_LOOP ( 'NONE', ( #160, #21 ) ) ;
#145 = UNCERTAINTY_MEASURE_WITH_UNIT (LENGTH_MEASURE( 1.000000000000000082E-05 ), #129, 'distance_accuracy_value', 'NONE');
#146 = PRESENTATION_STYLE_ASSIGNMENT (( #233 ) ) ;
#147 = EDGE_LOOP ( 'NONE', ( #265, #111 ) ) ;
#148 = DIMENSIONAL_EXPONENTS ( 1.000000000000000000, 0.000000000000000000, 0.000000000000000000, 0.000000000000000000, 0.000000000000000000, 0.000000000000000000, 0.000000000000000000 ) ;
#149 = APPLICATION_CONTEXT ( 'automotive_design' ) ;
#150 = AXIS2_PLACEMENT_3D ( 'NONE', #189, #193, #169 ) ;
#151 = CIRCLE ( 'NONE', #69, 0.1250000000000000555 ) ;
#152 = FILL_AREA_STYLE_COLOUR ( '', #228 ) ;
#153 = STYLED_ITEM ( 'NONE', ( #164 ), #261 ) ;
#154 = SURFACE_STYLE_USAGE ( .BOTH. , #221 ) ;
#155 = MANIFOLD_SOLID_BREP ( 'Revolve - Cutting Edge', #37 ) ;
#156 = STYLED_ITEM ( 'NONE', ( #237 ), #63 ) ;
#157 = MECHANICAL_DESIGN_GEOMETRIC_PRESENTATION_REPRESENTATION (  '', ( #276 ), #134 ) ;
#158 = DIRECTION ( 'NONE',  ( -3.498990854706722745E-17, 1.000000000000000000, -0.000000000000000000 ) ) ;
#159 = PRESENTATION_LAYER_ASSIGNMENT (  '', '', ( #273 ) ) ;
#160 = ORIENTED_EDGE ( 'NONE', *, *, #217, .F. ) ;
#161 = DIRECTION ( 'NONE',  ( 0.000000000000000000, 0.000000000000000000, -1.000000000000000000 ) ) ;
#162 = VERTEX_POINT ( 'NONE', #35 ) ;
#163 = PRODUCT_RELATED_PRODUCT_CATEGORY ( 'part', '', ( #224 ) ) ;
#164 = PRESENTATION_STYLE_ASSIGNMENT (( #262 ) ) ;
#165 = ORIENTED_EDGE ( 'NONE', *, *, #179, .F. ) ;
#166 = FILL_AREA_STYLE ('',( #85 ) ) ;
#167 = ORIENTED_EDGE ( 'NONE', *, *, #256, .F. ) ;
#168 = CARTESIAN_POINT ( 'NONE',  ( -7.582401355855259480E-33, 0.7499999999999998890, 0.000000000000000000 ) ) ;
#169 = DIRECTION ( 'NONE',  ( -1.000000000000000000, -3.498990854706722745E-17, 0.000000000000000000 ) ) ;
#170 = LENGTH_MEASURE_WITH_UNIT ( LENGTH_MEASURE( 0.02539999999999999897 ), #231 );
#171 = LENGTH_MEASURE_WITH_UNIT ( LENGTH_MEASURE( 0.02539999999999999897 ), #287 );
#172 = AXIS2_PLACEMENT_3D ( 'NONE', #8, #109, #16 ) ;
#173 = AXIS2_PLACEMENT_3D ( 'NONE', #178, #55, #106 ) ;
#174 =( LENGTH_UNIT ( ) NAMED_UNIT ( * ) SI_UNIT ( $, .METRE. ) );
#175 = DIRECTION ( 'NONE',  ( -3.498990854706722745E-17, 1.000000000000000000, -0.000000000000000000 ) ) ;
#176 = DIRECTION ( 'NONE',  ( -0.000000000000000000, -1.000000000000000000, -0.000000000000000000 ) ) ;
#177 = CIRCLE ( 'NONE', #26, 0.1250000000000000555 ) ;
#178 = CARTESIAN_POINT ( 'NONE',  ( 0.000000000000000000, 0.000000000000000000, 0.000000000000000000 ) ) ;
#179 = EDGE_CURVE ( 'NONE', #230, #185, #64, .T. ) ;
#180 = FILL_AREA_STYLE_COLOUR ( '', #99 ) ;
#181 = DIRECTION ( 'NONE',  ( -3.498990854706722745E-17, 1.000000000000000000, -0.000000000000000000 ) ) ;
#182 = EDGE_LOOP ( 'NONE', ( #232, #208 ) ) ;
#183 = SURFACE_STYLE_FILL_AREA ( #132 ) ;
#184 = CARTESIAN_POINT ( 'NONE',  ( -0.1250000000000000278, 0.7499999999999998890, 0.000000000000000000 ) ) ;
#185 = VERTEX_POINT ( 'NONE', #295 ) ;
#186 =( CONVERSION_BASED_UNIT ( 'INCH', #170 ) LENGTH_UNIT ( ) NAMED_UNIT ( #121 ) );
#187 = PRESENTATION_LAYER_ASSIGNMENT (  '', '', ( #243 ) ) ;
#188 = FACE_OUTER_BOUND ( 'NONE', #36, .T. ) ;
#189 = CARTESIAN_POINT ( 'NONE',  ( 7.651835625825803009E-35, 0.7500000000000001110, 0.000000000000000000 ) ) ;
#190 = CARTESIAN_POINT ( 'NONE',  ( 0.000000000000000000, 0.7500000000000001110, -0.1250000000000000278 ) ) ;
#191 = ORIENTED_EDGE ( 'NONE', *, *, #140, .F. ) ;
#192 = CARTESIAN_POINT ( 'NONE',  ( 0.000000000000000000, 0.7500000000000001110, 0.000000000000000000 ) ) ;
#193 = DIRECTION ( 'NONE',  ( -3.498990854706722745E-17, 1.000000000000000000, 0.000000000000000000 ) ) ;
#194 = CARTESIAN_POINT ( 'NONE',  ( 1.530808498934191817E-17, 0.7500000000000001110, 0.1250000000000000278 ) ) ;
#195 = PRODUCT_DEFINITION_CONTEXT ( 'detailed design', #149, 'design' ) ;
#196 = DIRECTION ( 'NONE',  ( -3.498990854706722745E-17, 1.000000000000000000, -0.000000000000000000 ) ) ;
#197 = EDGE_CURVE ( 'NONE', #185, #135, #177, .T. ) ;
#198 = STYLED_ITEM ( 'NONE', ( #108 ), #113 ) ;
#199 = PRODUCT_CONTEXT ( 'NONE', #57, 'mechanical' ) ;
#200 = DIRECTION ( 'NONE',  ( 0.000000000000000000, 0.000000000000000000, -1.000000000000000000 ) ) ;
#201 = EDGE_CURVE ( 'NONE', #306, #241, #19, .T. ) ;
#202 =( GEOMETRIC_REPRESENTATION_CONTEXT ( 3 ) GLOBAL_UNCERTAINTY_ASSIGNED_CONTEXT ( ( #211 ) ) GLOBAL_UNIT_ASSIGNED_CONTEXT ( ( #254, #130, #277 ) ) REPRESENTATION_CONTEXT ( 'NONE', 'WORKASPACE' ) );
#203 = SURFACE_SIDE_STYLE ('',( #183 ) ) ;
#204 = ADVANCED_FACE ( 'NONE', ( #229 ), #12, .F. ) ;
#205 = AXIS2_PLACEMENT_3D ( 'NONE', #114, #110, #90 ) ;
#206 =( NAMED_UNIT ( * ) SI_UNIT ( $, .STERADIAN. ) SOLID_ANGLE_UNIT ( ) );
#207 = FILL_AREA_STYLE ('',( #24 ) ) ;
#208 = ORIENTED_EDGE ( 'NONE', *, *, #201, .F. ) ;
#209 =( NAMED_UNIT ( * ) PLANE_ANGLE_UNIT ( ) SI_UNIT ( $, .RADIAN. ) );
#210 = FILL_AREA_STYLE_COLOUR ( '', #297 ) ;
#211 = UNCERTAINTY_MEASURE_WITH_UNIT (LENGTH_MEASURE( 1.000000000000000082E-05 ), #254, 'distance_accuracy_value', 'NONE');
#212 = SURFACE_SIDE_STYLE ('',( #44 ) ) ;
#213 =( CONVERSION_BASED_UNIT ( 'INCH', #171 ) LENGTH_UNIT ( ) NAMED_UNIT ( #242 ) );
#214 = CLOSED_SHELL ( 'NONE', ( #102, #58, #75, #204 ) ) ;
#215 = CIRCLE ( 'NONE', #258, 0.1250000000000000278 ) ;
#216 = DIRECTION ( 'NONE',  ( 0.000000000000000000, -1.000000000000000000, -0.000000000000000000 ) ) ;
#217 = EDGE_CURVE ( 'NONE', #230, #282, #112, .T. ) ;
#218 = SURFACE_STYLE_FILL_AREA ( #271 ) ;
#219 = CIRCLE ( 'NONE', #29, 0.1250000000000000278 ) ;
#220 = CYLINDRICAL_SURFACE ( 'NONE', #38, 0.1250000000000000278 ) ;
#221 = SURFACE_SIDE_STYLE ('',( #218 ) ) ;
#222 = CIRCLE ( 'NONE', #257, 0.1250000000000000000 ) ;
#223 = DIRECTION ( 'NONE',  ( 0.000000000000000000, 0.000000000000000000, -1.000000000000000000 ) ) ;
#224 = PRODUCT ( '30152W', '30152W', '', ( #199 ) ) ;
#225 = DIRECTION ( 'NONE',  ( -3.498990854706722745E-17, 1.000000000000000000, -0.000000000000000000 ) ) ;
#226 = PRODUCT_DEFINITION_SHAPE ( 'NONE', 'NONE',  #54 ) ;
#227 = MECHANICAL_DESIGN_GEOMETRIC_PRESENTATION_REPRESENTATION (  '', ( #156 ), #269 ) ;
#228 = COLOUR_RGB ( '',1.000000000000000000, 0.000000000000000000, 0.000000000000000000 ) ;
#229 = FACE_OUTER_BOUND ( 'NONE', #147, .T. ) ;
#230 = VERTEX_POINT ( 'NONE', #184 ) ;
#231 =( LENGTH_UNIT ( ) NAMED_UNIT ( * ) SI_UNIT ( $, .METRE. ) );
#232 = ORIENTED_EDGE ( 'NONE', *, *, #290, .F. ) ;
#233 = SURFACE_STYLE_USAGE ( .BOTH. , #115 ) ;
#234 = CARTESIAN_POINT ( 'NONE',  ( 0.000000000000000000, 0.000000000000000000, 0.000000000000000000 ) ) ;
#235 =( LENGTH_UNIT ( ) NAMED_UNIT ( * ) SI_UNIT ( $, .METRE. ) );
#236 = AXIS2_PLACEMENT_3D ( 'NONE', #281, #49, #96 ) ;
#237 = PRESENTATION_STYLE_ASSIGNMENT (( #48 ) ) ;
#238 = ADVANCED_FACE ( 'NONE', ( #39 ), #32, .T. ) ;
#239 = DIRECTION ( 'NONE',  ( 0.000000000000000000, 0.000000000000000000, -1.000000000000000000 ) ) ;
#240 = LINE ( 'NONE', #302, #61 ) ;
#241 = VERTEX_POINT ( 'NONE', #190 ) ;
#242 = DIMENSIONAL_EXPONENTS ( 1.000000000000000000, 0.000000000000000000, 0.000000000000000000, 0.000000000000000000, 0.000000000000000000, 0.000000000000000000, 0.000000000000000000 ) ;
#243 = STYLED_ITEM ( 'NONE', ( #56 ), #82 ) ;
#244 = EDGE_CURVE ( 'NONE', #306, #25, #240, .T. ) ;
#245 = APPLICATION_PROTOCOL_DEFINITION ( 'draft international standard', 'automotive_design', 1998, #149 ) ;
#246 = SURFACE_STYLE_FILL_AREA ( #107 ) ;
#247 = VECTOR ( 'NONE', #225, 39.37007874015748143 ) ;
#248 = DIRECTION ( 'NONE',  ( -1.000000000000000000, 0.000000000000000000, 0.000000000000000000 ) ) ;
#249 = PRODUCT_DEFINITION_FORMATION_WITH_SPECIFIED_SOURCE ( 'ANY', '', #224, .NOT_KNOWN. ) ;
#250 =( LENGTH_UNIT ( ) NAMED_UNIT ( * ) SI_UNIT ( $, .METRE. ) );
#251 = LINE ( 'NONE', #34, #122 ) ;
#252 = EDGE_CURVE ( 'NONE', #135, #185, #151, .T. ) ;
#253 = DIRECTION ( 'NONE',  ( -0.000000000000000000, -1.000000000000000000, -0.000000000000000000 ) ) ;
#254 =( CONVERSION_BASED_UNIT ( 'INCH', #14 ) LENGTH_UNIT ( ) NAMED_UNIT ( #86 ) );
#255 = ORIENTED_EDGE ( 'NONE', *, *, #256, .T. ) ;
#256 = EDGE_CURVE ( 'NONE', #25, #162, #286, .T. ) ;
#257 = AXIS2_PLACEMENT_3D ( 'NONE', #2, #309, #239 ) ;
#258 = AXIS2_PLACEMENT_3D ( 'NONE', #168, #308, #100 ) ;
#259 = CARTESIAN_POINT ( 'NONE',  ( -6.123233995736766036E-17, 2.500000000000000000, 0.000000000000000000 ) ) ;
#260 = ORIENTED_EDGE ( 'NONE', *, *, #290, .T. ) ;
#261 = MANIFOLD_SOLID_BREP ( 'Revolve - Tool Body (Straight Shanked)', #214 ) ;
#262 = SURFACE_STYLE_USAGE ( .BOTH. , #212 ) ;
#263 = DIRECTION ( 'NONE',  ( 0.000000000000000000, 0.000000000000000000, -1.000000000000000000 ) ) ;
#264 = ORIENTED_EDGE ( 'NONE', *, *, #252, .F. ) ;
#265 = ORIENTED_EDGE ( 'NONE', *, *, #197, .T. ) ;
#266 = SURFACE_STYLE_FILL_AREA ( #166 ) ;
#267 = SURFACE_STYLE_FILL_AREA ( #20 ) ;
#268 = ADVANCED_BREP_SHAPE_REPRESENTATION ( '30152W', ( #155, #261, #173 ), #40 ) ;
#269 =( GEOMETRIC_REPRESENTATION_CONTEXT ( 3 ) GLOBAL_UNCERTAINTY_ASSIGNED_CONTEXT ( ( #62 ) ) GLOBAL_UNIT_ASSIGNED_CONTEXT ( ( #213, #101, #124 ) ) REPRESENTATION_CONTEXT ( 'NONE', 'WORKASPACE' ) );
#270 = SURFACE_SIDE_STYLE ('',( #246 ) ) ;
#271 = FILL_AREA_STYLE ('',( #4 ) ) ;
#272 =( NAMED_UNIT ( * ) SI_UNIT ( $, .STERADIAN. ) SOLID_ANGLE_UNIT ( ) );
#273 = STYLED_ITEM ( 'NONE', ( #66 ), #155 ) ;
#274 =( NAMED_UNIT ( * ) PLANE_ANGLE_UNIT ( ) SI_UNIT ( $, .RADIAN. ) );
#275 = PRESENTATION_LAYER_ASSIGNMENT (  '', '', ( #156 ) ) ;
#276 = STYLED_ITEM ( 'NONE', ( #146 ), #238 ) ;
#277 =( NAMED_UNIT ( * ) SI_UNIT ( $, .STERADIAN. ) SOLID_ANGLE_UNIT ( ) );
#278 = ORIENTED_EDGE ( 'NONE', *, *, #217, .T. ) ;
#279 =( CONVERSION_BASED_UNIT ( 'INCH', #31 ) LENGTH_UNIT ( ) NAMED_UNIT ( #30 ) );
#280 = ORIENTED_EDGE ( 'NONE', *, *, #22, .F. ) ;
#281 = CARTESIAN_POINT ( 'NONE',  ( 0.000000000000000000, 0.000000000000000000, 0.000000000000000000 ) ) ;
#282 = VERTEX_POINT ( 'NONE', #289 ) ;
#283 = LENGTH_MEASURE_WITH_UNIT ( LENGTH_MEASURE( 0.02539999999999999897 ), #235 );
#284 = FACE_OUTER_BOUND ( 'NONE', #77, .T. ) ;
#285 = AXIS2_PLACEMENT_3D ( 'NONE', #234, #216, #263 ) ;
#286 = CIRCLE ( 'NONE', #236, 0.1250000000000000000 ) ;
#287 =( LENGTH_UNIT ( ) NAMED_UNIT ( * ) SI_UNIT ( $, .METRE. ) );
#288 = UNCERTAINTY_MEASURE_WITH_UNIT (LENGTH_MEASURE( 1.000000000000000082E-05 ), #186, 'distance_accuracy_value', 'NONE');
#289 = CARTESIAN_POINT ( 'NONE',  ( 0.1250000000000000278, 0.7499999999999998890, 1.530808498934192125E-17 ) ) ;
#290 = EDGE_CURVE ( 'NONE', #241, #306, #219, .T. ) ;
#291 = CARTESIAN_POINT ( 'NONE',  ( -6.123233995736766036E-17, 2.500000000000000000, 0.000000000000000000 ) ) ;
#292 = MECHANICAL_DESIGN_GEOMETRIC_PRESENTATION_REPRESENTATION (  '', ( #198 ), #128 ) ;
#293 = LENGTH_MEASURE_WITH_UNIT ( LENGTH_MEASURE( 0.02539999999999999897 ), #174 );
#294 = CARTESIAN_POINT ( 'NONE',  ( 0.000000000000000000, 0.000000000000000000, 0.000000000000000000 ) ) ;
#295 = CARTESIAN_POINT ( 'NONE',  ( -0.1250000000000001110, 2.500000000000000000, 0.000000000000000000 ) ) ;
#296 = ORIENTED_EDGE ( 'NONE', *, *, #201, .T. ) ;
#297 = COLOUR_RGB ( '',1.000000000000000000, 0.000000000000000000, 0.000000000000000000 ) ;
#298 = AXIS2_PLACEMENT_3D ( 'NONE', #13, #253, #223 ) ;
#299 =( NAMED_UNIT ( * ) SI_UNIT ( $, .STERADIAN. ) SOLID_ANGLE_UNIT ( ) );
#300 = CARTESIAN_POINT ( 'NONE',  ( 0.000000000000000000, 0.7500000000000001110, 0.000000000000000000 ) ) ;
#301 = EDGE_LOOP ( 'NONE', ( #260, #47, #280, #71 ) ) ;
#302 = CARTESIAN_POINT ( 'NONE',  ( 1.530808498934191509E-17, 0.000000000000000000, 0.1250000000000000000 ) ) ;
#303 = MECHANICAL_DESIGN_GEOMETRIC_PRESENTATION_REPRESENTATION (  '', ( #273 ), #202 ) ;
#304 =( CONVERSION_BASED_UNIT ( 'INCH', #283 ) LENGTH_UNIT ( ) NAMED_UNIT ( #148 ) );
#305 = EDGE_CURVE ( 'NONE', #282, #230, #215, .T. ) ;
#306 = VERTEX_POINT ( 'NONE', #194 ) ;
#307 = CARTESIAN_POINT ( 'NONE',  ( 0.000000000000000000, 0.000000000000000000, -0.1250000000000000000 ) ) ;
#308 = DIRECTION ( 'NONE',  ( -3.498990854706722745E-17, 1.000000000000000000, -0.000000000000000000 ) ) ;
#309 = DIRECTION ( 'NONE',  ( -0.000000000000000000, -1.000000000000000000, -0.000000000000000000 ) ) ;
ENDSEC;
END-ISO-10303-21;
