ISO-10303-21;
HEADER;
FILE_DESCRIPTION (( 'STEP AP214' ),
    '1' );
FILE_NAME ('Micro_DMM-040-290.STEP',
    '2021-09-02T16:17:08',
    ( '' ),
    ( '' ),
    'SwSTEP 2.0',
    'SolidWorks 2020',
    '' );
FILE_SCHEMA (( 'AUTOMOTIVE_DESIGN' ));
ENDSEC;

DATA;
#1 = DIRECTION ( 'NONE',  ( 0.0000000000000000000, 0.0000000000000000000, 1.000000000000000000 ) ) ;
#2 = ORIENTED_EDGE ( 'NONE', *, *, #109, .T. ) ;
#3 = PLANE ( 'NONE',  #165 ) ;
#4 = ORIENTED_EDGE ( 'NONE', *, *, #29, .F. ) ;
#5 = DIRECTION ( 'NONE',  ( -0.0000000000000000000, -0.0000000000000000000, -1.000000000000000000 ) ) ;
#6 = CIRCLE ( 'NONE', #275, 0.07874000000000000443 ) ;
#7 = DIRECTION ( 'NONE',  ( -0.0000000000000000000, -0.0000000000000000000, -1.000000000000000000 ) ) ;
#8 = DIRECTION ( 'NONE',  ( -1.000000000000000000, 0.0000000000000000000, 0.0000000000000000000 ) ) ;
#9 = CARTESIAN_POINT ( 'NONE',  ( 0.07869000000000003769, 9.636745662490528228E-18, 0.0000000000000000000 ) ) ;
#10 = EDGE_CURVE ( 'NONE', #53, #152, #137, .T. ) ;
#11 = FACE_BOUND ( 'NONE', #328, .T. ) ;
#12 = CARTESIAN_POINT ( 'NONE',  ( 0.0000000000000000000, 0.0000000000000000000, 0.4330709999999999837 ) ) ;
#13 = CIRCLE ( 'NONE', #27, 0.07869000000000006545 ) ;
#14 = CIRCLE ( 'NONE', #315, 0.07869000000000006545 ) ;
#15 =( CONVERSION_BASED_UNIT ( 'INCH', #50 ) LENGTH_UNIT ( ) NAMED_UNIT ( #244 ) );
#16 = ORIENTED_EDGE ( 'NONE', *, *, #225, .T. ) ;
#17 = CIRCLE ( 'NONE', #218, 0.06374000000000018540 ) ;
#18 = VECTOR ( 'NONE', #262, 39.37007874015748854 ) ;
#19 = AXIS2_PLACEMENT_3D ( 'NONE', #210, #264, #106 ) ;
#20 = AXIS2_PLACEMENT_3D ( 'NONE', #70, #269, #197 ) ;
#21 =( LENGTH_UNIT ( ) NAMED_UNIT ( * ) SI_UNIT ( $, .METRE. ) );
#22 = ORIENTED_EDGE ( 'NONE', *, *, #220, .T. ) ;
#23 = PLANE ( 'NONE',  #95 ) ;
#24 = EDGE_LOOP ( 'NONE', ( #4, #125, #204, #256 ) ) ;
#25 = DIRECTION ( 'NONE',  ( -0.7071067811865502373, 0.0000000000000000000, -0.7071067811865446862 ) ) ;
#26 = DIRECTION ( 'NONE',  ( -0.0000000000000000000, -0.0000000000000000000, -1.000000000000000000 ) ) ;
#27 = AXIS2_PLACEMENT_3D ( 'NONE', #12, #163, #8 ) ;
#28 = AXIS2_PLACEMENT_3D ( 'NONE', #295, #170, #274 ) ;
#29 = EDGE_CURVE ( 'NONE', #212, #55, #302, .T. ) ;
#30 = CARTESIAN_POINT ( 'NONE',  ( 0.0000000000000000000, 0.0000000000000000000, 1.968503999999999809 ) ) ;
#31 = VERTEX_POINT ( 'NONE', #216 ) ;
#32 = DIRECTION ( 'NONE',  ( -0.0000000000000000000, -0.0000000000000000000, -1.000000000000000000 ) ) ;
#33 = ORIENTED_EDGE ( 'NONE', *, *, #41, .T. ) ;
#34 = FACE_OUTER_BOUND ( 'NONE', #305, .T. ) ;
#35 = EDGE_CURVE ( 'NONE', #79, #326, #310, .T. ) ;
#36 = AXIS2_PLACEMENT_3D ( 'NONE', #267, #7, #288 ) ;
#37 = FACE_OUTER_BOUND ( 'NONE', #206, .T. ) ;
#38 = PRODUCT_DEFINITION_FORMATION_WITH_SPECIFIED_SOURCE ( 'ANY', '', #39, .NOT_KNOWN. ) ;
#39 = PRODUCT ( 'Micro_DMM-040-290', 'Micro_DMM-040-290', '', ( #324 ) ) ;
#40 = SURFACE_STYLE_USAGE ( .BOTH. , #44 ) ;
#41 = EDGE_CURVE ( 'NONE', #68, #145, #190, .T. ) ;
#42 = VECTOR ( 'NONE', #117, 39.37007874015748143 ) ;
#43 = CARTESIAN_POINT ( 'NONE',  ( 0.07874000000000000443, 9.642868896486258509E-18, 1.968503999999999809 ) ) ;
#44 = SURFACE_SIDE_STYLE ('',( #271 ) ) ;
#45 = EDGE_LOOP ( 'NONE', ( #73, #154, #16, #184 ) ) ;
#46 = DIRECTION ( 'NONE',  ( 0.7071067811865490160, 0.0000000000000000000, 0.7071067811865460184 ) ) ;
#47 = DIRECTION ( 'NONE',  ( 0.0000000000000000000, 0.0000000000000000000, 1.000000000000000000 ) ) ;
#48 = AXIS2_PLACEMENT_3D ( 'NONE', #316, #84, #189 ) ;
#49 = ADVANCED_FACE ( 'NONE', ( #83 ), #246, .T. ) ;
#50 = LENGTH_MEASURE_WITH_UNIT ( LENGTH_MEASURE( 0.02539999999999999897 ), #276 );
#51 = LENGTH_MEASURE_WITH_UNIT ( LENGTH_MEASURE( 0.02539999999999999897 ), #21 );
#52 = CARTESIAN_POINT ( 'NONE',  ( 0.0000000000000000000, 0.0000000000000000000, 0.0000000000000000000 ) ) ;
#53 = VERTEX_POINT ( 'NONE', #112 ) ;
#54 =( GEOMETRIC_REPRESENTATION_CONTEXT ( 3 ) GLOBAL_UNCERTAINTY_ASSIGNED_CONTEXT ( ( #133 ) ) GLOBAL_UNIT_ASSIGNED_CONTEXT ( ( #15, #297, #146 ) ) REPRESENTATION_CONTEXT ( 'NONE', 'WORKASPACE' ) );
#55 = VERTEX_POINT ( 'NONE', #138 ) ;
#56 = EDGE_CURVE ( 'NONE', #55, #212, #161, .T. ) ;
#57 = DIRECTION ( 'NONE',  ( 0.0000000000000000000, 0.0000000000000000000, -1.000000000000000000 ) ) ;
#58 = EDGE_LOOP ( 'NONE', ( #169, #282, #261, #229 ) ) ;
#59 = CIRCLE ( 'NONE', #28, 0.07869000000000000994 ) ;
#60 = ORIENTED_EDGE ( 'NONE', *, *, #10, .F. ) ;
#61 = DIRECTION ( 'NONE',  ( -1.000000000000000000, 0.0000000000000000000, 0.0000000000000000000 ) ) ;
#62 = CARTESIAN_POINT ( 'NONE',  ( 0.07874000000000000443, 9.642868896486258509E-18, 0.4330709999999999837 ) ) ;
#63 = FACE_OUTER_BOUND ( 'NONE', #105, .T. ) ;
#64 = DIRECTION ( 'NONE',  ( 1.000000000000000000, 0.0000000000000000000, 0.0000000000000000000 ) ) ;
#65 = DIRECTION ( 'NONE',  ( -1.000000000000000000, 0.0000000000000000000, 0.0000000000000000000 ) ) ;
#66 = CARTESIAN_POINT ( 'NONE',  ( 0.0000000000000000000, 0.0000000000000000000, 1.707404996040164512E-17 ) ) ;
#67 = DIRECTION ( 'NONE',  ( 1.000000000000000000, 0.0000000000000000000, 0.0000000000000000000 ) ) ;
#68 = VERTEX_POINT ( 'NONE', #281 ) ;
#69 = PRODUCT_RELATED_PRODUCT_CATEGORY ( 'part', '', ( #39 ) ) ;
#70 = CARTESIAN_POINT ( 'NONE',  ( 0.0000000000000000000, 0.0000000000000000000, 1.968503999999999809 ) ) ;
#71 = UNCERTAINTY_MEASURE_WITH_UNIT (LENGTH_MEASURE( 1.000000000000000082E-05 ), #176, 'distance_accuracy_value', 'NONE');
#72 =( LENGTH_UNIT ( ) NAMED_UNIT ( * ) SI_UNIT ( $, .METRE. ) );
#73 = ORIENTED_EDGE ( 'NONE', *, *, #255, .F. ) ;
#74 = ADVANCED_FACE ( 'NONE', ( #102 ), #23, .T. ) ;
#75 = VERTEX_POINT ( 'NONE', #238 ) ;
#76 = VECTOR ( 'NONE', #265, 39.37007874015748143 ) ;
#77 = ORIENTED_EDGE ( 'NONE', *, *, #153, .T. ) ;
#78 = DIRECTION ( 'NONE',  ( -1.000000000000000000, 0.0000000000000000000, 0.0000000000000000000 ) ) ;
#79 = VERTEX_POINT ( 'NONE', #205 ) ;
#80 = AXIS2_PLACEMENT_3D ( 'NONE', #306, #57, #78 ) ;
#81 = LENGTH_MEASURE_WITH_UNIT ( LENGTH_MEASURE( 0.02539999999999999897 ), #72 );
#82 = DIRECTION ( 'NONE',  ( -1.000000000000000000, 0.0000000000000000000, 0.0000000000000000000 ) ) ;
#83 = FACE_OUTER_BOUND ( 'NONE', #253, .T. ) ;
#84 = DIRECTION ( 'NONE',  ( -0.0000000000000000000, -0.0000000000000000000, -1.000000000000000000 ) ) ;
#85 = AXIS2_PLACEMENT_3D ( 'NONE', #164, #32, #247 ) ;
#86 = DIRECTION ( 'NONE',  ( 0.0000000000000000000, 0.0000000000000000000, 1.000000000000000000 ) ) ;
#87 = PRODUCT_DEFINITION ( 'UNKNOWN', '', #38, #270 ) ;
#88 = FACE_OUTER_BOUND ( 'NONE', #45, .T. ) ;
#89 = CARTESIAN_POINT ( 'NONE',  ( 0.007499999999999999722, 0.0000000000000000000, 1.707404996040164512E-17 ) ) ;
#90 = VECTOR ( 'NONE', #309, 39.37007874015748143 ) ;
#91 = DIRECTION ( 'NONE',  ( -0.0000000000000000000, -0.0000000000000000000, -1.000000000000000000 ) ) ;
#92 = UNCERTAINTY_MEASURE_WITH_UNIT (LENGTH_MEASURE( 1.000000000000000082E-05 ), #148, 'distance_accuracy_value', 'NONE');
#93 = FACE_OUTER_BOUND ( 'NONE', #232, .T. ) ;
#94 = APPLICATION_CONTEXT ( 'automotive_design' ) ;
#95 = AXIS2_PLACEMENT_3D ( 'NONE', #230, #234, #207 ) ;
#96 = ORIENTED_EDGE ( 'NONE', *, *, #29, .T. ) ;
#97 = ADVANCED_FACE ( 'NONE', ( #183 ), #222, .T. ) ;
#98 = SURFACE_SIDE_STYLE ('',( #277 ) ) ;
#99 = ADVANCED_BREP_SHAPE_REPRESENTATION ( 'Micro_DMM-040-290', ( #237, #185 ), #303 ) ;
#100 = DIRECTION ( 'NONE',  ( -1.000000000000000000, 0.0000000000000000000, 0.0000000000000000000 ) ) ;
#101 = ORIENTED_EDGE ( 'NONE', *, *, #35, .F. ) ;
#102 = FACE_OUTER_BOUND ( 'NONE', #239, .T. ) ;
#103 = ORIENTED_EDGE ( 'NONE', *, *, #220, .F. ) ;
#104 = FACE_OUTER_BOUND ( 'NONE', #24, .T. ) ;
#105 = EDGE_LOOP ( 'NONE', ( #177, #158 ) ) ;
#106 = DIRECTION ( 'NONE',  ( -1.000000000000000000, 0.0000000000000000000, 0.0000000000000000000 ) ) ;
#107 = EDGE_LOOP ( 'NONE', ( #103, #200, #60, #285 ) ) ;
#108 = CARTESIAN_POINT ( 'NONE',  ( -0.07874000000000000443, 0.0000000000000000000, 1.968503999999999809 ) ) ;
#109 = EDGE_CURVE ( 'NONE', #31, #75, #17, .T. ) ;
#110 = PLANE ( 'NONE',  #252 ) ;
#111 = DIRECTION ( 'NONE',  ( -1.000000000000000000, 0.0000000000000000000, 0.0000000000000000000 ) ) ;
#112 = CARTESIAN_POINT ( 'NONE',  ( -0.07874000000000000443, 0.0000000000000000000, 1.953504000000000129 ) ) ;
#113 = AXIS2_PLACEMENT_3D ( 'NONE', #312, #5, #111 ) ;
#114 = DIRECTION ( 'NONE',  ( 1.000000000000000000, 0.0000000000000000000, -0.0000000000000000000 ) ) ;
#115 = STYLED_ITEM ( 'NONE', ( #319 ), #237 ) ;
#116 = DIRECTION ( 'NONE',  ( -0.7071067811865490160, 8.659560562354951347E-17, 0.7071067811865460184 ) ) ;
#117 = DIRECTION ( 'NONE',  ( -0.0000000000000000000, -0.0000000000000000000, -1.000000000000000000 ) ) ;
#118 = FILL_AREA_STYLE ('',( #224 ) ) ;
#119 = DIRECTION ( 'NONE',  ( -1.000000000000000000, 0.0000000000000000000, 0.0000000000000000000 ) ) ;
#120 = VECTOR ( 'NONE', #25, 39.37007874015748854 ) ;
#121 = CARTESIAN_POINT ( 'NONE',  ( 0.0000000000000000000, 0.0000000000000000000, 1.968503999999999809 ) ) ;
#122 = ORIENTED_EDGE ( 'NONE', *, *, #160, .F. ) ;
#123 = LINE ( 'NONE', #325, #120 ) ;
#124 = APPLICATION_PROTOCOL_DEFINITION ( 'draft international standard', 'automotive_design', 1998, #151 ) ;
#125 = ORIENTED_EDGE ( 'NONE', *, *, #255, .T. ) ;
#126 = ADVANCED_FACE ( 'NONE', ( #104 ), #248, .T. ) ;
#127 = PRESENTATION_STYLE_ASSIGNMENT (( #273 ) ) ;
#128 = ORIENTED_EDGE ( 'NONE', *, *, #147, .F. ) ;
#129 = ORIENTED_EDGE ( 'NONE', *, *, #304, .T. ) ;
#130 = ADVANCED_FACE ( 'NONE', ( #37 ), #311, .T. ) ;
#131 = CLOSED_SHELL ( 'NONE', ( #130, #126, #233, #251, #214, #74, #97, #209, #257, #49, #157 ) ) ;
#132 = MECHANICAL_DESIGN_GEOMETRIC_PRESENTATION_REPRESENTATION (  '', ( #115 ), #54 ) ;
#133 = UNCERTAINTY_MEASURE_WITH_UNIT (LENGTH_MEASURE( 1.000000000000000082E-05 ), #15, 'distance_accuracy_value', 'NONE');
#134 = ORIENTED_EDGE ( 'NONE', *, *, #182, .F. ) ;
#135 = ORIENTED_EDGE ( 'NONE', *, *, #194, .F. ) ;
#136 = LINE ( 'NONE', #108, #90 ) ;
#137 = CIRCLE ( 'NONE', #321, 0.07874000000000000443 ) ;
#138 = CARTESIAN_POINT ( 'NONE',  ( 0.007499999999999999722, 0.0000000000000000000, 1.707404996040164512E-17 ) ) ;
#139 = CARTESIAN_POINT ( 'NONE',  ( -0.007499999999999999722, 5.277615380925519009E-18, 1.707404996040164512E-17 ) ) ;
#140 = DIRECTION ( 'NONE',  ( -0.0000000000000000000, -0.0000000000000000000, -1.000000000000000000 ) ) ;
#141 = STYLED_ITEM ( 'NONE', ( #127 ), #99 ) ;
#142 = DIRECTION ( 'NONE',  ( -0.0000000000000000000, -0.0000000000000000000, -1.000000000000000000 ) ) ;
#143 = DIRECTION ( 'NONE',  ( -0.0000000000000000000, -0.0000000000000000000, -1.000000000000000000 ) ) ;
#144 = CARTESIAN_POINT ( 'NONE',  ( -0.07874000000000000443, 0.0000000000000000000, 0.4330709999999999837 ) ) ;
#145 = VERTEX_POINT ( 'NONE', #266 ) ;
#146 =( NAMED_UNIT ( * ) SI_UNIT ( $, .STERADIAN. ) SOLID_ANGLE_UNIT ( ) );
#147 = EDGE_CURVE ( 'NONE', #236, #155, #166, .T. ) ;
#148 =( CONVERSION_BASED_UNIT ( 'INCH', #81 ) LENGTH_UNIT ( ) NAMED_UNIT ( #213 ) );
#149 = DIRECTION ( 'NONE',  ( 1.000000000000000000, 0.0000000000000000000, 0.0000000000000000000 ) ) ;
#150 = ORIENTED_EDGE ( 'NONE', *, *, #278, .F. ) ;
#151 = APPLICATION_CONTEXT ( 'automotive_design' ) ;
#152 = VERTEX_POINT ( 'NONE', #286 ) ;
#153 = EDGE_CURVE ( 'NONE', #79, #68, #13, .T. ) ;
#154 = ORIENTED_EDGE ( 'NONE', *, *, #56, .F. ) ;
#155 = VERTEX_POINT ( 'NONE', #62 ) ;
#156 = AXIS2_PLACEMENT_3D ( 'NONE', #192, #191, #67 ) ;
#157 = ADVANCED_FACE ( 'NONE', ( #34 ), #3, .F. ) ;
#158 = ORIENTED_EDGE ( 'NONE', *, *, #172, .T. ) ;
#159 = LINE ( 'NONE', #291, #18 ) ;
#160 = EDGE_CURVE ( 'NONE', #75, #152, #159, .T. ) ;
#161 = CIRCLE ( 'NONE', #298, 0.007499999999999999722 ) ;
#162 = MECHANICAL_DESIGN_GEOMETRIC_PRESENTATION_REPRESENTATION (  '', ( #141 ), #322 ) ;
#163 = DIRECTION ( 'NONE',  ( -0.0000000000000000000, -0.0000000000000000000, -1.000000000000000000 ) ) ;
#164 = CARTESIAN_POINT ( 'NONE',  ( 0.0000000000000000000, 0.0000000000000000000, 0.4330709999999999837 ) ) ;
#165 = AXIS2_PLACEMENT_3D ( 'NONE', #245, #186, #114 ) ;
#166 = CIRCLE ( 'NONE', #19, 0.07874000000000000443 ) ;
#167 = LINE ( 'NONE', #43, #284 ) ;
#168 = AXIS2_PLACEMENT_3D ( 'NONE', #240, #323, #61 ) ;
#169 = ORIENTED_EDGE ( 'NONE', *, *, #304, .F. ) ;
#170 = DIRECTION ( 'NONE',  ( -0.0000000000000000000, -0.0000000000000000000, -1.000000000000000000 ) ) ;
#171 = DIRECTION ( 'NONE',  ( 0.0000000000000000000, 0.0000000000000000000, 1.000000000000000000 ) ) ;
#172 = EDGE_CURVE ( 'NONE', #155, #236, #211, .T. ) ;
#173 = CARTESIAN_POINT ( 'NONE',  ( 0.0000000000000000000, 0.0000000000000000000, 0.4330709999999999837 ) ) ;
#174 = CONICAL_SURFACE ( 'NONE', #20, 0.06374000000000018540, 0.7853981633974522758 ) ;
#175 = DIRECTION ( 'NONE',  ( -1.000000000000000000, 0.0000000000000000000, 0.0000000000000000000 ) ) ;
#176 =( CONVERSION_BASED_UNIT ( 'INCH', #51 ) LENGTH_UNIT ( ) NAMED_UNIT ( #263 ) );
#177 = ORIENTED_EDGE ( 'NONE', *, *, #147, .T. ) ;
#178 = SHAPE_DEFINITION_REPRESENTATION ( #187, #99 ) ;
#179 = CARTESIAN_POINT ( 'NONE',  ( 0.0000000000000000000, 0.0000000000000000000, 1.707404996040164512E-17 ) ) ;
#180 = ORIENTED_EDGE ( 'NONE', *, *, #268, .F. ) ;
#181 = ORIENTED_EDGE ( 'NONE', *, *, #41, .F. ) ;
#182 = EDGE_CURVE ( 'NONE', #152, #53, #6, .T. ) ;
#183 = FACE_OUTER_BOUND ( 'NONE', #320, .T. ) ;
#184 = ORIENTED_EDGE ( 'NONE', *, *, #327, .T. ) ;
#185 = AXIS2_PLACEMENT_3D ( 'NONE', #52, #47, #149 ) ;
#186 = DIRECTION ( 'NONE',  ( 0.0000000000000000000, 0.0000000000000000000, 1.000000000000000000 ) ) ;
#187 = PRODUCT_DEFINITION_SHAPE ( 'NONE', 'NONE',  #87 ) ;
#188 = FACE_OUTER_BOUND ( 'NONE', #58, .T. ) ;
#189 = DIRECTION ( 'NONE',  ( -1.000000000000000000, 0.0000000000000000000, 0.0000000000000000000 ) ) ;
#190 = LINE ( 'NONE', #9, #76 ) ;
#191 = DIRECTION ( 'NONE',  ( 0.0000000000000000000, 0.0000000000000000000, 1.000000000000000000 ) ) ;
#192 = CARTESIAN_POINT ( 'NONE',  ( 0.0000000000000000000, 0.0000000000000000000, 1.707404996040164512E-17 ) ) ;
#193 = CIRCLE ( 'NONE', #290, 0.06374000000000018540 ) ;
#194 = EDGE_CURVE ( 'NONE', #53, #236, #136, .T. ) ;
#195 = CARTESIAN_POINT ( 'NONE',  ( 0.0000000000000000000, 0.0000000000000000000, 1.968503999999999809 ) ) ;
#196 = ORIENTED_EDGE ( 'NONE', *, *, #268, .T. ) ;
#197 = DIRECTION ( 'NONE',  ( -1.000000000000000000, 0.0000000000000000000, 0.0000000000000000000 ) ) ;
#198 = CONICAL_SURFACE ( 'NONE', #156, 0.007499999999999999722, 0.7853981633974503884 ) ;
#199 =( NAMED_UNIT ( * ) PLANE_ANGLE_UNIT ( ) SI_UNIT ( $, .RADIAN. ) );
#200 = ORIENTED_EDGE ( 'NONE', *, *, #160, .T. ) ;
#201 =( NAMED_UNIT ( * ) SI_UNIT ( $, .STERADIAN. ) SOLID_ANGLE_UNIT ( ) );
#202 = CARTESIAN_POINT ( 'NONE',  ( 0.0000000000000000000, 0.0000000000000000000, 1.953504000000000129 ) ) ;
#203 = CIRCLE ( 'NONE', #168, 0.07869000000000000994 ) ;
#204 = ORIENTED_EDGE ( 'NONE', *, *, #278, .T. ) ;
#205 = CARTESIAN_POINT ( 'NONE',  ( -0.07869000000000006545, 0.0000000000000000000, 0.4330709999999999837 ) ) ;
#206 = EDGE_LOOP ( 'NONE', ( #77, #33, #150, #101 ) ) ;
#207 = DIRECTION ( 'NONE',  ( 1.000000000000000000, 0.0000000000000000000, -0.0000000000000000000 ) ) ;
#208 = ORIENTED_EDGE ( 'NONE', *, *, #293, .T. ) ;
#209 = ADVANCED_FACE ( 'NONE', ( #11, #63 ), #110, .T. ) ;
#210 = CARTESIAN_POINT ( 'NONE',  ( 0.0000000000000000000, 0.0000000000000000000, 0.4330709999999999837 ) ) ;
#211 = CIRCLE ( 'NONE', #85, 0.07874000000000000443 ) ;
#212 = VERTEX_POINT ( 'NONE', #139 ) ;
#213 = DIMENSIONAL_EXPONENTS ( 1.000000000000000000, 0.0000000000000000000, 0.0000000000000000000, 0.0000000000000000000, 0.0000000000000000000, 0.0000000000000000000, 0.0000000000000000000 ) ;
#214 = ADVANCED_FACE ( 'NONE', ( #188 ), #289, .T. ) ;
#215 = DIRECTION ( 'NONE',  ( -0.0000000000000000000, 0.0000000000000000000, -1.000000000000000000 ) ) ;
#216 = CARTESIAN_POINT ( 'NONE',  ( -0.06374000000000018540, 0.0000000000000000000, 1.968503999999999809 ) ) ;
#217 = CARTESIAN_POINT ( 'NONE',  ( 0.07869000000000006545, 0.0000000000000000000, 0.4330709999999999837 ) ) ;
#218 = AXIS2_PLACEMENT_3D ( 'NONE', #30, #1, #283 ) ;
#219 = CARTESIAN_POINT ( 'NONE',  ( 0.0000000000000000000, 0.0000000000000000000, 1.953504000000000129 ) ) ;
#220 = EDGE_CURVE ( 'NONE', #75, #31, #193, .T. ) ;
#221 = CARTESIAN_POINT ( 'NONE',  ( -0.007499999999999999722, 9.184850993605147975E-19, 1.707404996040164512E-17 ) ) ;
#222 = CONICAL_SURFACE ( 'NONE', #80, 0.06374000000000018540, 0.7853981633974522758 ) ;
#223 = AXIS2_PLACEMENT_3D ( 'NONE', #121, #140, #175 ) ;
#224 = FILL_AREA_STYLE_COLOUR ( '', #299 ) ;
#225 = EDGE_CURVE ( 'NONE', #55, #145, #272, .T. ) ;
#226 = FACE_OUTER_BOUND ( 'NONE', #107, .T. ) ;
#227 = AXIS2_PLACEMENT_3D ( 'NONE', #66, #86, #64 ) ;
#228 = FILL_AREA_STYLE_COLOUR ( '', #249 ) ;
#229 = ORIENTED_EDGE ( 'NONE', *, *, #172, .F. ) ;
#230 = CARTESIAN_POINT ( 'NONE',  ( 0.0000000000000000000, 0.0000000000000000000, 1.968503999999999809 ) ) ;
#231 = APPLICATION_PROTOCOL_DEFINITION ( 'draft international standard', 'automotive_design', 1998, #94 ) ;
#232 = EDGE_LOOP ( 'NONE', ( #329, #129, #128, #135 ) ) ;
#233 = ADVANCED_FACE ( 'NONE', ( #226 ), #174, .T. ) ;
#234 = DIRECTION ( 'NONE',  ( 0.0000000000000000000, 0.0000000000000000000, 1.000000000000000000 ) ) ;
#235 = FILL_AREA_STYLE ('',( #228 ) ) ;
#236 = VERTEX_POINT ( 'NONE', #144 ) ;
#237 = MANIFOLD_SOLID_BREP ( 'Cut-Revolve4', #131 ) ;
#238 = CARTESIAN_POINT ( 'NONE',  ( 0.06374000000000018540, 8.724383797125754882E-18, 1.968503999999999809 ) ) ;
#239 = EDGE_LOOP ( 'NONE', ( #2, #22 ) ) ;
#240 = CARTESIAN_POINT ( 'NONE',  ( 0.0000000000000000000, 0.0000000000000000000, 0.07118999999999972572 ) ) ;
#241 = ORIENTED_EDGE ( 'NONE', *, *, #35, .T. ) ;
#242 = ORIENTED_EDGE ( 'NONE', *, *, #153, .F. ) ;
#243 = DIRECTION ( 'NONE',  ( 1.000000000000000000, 0.0000000000000000000, 0.0000000000000000000 ) ) ;
#244 = DIMENSIONAL_EXPONENTS ( 1.000000000000000000, 0.0000000000000000000, 0.0000000000000000000, 0.0000000000000000000, 0.0000000000000000000, 0.0000000000000000000, 0.0000000000000000000 ) ;
#245 = CARTESIAN_POINT ( 'NONE',  ( 0.0000000000000000000, 0.0000000000000000000, 0.0000000000000000000 ) ) ;
#246 = CYLINDRICAL_SURFACE ( 'NONE', #36, 0.07869000000000003769 ) ;
#247 = DIRECTION ( 'NONE',  ( -1.000000000000000000, 0.0000000000000000000, 0.0000000000000000000 ) ) ;
#248 = CONICAL_SURFACE ( 'NONE', #227, 0.007499999999999999722, 0.7853981633974503884 ) ;
#249 = COLOUR_RGB ( '',0.7921568627450980005, 0.8196078431372548767, 0.9333333333333333481 ) ;
#250 = CARTESIAN_POINT ( 'NONE',  ( -0.07869000000000000994, 9.636745662490523605E-18, 0.07118999999999972572 ) ) ;
#251 = ADVANCED_FACE ( 'NONE', ( #93 ), #296, .T. ) ;
#252 = AXIS2_PLACEMENT_3D ( 'NONE', #217, #215, #82 ) ;
#253 = EDGE_LOOP ( 'NONE', ( #181, #196, #241, #260 ) ) ;
#254 =( NAMED_UNIT ( * ) SI_UNIT ( $, .STERADIAN. ) SOLID_ANGLE_UNIT ( ) );
#255 = EDGE_CURVE ( 'NONE', #212, #326, #300, .T. ) ;
#256 = ORIENTED_EDGE ( 'NONE', *, *, #225, .F. ) ;
#257 = ADVANCED_FACE ( 'NONE', ( #88 ), #198, .T. ) ;
#258 = DIRECTION ( 'NONE',  ( 1.000000000000000000, 0.0000000000000000000, 0.0000000000000000000 ) ) ;
#259 = PRESENTATION_LAYER_ASSIGNMENT (  '', '', ( #115 ) ) ;
#260 = ORIENTED_EDGE ( 'NONE', *, *, #327, .F. ) ;
#261 = ORIENTED_EDGE ( 'NONE', *, *, #194, .T. ) ;
#262 = DIRECTION ( 'NONE',  ( 0.7071067811865502373, 8.659560562354966138E-17, -0.7071067811865446862 ) ) ;
#263 = DIMENSIONAL_EXPONENTS ( 1.000000000000000000, 0.0000000000000000000, 0.0000000000000000000, 0.0000000000000000000, 0.0000000000000000000, 0.0000000000000000000, 0.0000000000000000000 ) ;
#264 = DIRECTION ( 'NONE',  ( -0.0000000000000000000, -0.0000000000000000000, -1.000000000000000000 ) ) ;
#265 = DIRECTION ( 'NONE',  ( -0.0000000000000000000, -0.0000000000000000000, -1.000000000000000000 ) ) ;
#266 = CARTESIAN_POINT ( 'NONE',  ( 0.07869000000000000994, 0.0000000000000000000, 0.07118999999999972572 ) ) ;
#267 = CARTESIAN_POINT ( 'NONE',  ( 0.0000000000000000000, 0.0000000000000000000, 0.0000000000000000000 ) ) ;
#268 = EDGE_CURVE ( 'NONE', #68, #79, #14, .T. ) ;
#269 = DIRECTION ( 'NONE',  ( 0.0000000000000000000, 0.0000000000000000000, -1.000000000000000000 ) ) ;
#270 = PRODUCT_DEFINITION_CONTEXT ( 'detailed design', #151, 'design' ) ;
#271 = SURFACE_STYLE_FILL_AREA ( #118 ) ;
#272 = LINE ( 'NONE', #89, #317 ) ;
#273 = SURFACE_STYLE_USAGE ( .BOTH. , #98 ) ;
#274 = DIRECTION ( 'NONE',  ( -1.000000000000000000, 0.0000000000000000000, 0.0000000000000000000 ) ) ;
#275 = AXIS2_PLACEMENT_3D ( 'NONE', #219, #287, #243 ) ;
#276 =( LENGTH_UNIT ( ) NAMED_UNIT ( * ) SI_UNIT ( $, .METRE. ) );
#277 = SURFACE_STYLE_FILL_AREA ( #235 ) ;
#278 = EDGE_CURVE ( 'NONE', #326, #145, #59, .T. ) ;
#279 =( NAMED_UNIT ( * ) PLANE_ANGLE_UNIT ( ) SI_UNIT ( $, .RADIAN. ) );
#280 = PRESENTATION_LAYER_ASSIGNMENT (  '', '', ( #141 ) ) ;
#281 = CARTESIAN_POINT ( 'NONE',  ( 0.07869000000000006545, 9.636745662490529768E-18, 0.4330709999999999837 ) ) ;
#282 = ORIENTED_EDGE ( 'NONE', *, *, #182, .T. ) ;
#283 = DIRECTION ( 'NONE',  ( 1.000000000000000000, 0.0000000000000000000, 0.0000000000000000000 ) ) ;
#284 = VECTOR ( 'NONE', #143, 39.37007874015748143 ) ;
#285 = ORIENTED_EDGE ( 'NONE', *, *, #293, .F. ) ;
#286 = CARTESIAN_POINT ( 'NONE',  ( 0.07874000000000000443, 9.642868896486258509E-18, 1.953504000000000129 ) ) ;
#287 = DIRECTION ( 'NONE',  ( 0.0000000000000000000, 0.0000000000000000000, -1.000000000000000000 ) ) ;
#288 = DIRECTION ( 'NONE',  ( -1.000000000000000000, 0.0000000000000000000, 0.0000000000000000000 ) ) ;
#289 = CYLINDRICAL_SURFACE ( 'NONE', #48, 0.07874000000000000443 ) ;
#290 = AXIS2_PLACEMENT_3D ( 'NONE', #195, #171, #318 ) ;
#291 = CARTESIAN_POINT ( 'NONE',  ( 0.06374000000000018540, 7.805898697765251255E-18, 1.968503999999999809 ) ) ;
#292 = CARTESIAN_POINT ( 'NONE',  ( 0.0000000000000000000, 0.0000000000000000000, 1.707404996040164512E-17 ) ) ;
#293 = EDGE_CURVE ( 'NONE', #31, #53, #123, .T. ) ;
#294 = VECTOR ( 'NONE', #116, 39.37007874015748143 ) ;
#295 = CARTESIAN_POINT ( 'NONE',  ( 0.0000000000000000000, 0.0000000000000000000, 0.07118999999999972572 ) ) ;
#296 = CYLINDRICAL_SURFACE ( 'NONE', #223, 0.07874000000000000443 ) ;
#297 =( NAMED_UNIT ( * ) PLANE_ANGLE_UNIT ( ) SI_UNIT ( $, .RADIAN. ) );
#298 = AXIS2_PLACEMENT_3D ( 'NONE', #292, #91, #100 ) ;
#299 = COLOUR_RGB ( '',0.7921568627450980005, 0.8196078431372548767, 0.9333333333333333481 ) ;
#300 = LINE ( 'NONE', #221, #294 ) ;
#301 = DIRECTION ( 'NONE',  ( 0.0000000000000000000, 0.0000000000000000000, -1.000000000000000000 ) ) ;
#302 = CIRCLE ( 'NONE', #313, 0.007499999999999999722 ) ;
#303 =( GEOMETRIC_REPRESENTATION_CONTEXT ( 3 ) GLOBAL_UNCERTAINTY_ASSIGNED_CONTEXT ( ( #92 ) ) GLOBAL_UNIT_ASSIGNED_CONTEXT ( ( #148, #279, #254 ) ) REPRESENTATION_CONTEXT ( 'NONE', 'WORKASPACE' ) );
#304 = EDGE_CURVE ( 'NONE', #152, #155, #167, .T. ) ;
#305 = EDGE_LOOP ( 'NONE', ( #308, #96 ) ) ;
#306 = CARTESIAN_POINT ( 'NONE',  ( 0.0000000000000000000, 0.0000000000000000000, 1.968503999999999809 ) ) ;
#307 = ORIENTED_EDGE ( 'NONE', *, *, #109, .F. ) ;
#308 = ORIENTED_EDGE ( 'NONE', *, *, #56, .T. ) ;
#309 = DIRECTION ( 'NONE',  ( -0.0000000000000000000, -0.0000000000000000000, -1.000000000000000000 ) ) ;
#310 = LINE ( 'NONE', #314, #42 ) ;
#311 = CYLINDRICAL_SURFACE ( 'NONE', #113, 0.07869000000000003769 ) ;
#312 = CARTESIAN_POINT ( 'NONE',  ( 0.0000000000000000000, 0.0000000000000000000, 0.0000000000000000000 ) ) ;
#313 = AXIS2_PLACEMENT_3D ( 'NONE', #179, #26, #65 ) ;
#314 = CARTESIAN_POINT ( 'NONE',  ( -0.07869000000000003769, 0.0000000000000000000, 0.0000000000000000000 ) ) ;
#315 = AXIS2_PLACEMENT_3D ( 'NONE', #173, #142, #119 ) ;
#316 = CARTESIAN_POINT ( 'NONE',  ( 0.0000000000000000000, 0.0000000000000000000, 1.968503999999999809 ) ) ;
#317 = VECTOR ( 'NONE', #46, 39.37007874015748143 ) ;
#318 = DIRECTION ( 'NONE',  ( 1.000000000000000000, 0.0000000000000000000, 0.0000000000000000000 ) ) ;
#319 = PRESENTATION_STYLE_ASSIGNMENT (( #40 ) ) ;
#320 = EDGE_LOOP ( 'NONE', ( #122, #307, #208, #134 ) ) ;
#321 = AXIS2_PLACEMENT_3D ( 'NONE', #202, #301, #258 ) ;
#322 =( GEOMETRIC_REPRESENTATION_CONTEXT ( 3 ) GLOBAL_UNCERTAINTY_ASSIGNED_CONTEXT ( ( #71 ) ) GLOBAL_UNIT_ASSIGNED_CONTEXT ( ( #176, #199, #201 ) ) REPRESENTATION_CONTEXT ( 'NONE', 'WORKASPACE' ) );
#323 = DIRECTION ( 'NONE',  ( -0.0000000000000000000, -0.0000000000000000000, -1.000000000000000000 ) ) ;
#324 = PRODUCT_CONTEXT ( 'NONE', #94, 'mechanical' ) ;
#325 = CARTESIAN_POINT ( 'NONE',  ( -0.06374000000000018540, 0.0000000000000000000, 1.968503999999999809 ) ) ;
#326 = VERTEX_POINT ( 'NONE', #250 ) ;
#327 = EDGE_CURVE ( 'NONE', #145, #326, #203, .T. ) ;
#328 = EDGE_LOOP ( 'NONE', ( #242, #180 ) ) ;
#329 = ORIENTED_EDGE ( 'NONE', *, *, #10, .T. ) ;
ENDSEC;
END-ISO-10303-21;
