ISO-10303-21;
HEADER;
FILE_DESCRIPTION (( 'STEP AP214' ),
    '1' );
FILE_NAME ('Micro_GEMM-020-2.STEP',
    '2021-09-01T21:16:10',
    ( '' ),
    ( '' ),
    'SwSTEP 2.0',
    'SolidWorks 2020',
    '' );
FILE_SCHEMA (( 'AUTOMOTIVE_DESIGN' ));
ENDSEC;

DATA;
#1 = ORIENTED_EDGE ( 'NONE', *, *, #71, .F. ) ;
#2 = AXIS2_PLACEMENT_3D ( 'NONE', #116, #70, #209 ) ;
#3 = CARTESIAN_POINT ( 'NONE',  ( 0.05905500000000002414, 7.232151672364696963E-18, 0.3480824609844122564 ) ) ;
#4 =( GEOMETRIC_REPRESENTATION_CONTEXT ( 3 ) GLOBAL_UNCERTAINTY_ASSIGNED_CONTEXT ( ( #183 ) ) GLOBAL_UNIT_ASSIGNED_CONTEXT ( ( #247, #179, #226 ) ) REPRESENTATION_CONTEXT ( 'NONE', 'WORKASPACE' ) );
#5 = ORIENTED_EDGE ( 'NONE', *, *, #254, .T. ) ;
#6 = ORIENTED_EDGE ( 'NONE', *, *, #298, .F. ) ;
#7 = DIRECTION ( 'NONE',  ( 1.000000000000000000, 0.0000000000000000000, 0.0000000000000000000 ) ) ;
#8 = CONICAL_SURFACE ( 'NONE', #217, 0.04405500000000001082, 0.7853981633974570498 ) ;
#9 = DIRECTION ( 'NONE',  ( -1.224646799147352961E-16, -0.0000000000000000000, -1.000000000000000000 ) ) ;
#10 = EDGE_CURVE ( 'NONE', #234, #24, #187, .T. ) ;
#11 = CARTESIAN_POINT ( 'NONE',  ( 0.03933063000000002613, 0.0000000000000000000, 0.2362200000000000133 ) ) ;
#12 = CYLINDRICAL_SURFACE ( 'NONE', #152, 0.03933063000000000531 ) ;
#13 = LENGTH_MEASURE_WITH_UNIT ( LENGTH_MEASURE( 0.02539999999999999897 ), #85 );
#14 = AXIS2_PLACEMENT_3D ( 'NONE', #101, #140, #188 ) ;
#15 = ADVANCED_FACE ( 'NONE', ( #133 ), #235, .T. ) ;
#16 = CARTESIAN_POINT ( 'NONE',  ( -0.04405500000000001082, 0.0000000000000000000, 1.496062999999999921 ) ) ;
#17 = APPLICATION_CONTEXT ( 'automotive_design' ) ;
#18 = UNCERTAINTY_MEASURE_WITH_UNIT (LENGTH_MEASURE( 1.000000000000000082E-05 ), #86, 'distance_accuracy_value', 'NONE');
#19 = VERTEX_POINT ( 'NONE', #21 ) ;
#20 = EDGE_CURVE ( 'NONE', #28, #94, #210, .T. ) ;
#21 = CARTESIAN_POINT ( 'NONE',  ( -0.03933062999999997755, 6.024382343079789657E-18, 0.2362200000000000133 ) ) ;
#22 = ORIENTED_EDGE ( 'NONE', *, *, #97, .F. ) ;
#23 = ADVANCED_FACE ( 'NONE', ( #257 ), #285, .T. ) ;
#24 = VERTEX_POINT ( 'NONE', #3 ) ;
#25 = ADVANCED_BREP_SHAPE_REPRESENTATION ( 'Micro_GEMM-020-2', ( #90, #27 ), #41 ) ;
#26 = ORIENTED_EDGE ( 'NONE', *, *, #71, .T. ) ;
#27 = AXIS2_PLACEMENT_3D ( 'NONE', #202, #111, #176 ) ;
#28 = VERTEX_POINT ( 'NONE', #73 ) ;
#29 = DIRECTION ( 'NONE',  ( -1.000000000000000000, 0.0000000000000000000, 1.224646799147352714E-16 ) ) ;
#30 = CARTESIAN_POINT ( 'NONE',  ( 0.0000000000000000000, 0.0000000000000000000, 0.0000000000000000000 ) ) ;
#31 = CARTESIAN_POINT ( 'NONE',  ( 0.0000000000000000000, 0.0000000000000000000, 1.496062999999999921 ) ) ;
#32 = AXIS2_PLACEMENT_3D ( 'NONE', #55, #80, #29 ) ;
#33 = FACE_OUTER_BOUND ( 'NONE', #273, .T. ) ;
#34 = CARTESIAN_POINT ( 'NONE',  ( 0.0000000000000000000, 0.0000000000000000000, 1.481063000000000240 ) ) ;
#35 = ADVANCED_FACE ( 'NONE', ( #50 ), #139, .T. ) ;
#36 = DIRECTION ( 'NONE',  ( 0.0000000000000000000, 0.0000000000000000000, 1.000000000000000000 ) ) ;
#37 = AXIS2_PLACEMENT_3D ( 'NONE', #53, #36, #292 ) ;
#38 = PRESENTATION_STYLE_ASSIGNMENT (( #296 ) ) ;
#39 = EDGE_CURVE ( 'NONE', #19, #74, #120, .T. ) ;
#40 = CIRCLE ( 'NONE', #240, 0.03933063000000000531 ) ;
#41 =( GEOMETRIC_REPRESENTATION_CONTEXT ( 3 ) GLOBAL_UNCERTAINTY_ASSIGNED_CONTEXT ( ( #18 ) ) GLOBAL_UNIT_ASSIGNED_CONTEXT ( ( #86, #174, #274 ) ) REPRESENTATION_CONTEXT ( 'NONE', 'WORKASPACE' ) );
#42 =( LENGTH_UNIT ( ) NAMED_UNIT ( * ) SI_UNIT ( $, .METRE. ) );
#43 = FILL_AREA_STYLE ('',( #64 ) ) ;
#44 = EDGE_CURVE ( 'NONE', #234, #19, #40, .T. ) ;
#45 = AXIS2_PLACEMENT_3D ( 'NONE', #147, #124, #106 ) ;
#46 = AXIS2_PLACEMENT_3D ( 'NONE', #56, #126, #163 ) ;
#47 = CARTESIAN_POINT ( 'NONE',  ( 0.04405500000000001082, 5.395181473643666598E-18, 1.496062999999999921 ) ) ;
#48 = CARTESIAN_POINT ( 'NONE',  ( -0.05905499999999998251, 0.0000000000000000000, 1.481063000000000240 ) ) ;
#49 = VERTEX_POINT ( 'NONE', #168 ) ;
#50 = FACE_OUTER_BOUND ( 'NONE', #213, .T. ) ;
#51 = DIMENSIONAL_EXPONENTS ( 1.000000000000000000, 0.0000000000000000000, 0.0000000000000000000, 0.0000000000000000000, 0.0000000000000000000, 0.0000000000000000000, 0.0000000000000000000 ) ;
#52 = CARTESIAN_POINT ( 'NONE',  ( 0.03933063000000002613, 0.0000000000000000000, 0.2362200000000000133 ) ) ;
#53 = CARTESIAN_POINT ( 'NONE',  ( 0.0000000000000000000, 0.0000000000000000000, 1.496062999999999921 ) ) ;
#54 = DIRECTION ( 'NONE',  ( 0.0000000000000000000, 0.0000000000000000000, -1.000000000000000000 ) ) ;
#55 = CARTESIAN_POINT ( 'NONE',  ( 5.898649710075390321E-34, 0.0000000000000000000, 4.816613013794884661E-18 ) ) ;
#56 = CARTESIAN_POINT ( 'NONE',  ( 0.0000000000000000000, 0.0000000000000000000, 1.496062999999999921 ) ) ;
#57 = DIRECTION ( 'NONE',  ( -1.224646799147352961E-16, -0.0000000000000000000, -1.000000000000000000 ) ) ;
#58 = DIRECTION ( 'NONE',  ( -1.000000000000000000, 0.0000000000000000000, 0.0000000000000000000 ) ) ;
#59 = DIRECTION ( 'NONE',  ( 0.0000000000000000000, 0.0000000000000000000, 1.000000000000000000 ) ) ;
#60 = AXIS2_PLACEMENT_3D ( 'NONE', #157, #281, #228 ) ;
#61 = PRODUCT_CONTEXT ( 'NONE', #248, 'mechanical' ) ;
#62 = VECTOR ( 'NONE', #277, 39.37007874015748143 ) ;
#63 = ADVANCED_FACE ( 'NONE', ( #224 ), #8, .T. ) ;
#64 = FILL_AREA_STYLE_COLOUR ( '', #77 ) ;
#65 = ORIENTED_EDGE ( 'NONE', *, *, #135, .F. ) ;
#66 = MECHANICAL_DESIGN_GEOMETRIC_PRESENTATION_REPRESENTATION (  '', ( #245 ), #89 ) ;
#67 = APPLICATION_PROTOCOL_DEFINITION ( 'draft international standard', 'automotive_design', 1998, #248 ) ;
#68 = EDGE_LOOP ( 'NONE', ( #91, #154, #6, #1 ) ) ;
#69 = ORIENTED_EDGE ( 'NONE', *, *, #181, .F. ) ;
#70 = DIRECTION ( 'NONE',  ( 0.0000000000000000000, 0.0000000000000000000, -1.000000000000000000 ) ) ;
#71 = EDGE_CURVE ( 'NONE', #160, #112, #267, .T. ) ;
#72 = DIMENSIONAL_EXPONENTS ( 1.000000000000000000, 0.0000000000000000000, 0.0000000000000000000, 0.0000000000000000000, 0.0000000000000000000, 0.0000000000000000000, 0.0000000000000000000 ) ;
#73 = CARTESIAN_POINT ( 'NONE',  ( 0.04405500000000001082, 6.313666573004179469E-18, 1.496062999999999921 ) ) ;
#74 = VERTEX_POINT ( 'NONE', #144 ) ;
#75 = DIRECTION ( 'NONE',  ( 1.000000000000000000, 0.0000000000000000000, 0.0000000000000000000 ) ) ;
#76 = ORIENTED_EDGE ( 'NONE', *, *, #177, .F. ) ;
#77 = COLOUR_RGB ( '',0.7921568627450980005, 0.8196078431372548767, 0.9333333333333333481 ) ;
#78 = DIRECTION ( 'NONE',  ( 1.000000000000000000, 0.0000000000000000000, 0.0000000000000000000 ) ) ;
#79 = PRESENTATION_STYLE_ASSIGNMENT (( #87 ) ) ;
#80 = DIRECTION ( 'NONE',  ( -1.224646799147352961E-16, -0.0000000000000000000, -1.000000000000000000 ) ) ;
#81 = DIRECTION ( 'NONE',  ( 1.000000000000000000, 0.0000000000000000000, 0.0000000000000000000 ) ) ;
#82 = DIRECTION ( 'NONE',  ( -0.0000000000000000000, -0.0000000000000000000, -1.000000000000000000 ) ) ;
#83 = AXIS2_PLACEMENT_3D ( 'NONE', #143, #244, #7 ) ;
#84 = FACE_OUTER_BOUND ( 'NONE', #231, .T. ) ;
#85 =( LENGTH_UNIT ( ) NAMED_UNIT ( * ) SI_UNIT ( $, .METRE. ) );
#86 =( CONVERSION_BASED_UNIT ( 'INCH', #294 ) LENGTH_UNIT ( ) NAMED_UNIT ( #258 ) );
#87 = SURFACE_STYLE_USAGE ( .BOTH. , #291 ) ;
#88 = SURFACE_STYLE_FILL_AREA ( #43 ) ;
#89 =( GEOMETRIC_REPRESENTATION_CONTEXT ( 3 ) GLOBAL_UNCERTAINTY_ASSIGNED_CONTEXT ( ( #114 ) ) GLOBAL_UNIT_ASSIGNED_CONTEXT ( ( #194, #216, #287 ) ) REPRESENTATION_CONTEXT ( 'NONE', 'WORKASPACE' ) );
#90 = MANIFOLD_SOLID_BREP ( 'Cut-Revolve1', #200 ) ;
#91 = ORIENTED_EDGE ( 'NONE', *, *, #193, .F. ) ;
#92 = EDGE_CURVE ( 'NONE', #160, #28, #191, .T. ) ;
#93 = VECTOR ( 'NONE', #256, 39.37007874015747433 ) ;
#94 = VERTEX_POINT ( 'NONE', #125 ) ;
#95 = ORIENTED_EDGE ( 'NONE', *, *, #44, .F. ) ;
#96 = ORIENTED_EDGE ( 'NONE', *, *, #173, .T. ) ;
#97 = EDGE_CURVE ( 'NONE', #94, #24, #205, .T. ) ;
#98 = VECTOR ( 'NONE', #255, 39.37007874015748143 ) ;
#99 = STYLED_ITEM ( 'NONE', ( #38 ), #25 ) ;
#100 = ORIENTED_EDGE ( 'NONE', *, *, #193, .T. ) ;
#101 = CARTESIAN_POINT ( 'NONE',  ( 0.0000000000000000000, 0.0000000000000000000, 1.496062999999999921 ) ) ;
#102 = CARTESIAN_POINT ( 'NONE',  ( -0.04405500000000001082, 0.0000000000000000000, 1.496062999999999921 ) ) ;
#103 = DIRECTION ( 'NONE',  ( 0.7071067811865536790, 8.659560562355008046E-17, -0.7071067811865412445 ) ) ;
#104 = PLANE ( 'NONE',  #206 ) ;
#105 = CIRCLE ( 'NONE', #37, 0.04405500000000001082 ) ;
#106 = DIRECTION ( 'NONE',  ( -1.000000000000000000, 0.0000000000000000000, 1.224646799147352714E-16 ) ) ;
#107 = LINE ( 'NONE', #290, #186 ) ;
#108 = DIRECTION ( 'NONE',  ( 0.0000000000000000000, 0.0000000000000000000, 1.000000000000000000 ) ) ;
#109 = AXIS2_PLACEMENT_3D ( 'NONE', #34, #123, #78 ) ;
#110 = APPLICATION_PROTOCOL_DEFINITION ( 'draft international standard', 'automotive_design', 1998, #17 ) ;
#111 = DIRECTION ( 'NONE',  ( 0.0000000000000000000, 0.0000000000000000000, 1.000000000000000000 ) ) ;
#112 = VERTEX_POINT ( 'NONE', #48 ) ;
#113 = PRODUCT_RELATED_PRODUCT_CATEGORY ( 'part', '', ( #201 ) ) ;
#114 = UNCERTAINTY_MEASURE_WITH_UNIT (LENGTH_MEASURE( 1.000000000000000082E-05 ), #194, 'distance_accuracy_value', 'NONE');
#115 = EDGE_LOOP ( 'NONE', ( #236, #252 ) ) ;
#116 = CARTESIAN_POINT ( 'NONE',  ( 0.0000000000000000000, 0.0000000000000000000, 1.496062999999999921 ) ) ;
#117 = ORIENTED_EDGE ( 'NONE', *, *, #10, .T. ) ;
#118 = AXIS2_PLACEMENT_3D ( 'NONE', #238, #189, #215 ) ;
#119 = ORIENTED_EDGE ( 'NONE', *, *, #185, .T. ) ;
#120 = LINE ( 'NONE', #158, #93 ) ;
#121 = FACE_OUTER_BOUND ( 'NONE', #297, .T. ) ;
#122 = FILL_AREA_STYLE_COLOUR ( '', #146 ) ;
#123 = DIRECTION ( 'NONE',  ( 0.0000000000000000000, 0.0000000000000000000, -1.000000000000000000 ) ) ;
#124 = DIRECTION ( 'NONE',  ( -1.224646799147352961E-16, -0.0000000000000000000, -1.000000000000000000 ) ) ;
#125 = CARTESIAN_POINT ( 'NONE',  ( 0.05905499999999998251, 7.232151672364692341E-18, 1.481063000000000240 ) ) ;
#126 = DIRECTION ( 'NONE',  ( -0.0000000000000000000, -0.0000000000000000000, -1.000000000000000000 ) ) ;
#127 = CARTESIAN_POINT ( 'NONE',  ( 0.03933062999999999837, 4.816613013794885432E-18, 9.478001694819074349E-34 ) ) ;
#128 = CIRCLE ( 'NONE', #32, 0.03933062999999999837 ) ;
#129 = ORIENTED_EDGE ( 'NONE', *, *, #135, .T. ) ;
#130 = PRODUCT_DEFINITION ( 'UNKNOWN', '', #280, #253 ) ;
#131 = PRESENTATION_LAYER_ASSIGNMENT (  '', '', ( #99 ) ) ;
#132 = ORIENTED_EDGE ( 'NONE', *, *, #232, .F. ) ;
#133 = FACE_OUTER_BOUND ( 'NONE', #208, .T. ) ;
#134 = CONICAL_SURFACE ( 'NONE', #180, 0.03933063000000000531, 0.1745329251994338360 ) ;
#135 = EDGE_CURVE ( 'NONE', #74, #24, #268, .T. ) ;
#136 = ORIENTED_EDGE ( 'NONE', *, *, #20, .F. ) ;
#137 = CARTESIAN_POINT ( 'NONE',  ( 4.262780716838938468E-17, 0.0000000000000000000, 0.3480824609844122564 ) ) ;
#138 = EDGE_LOOP ( 'NONE', ( #164, #204, #65, #156 ) ) ;
#139 = CYLINDRICAL_SURFACE ( 'NONE', #14, 0.05905499999999998251 ) ;
#140 = DIRECTION ( 'NONE',  ( -0.0000000000000000000, -0.0000000000000000000, -1.000000000000000000 ) ) ;
#141 = DIRECTION ( 'NONE',  ( 1.000000000000000000, 0.0000000000000000000, 0.0000000000000000000 ) ) ;
#142 = DIRECTION ( 'NONE',  ( -0.7071067811865536790, 0.0000000000000000000, -0.7071067811865412445 ) ) ;
#143 = CARTESIAN_POINT ( 'NONE',  ( 4.262780716838938468E-17, 0.0000000000000000000, 0.3480824609844122564 ) ) ;
#144 = CARTESIAN_POINT ( 'NONE',  ( -0.05905499999999993394, 0.0000000000000000000, 0.3480824609844122564 ) ) ;
#145 = EDGE_CURVE ( 'NONE', #19, #234, #295, .T. ) ;
#146 = COLOUR_RGB ( '',0.7921568627450980005, 0.8196078431372548767, 0.9333333333333333481 ) ;
#147 = CARTESIAN_POINT ( 'NONE',  ( 5.898649710075390321E-34, 0.0000000000000000000, 4.816613013794884661E-18 ) ) ;
#148 = FACE_OUTER_BOUND ( 'NONE', #233, .T. ) ;
#149 = DIRECTION ( 'NONE',  ( -1.000000000000000000, 0.0000000000000000000, 1.224646799147352714E-16 ) ) ;
#150 = LENGTH_MEASURE_WITH_UNIT ( LENGTH_MEASURE( 0.02539999999999999897 ), #42 );
#151 = PRESENTATION_LAYER_ASSIGNMENT (  '', '', ( #245 ) ) ;
#152 = AXIS2_PLACEMENT_3D ( 'NONE', #172, #271, #149 ) ;
#153 = SHAPE_DEFINITION_REPRESENTATION ( #237, #25 ) ;
#154 = ORIENTED_EDGE ( 'NONE', *, *, #20, .T. ) ;
#155 = AXIS2_PLACEMENT_3D ( 'NONE', #137, #9, #167 ) ;
#156 = ORIENTED_EDGE ( 'NONE', *, *, #246, .F. ) ;
#157 = CARTESIAN_POINT ( 'NONE',  ( 2.892860668945877553E-17, 0.0000000000000000000, 0.2362200000000000133 ) ) ;
#158 = CARTESIAN_POINT ( 'NONE',  ( -0.03933062999999997755, 4.816613013794886973E-18, 0.2362200000000000133 ) ) ;
#159 = ADVANCED_FACE ( 'NONE', ( #239 ), #264, .F. ) ;
#160 = VERTEX_POINT ( 'NONE', #102 ) ;
#161 = ORIENTED_EDGE ( 'NONE', *, *, #246, .T. ) ;
#162 = CIRCLE ( 'NONE', #83, 0.05905499999999998251 ) ;
#163 = DIRECTION ( 'NONE',  ( -1.000000000000000000, 0.0000000000000000000, 0.0000000000000000000 ) ) ;
#164 = ORIENTED_EDGE ( 'NONE', *, *, #298, .T. ) ;
#165 = DIRECTION ( 'NONE',  ( -1.224646799147352961E-16, -0.0000000000000000000, -1.000000000000000000 ) ) ;
#166 = ADVANCED_FACE ( 'NONE', ( #33 ), #195, .T. ) ;
#167 = DIRECTION ( 'NONE',  ( 1.000000000000000000, 0.0000000000000000000, 0.0000000000000000000 ) ) ;
#168 = CARTESIAN_POINT ( 'NONE',  ( -0.03933062999999999837, 0.0000000000000000000, 9.633226027589769323E-18 ) ) ;
#169 = VECTOR ( 'NONE', #199, 39.37007874015748143 ) ;
#170 = LINE ( 'NONE', #269, #218 ) ;
#171 = CIRCLE ( 'NONE', #230, 0.05905499999999998251 ) ;
#172 = CARTESIAN_POINT ( 'NONE',  ( 0.0000000000000000000, 0.0000000000000000000, 0.0000000000000000000 ) ) ;
#173 = EDGE_CURVE ( 'NONE', #234, #276, #262, .T. ) ;
#174 =( NAMED_UNIT ( * ) PLANE_ANGLE_UNIT ( ) SI_UNIT ( $, .RADIAN. ) );
#175 = VECTOR ( 'NONE', #103, 39.37007874015748854 ) ;
#176 = DIRECTION ( 'NONE',  ( 1.000000000000000000, 0.0000000000000000000, 0.0000000000000000000 ) ) ;
#177 = EDGE_CURVE ( 'NONE', #276, #49, #128, .T. ) ;
#178 =( LENGTH_UNIT ( ) NAMED_UNIT ( * ) SI_UNIT ( $, .METRE. ) );
#179 =( NAMED_UNIT ( * ) PLANE_ANGLE_UNIT ( ) SI_UNIT ( $, .RADIAN. ) );
#180 = AXIS2_PLACEMENT_3D ( 'NONE', #219, #222, #141 ) ;
#181 = EDGE_CURVE ( 'NONE', #24, #74, #162, .T. ) ;
#182 = ORIENTED_EDGE ( 'NONE', *, *, #181, .T. ) ;
#183 = UNCERTAINTY_MEASURE_WITH_UNIT (LENGTH_MEASURE( 1.000000000000000082E-05 ), #247, 'distance_accuracy_value', 'NONE');
#184 = ORIENTED_EDGE ( 'NONE', *, *, #185, .F. ) ;
#185 = EDGE_CURVE ( 'NONE', #94, #112, #198, .T. ) ;
#186 = VECTOR ( 'NONE', #82, 39.37007874015748143 ) ;
#187 = LINE ( 'NONE', #52, #62 ) ;
#188 = DIRECTION ( 'NONE',  ( -1.000000000000000000, 0.0000000000000000000, 0.0000000000000000000 ) ) ;
#189 = DIRECTION ( 'NONE',  ( -1.224646799147352961E-16, -0.0000000000000000000, -1.000000000000000000 ) ) ;
#190 = CARTESIAN_POINT ( 'NONE',  ( 2.892860668945877553E-17, 0.0000000000000000000, 0.2362200000000000133 ) ) ;
#191 = CIRCLE ( 'NONE', #261, 0.04405500000000001082 ) ;
#192 = CARTESIAN_POINT ( 'NONE',  ( 0.0000000000000000000, 0.0000000000000000000, 1.496062999999999921 ) ) ;
#193 = EDGE_CURVE ( 'NONE', #28, #160, #105, .T. ) ;
#194 =( CONVERSION_BASED_UNIT ( 'INCH', #13 ) LENGTH_UNIT ( ) NAMED_UNIT ( #72 ) );
#195 = CYLINDRICAL_SURFACE ( 'NONE', #118, 0.03933063000000000531 ) ;
#196 = CARTESIAN_POINT ( 'NONE',  ( 0.0000000000000000000, 0.0000000000000000000, 1.496062999999999921 ) ) ;
#197 = DIRECTION ( 'NONE',  ( -1.000000000000000000, 0.0000000000000000000, 0.0000000000000000000 ) ) ;
#198 = CIRCLE ( 'NONE', #109, 0.05905499999999998251 ) ;
#199 = DIRECTION ( 'NONE',  ( -1.224646799147352961E-16, -0.0000000000000000000, -1.000000000000000000 ) ) ;
#200 = CLOSED_SHELL ( 'NONE', ( #259, #15, #63, #242, #35, #225, #23, #203, #166, #159 ) ) ;
#201 = PRODUCT ( 'Micro_GEMM-020-2', 'Micro_GEMM-020-2', '', ( #61 ) ) ;
#202 = CARTESIAN_POINT ( 'NONE',  ( 0.0000000000000000000, 0.0000000000000000000, 0.0000000000000000000 ) ) ;
#203 = ADVANCED_FACE ( 'NONE', ( #84 ), #134, .T. ) ;
#204 = ORIENTED_EDGE ( 'NONE', *, *, #97, .T. ) ;
#205 = LINE ( 'NONE', #207, #98 ) ;
#206 = AXIS2_PLACEMENT_3D ( 'NONE', #192, #108, #241 ) ;
#207 = CARTESIAN_POINT ( 'NONE',  ( 0.05905499999999998251, 7.232151672364692341E-18, 1.496062999999999921 ) ) ;
#208 = EDGE_LOOP ( 'NONE', ( #227, #279, #129, #299 ) ) ;
#209 = DIRECTION ( 'NONE',  ( -1.000000000000000000, 0.0000000000000000000, 0.0000000000000000000 ) ) ;
#210 = LINE ( 'NONE', #47, #175 ) ;
#211 = AXIS2_PLACEMENT_3D ( 'NONE', #30, #59, #286 ) ;
#212 = MECHANICAL_DESIGN_GEOMETRIC_PRESENTATION_REPRESENTATION (  '', ( #99 ), #4 ) ;
#213 = EDGE_LOOP ( 'NONE', ( #22, #119, #161, #69 ) ) ;
#214 = ORIENTED_EDGE ( 'NONE', *, *, #44, .T. ) ;
#215 = DIRECTION ( 'NONE',  ( -1.000000000000000000, 0.0000000000000000000, 1.224646799147352714E-16 ) ) ;
#216 =( NAMED_UNIT ( * ) PLANE_ANGLE_UNIT ( ) SI_UNIT ( $, .RADIAN. ) );
#217 = AXIS2_PLACEMENT_3D ( 'NONE', #196, #54, #58 ) ;
#218 = VECTOR ( 'NONE', #57, 39.37007874015748143 ) ;
#219 = CARTESIAN_POINT ( 'NONE',  ( 2.892860668945877553E-17, 0.0000000000000000000, 0.2362200000000000133 ) ) ;
#220 = CARTESIAN_POINT ( 'NONE',  ( 0.03933063000000000531, 4.816613013794886973E-18, -4.816613013794885432E-18 ) ) ;
#221 = DIRECTION ( 'NONE',  ( -1.000000000000000000, 0.0000000000000000000, 0.0000000000000000000 ) ) ;
#222 = DIRECTION ( 'NONE',  ( 1.224646799147352961E-16, 0.0000000000000000000, 1.000000000000000000 ) ) ;
#223 = CARTESIAN_POINT ( 'NONE',  ( 0.0000000000000000000, 0.0000000000000000000, 1.481063000000000240 ) ) ;
#224 = FACE_OUTER_BOUND ( 'NONE', #68, .T. ) ;
#225 = ADVANCED_FACE ( 'NONE', ( #121 ), #104, .T. ) ;
#226 =( NAMED_UNIT ( * ) SI_UNIT ( $, .STERADIAN. ) SOLID_ANGLE_UNIT ( ) );
#227 = ORIENTED_EDGE ( 'NONE', *, *, #145, .F. ) ;
#228 = DIRECTION ( 'NONE',  ( 1.000000000000000000, 0.0000000000000000000, 0.0000000000000000000 ) ) ;
#229 = AXIS2_PLACEMENT_3D ( 'NONE', #243, #165, #197 ) ;
#230 = AXIS2_PLACEMENT_3D ( 'NONE', #223, #283, #75 ) ;
#231 = EDGE_LOOP ( 'NONE', ( #249, #95, #117, #182 ) ) ;
#232 = EDGE_CURVE ( 'NONE', #49, #276, #272, .T. ) ;
#233 = EDGE_LOOP ( 'NONE', ( #275, #96, #132, #260 ) ) ;
#234 = VERTEX_POINT ( 'NONE', #11 ) ;
#235 = CONICAL_SURFACE ( 'NONE', #60, 0.03933063000000000531, 0.1745329251994338360 ) ;
#236 = ORIENTED_EDGE ( 'NONE', *, *, #232, .T. ) ;
#237 = PRODUCT_DEFINITION_SHAPE ( 'NONE', 'NONE',  #130 ) ;
#238 = CARTESIAN_POINT ( 'NONE',  ( 0.0000000000000000000, 0.0000000000000000000, 0.0000000000000000000 ) ) ;
#239 = FACE_OUTER_BOUND ( 'NONE', #115, .T. ) ;
#240 = AXIS2_PLACEMENT_3D ( 'NONE', #190, #270, #221 ) ;
#241 = DIRECTION ( 'NONE',  ( 1.000000000000000000, 0.0000000000000000000, -0.0000000000000000000 ) ) ;
#242 = ADVANCED_FACE ( 'NONE', ( #288 ), #266, .T. ) ;
#243 = CARTESIAN_POINT ( 'NONE',  ( 2.892860668945877553E-17, 0.0000000000000000000, 0.2362200000000000133 ) ) ;
#244 = DIRECTION ( 'NONE',  ( -1.224646799147352961E-16, -0.0000000000000000000, -1.000000000000000000 ) ) ;
#245 = STYLED_ITEM ( 'NONE', ( #79 ), #90 ) ;
#246 = EDGE_CURVE ( 'NONE', #112, #74, #107, .T. ) ;
#247 =( CONVERSION_BASED_UNIT ( 'INCH', #150 ) LENGTH_UNIT ( ) NAMED_UNIT ( #51 ) );
#248 = APPLICATION_CONTEXT ( 'automotive_design' ) ;
#249 = ORIENTED_EDGE ( 'NONE', *, *, #39, .F. ) ;
#250 = SURFACE_SIDE_STYLE ('',( #88 ) ) ;
#251 = ORIENTED_EDGE ( 'NONE', *, *, #173, .F. ) ;
#252 = ORIENTED_EDGE ( 'NONE', *, *, #177, .T. ) ;
#253 = PRODUCT_DEFINITION_CONTEXT ( 'detailed design', #17, 'design' ) ;
#254 = EDGE_CURVE ( 'NONE', #19, #49, #170, .T. ) ;
#255 = DIRECTION ( 'NONE',  ( -0.0000000000000000000, -0.0000000000000000000, -1.000000000000000000 ) ) ;
#256 = DIRECTION ( 'NONE',  ( -0.1736481776669311639, 2.126576849575782392E-17, 0.9848077530122080203 ) ) ;
#257 = FACE_OUTER_BOUND ( 'NONE', #282, .T. ) ;
#258 = DIMENSIONAL_EXPONENTS ( 1.000000000000000000, 0.0000000000000000000, 0.0000000000000000000, 0.0000000000000000000, 0.0000000000000000000, 0.0000000000000000000, 0.0000000000000000000 ) ;
#259 = ADVANCED_FACE ( 'NONE', ( #148 ), #12, .T. ) ;
#260 = ORIENTED_EDGE ( 'NONE', *, *, #254, .F. ) ;
#261 = AXIS2_PLACEMENT_3D ( 'NONE', #31, #289, #81 ) ;
#262 = LINE ( 'NONE', #220, #169 ) ;
#263 = ORIENTED_EDGE ( 'NONE', *, *, #92, .F. ) ;
#264 = PLANE ( 'NONE',  #211 ) ;
#265 = FILL_AREA_STYLE ('',( #122 ) ) ;
#266 = CYLINDRICAL_SURFACE ( 'NONE', #46, 0.05905499999999998251 ) ;
#267 = LINE ( 'NONE', #16, #278 ) ;
#268 = CIRCLE ( 'NONE', #155, 0.05905499999999998251 ) ;
#269 = CARTESIAN_POINT ( 'NONE',  ( -0.03933063000000000531, 0.0000000000000000000, 4.816613013794885432E-18 ) ) ;
#270 = DIRECTION ( 'NONE',  ( -1.224646799147352961E-16, -0.0000000000000000000, -1.000000000000000000 ) ) ;
#271 = DIRECTION ( 'NONE',  ( -1.224646799147352961E-16, -0.0000000000000000000, -1.000000000000000000 ) ) ;
#272 = CIRCLE ( 'NONE', #45, 0.03933062999999999837 ) ;
#273 = EDGE_LOOP ( 'NONE', ( #251, #214, #5, #76 ) ) ;
#274 =( NAMED_UNIT ( * ) SI_UNIT ( $, .STERADIAN. ) SOLID_ANGLE_UNIT ( ) );
#275 = ORIENTED_EDGE ( 'NONE', *, *, #145, .T. ) ;
#276 = VERTEX_POINT ( 'NONE', #127 ) ;
#277 = DIRECTION ( 'NONE',  ( 0.1736481776669313304, 0.0000000000000000000, 0.9848077530122077983 ) ) ;
#278 = VECTOR ( 'NONE', #142, 39.37007874015748854 ) ;
#279 = ORIENTED_EDGE ( 'NONE', *, *, #39, .T. ) ;
#280 = PRODUCT_DEFINITION_FORMATION_WITH_SPECIFIED_SOURCE ( 'ANY', '', #201, .NOT_KNOWN. ) ;
#281 = DIRECTION ( 'NONE',  ( 1.224646799147352961E-16, 0.0000000000000000000, 1.000000000000000000 ) ) ;
#282 = EDGE_LOOP ( 'NONE', ( #136, #263, #26, #184 ) ) ;
#283 = DIRECTION ( 'NONE',  ( 0.0000000000000000000, 0.0000000000000000000, -1.000000000000000000 ) ) ;
#284 = ORIENTED_EDGE ( 'NONE', *, *, #92, .T. ) ;
#285 = CONICAL_SURFACE ( 'NONE', #2, 0.04405500000000001082, 0.7853981633974570498 ) ;
#286 = DIRECTION ( 'NONE',  ( 1.000000000000000000, 0.0000000000000000000, -0.0000000000000000000 ) ) ;
#287 =( NAMED_UNIT ( * ) SI_UNIT ( $, .STERADIAN. ) SOLID_ANGLE_UNIT ( ) );
#288 = FACE_OUTER_BOUND ( 'NONE', #138, .T. ) ;
#289 = DIRECTION ( 'NONE',  ( 0.0000000000000000000, 0.0000000000000000000, 1.000000000000000000 ) ) ;
#290 = CARTESIAN_POINT ( 'NONE',  ( -0.05905499999999998251, 0.0000000000000000000, 1.496062999999999921 ) ) ;
#291 = SURFACE_SIDE_STYLE ('',( #293 ) ) ;
#292 = DIRECTION ( 'NONE',  ( 1.000000000000000000, 0.0000000000000000000, 0.0000000000000000000 ) ) ;
#293 = SURFACE_STYLE_FILL_AREA ( #265 ) ;
#294 = LENGTH_MEASURE_WITH_UNIT ( LENGTH_MEASURE( 0.02539999999999999897 ), #178 );
#295 = CIRCLE ( 'NONE', #229, 0.03933063000000000531 ) ;
#296 = SURFACE_STYLE_USAGE ( .BOTH. , #250 ) ;
#297 = EDGE_LOOP ( 'NONE', ( #284, #100 ) ) ;
#298 = EDGE_CURVE ( 'NONE', #112, #94, #171, .T. ) ;
#299 = ORIENTED_EDGE ( 'NONE', *, *, #10, .F. ) ;
ENDSEC;
END-ISO-10303-21;
