ISO-10303-21;
HEADER;
FILE_DESCRIPTION (( 'STEP AP214' ),
    '1' );
FILE_NAME ('Micro_SHRM-060-4X.STEP',
    '2021-09-02T09:08:00',
    ( '' ),
    ( '' ),
    'SwSTEP 2.0',
    'SolidWorks 2020',
    '' );
FILE_SCHEMA (( 'AUTOMOTIVE_DESIGN' ));
ENDSEC;

DATA;
#1 = MECHANICAL_DESIGN_GEOMETRIC_PRESENTATION_REPRESENTATION (  '', ( #55 ), #41 ) ;
#2 = CARTESIAN_POINT ( 'NONE',  ( 0.0000000000000000000, 0.0000000000000000000, 2.229093999999999465 ) ) ;
#3 = CARTESIAN_POINT ( 'NONE',  ( 7.722510477716241708E-17, 0.0000000000000000000, 0.6305908350957152297 ) ) ;
#4 = DIRECTION ( 'NONE',  ( -1.000000000000000000, 0.0000000000000000000, 0.0000000000000000000 ) ) ;
#5 = VECTOR ( 'NONE', #145, 39.37007874015748854 ) ;
#6 =( LENGTH_UNIT ( ) NAMED_UNIT ( * ) SI_UNIT ( $, .METRE. ) );
#7 = ORIENTED_EDGE ( 'NONE', *, *, #125, .F. ) ;
#8 = FACE_OUTER_BOUND ( 'NONE', #270, .T. ) ;
#9 = CARTESIAN_POINT ( 'NONE',  ( 0.1181100000000000344, 1.446430334472939084E-17, 2.229093999999999465 ) ) ;
#10 = FILL_AREA_STYLE_COLOUR ( '', #227 ) ;
#11 = CYLINDRICAL_SURFACE ( 'NONE', #256, 0.1179918900000000159 ) ;
#12 = DIRECTION ( 'NONE',  ( -1.000000000000000000, 0.0000000000000000000, 0.0000000000000000000 ) ) ;
#13 = VERTEX_POINT ( 'NONE', #84 ) ;
#14 = VECTOR ( 'NONE', #223, 39.37007874015748143 ) ;
#15 = AXIS2_PLACEMENT_3D ( 'NONE', #112, #133, #108 ) ;
#16 = VERTEX_POINT ( 'NONE', #246 ) ;
#17 = EDGE_CURVE ( 'NONE', #206, #274, #194, .T. ) ;
#18 = EDGE_CURVE ( 'NONE', #208, #56, #202, .T. ) ;
#19 = CARTESIAN_POINT ( 'NONE',  ( 0.0000000000000000000, 0.0000000000000000000, 2.244094000000000033 ) ) ;
#20 = CARTESIAN_POINT ( 'NONE',  ( 7.722510477716241708E-17, 0.0000000000000000000, 0.6305908350957152297 ) ) ;
#21 = CIRCLE ( 'NONE', #176, 0.1179918899999999882 ) ;
#22 = UNCERTAINTY_MEASURE_WITH_UNIT (LENGTH_MEASURE( 1.000000000000000082E-05 ), #228, 'distance_accuracy_value', 'NONE');
#23 = DIRECTION ( 'NONE',  ( -0.0000000000000000000, -0.0000000000000000000, -1.000000000000000000 ) ) ;
#24 = VECTOR ( 'NONE', #247, 39.37007874015748854 ) ;
#25 = CARTESIAN_POINT ( 'NONE',  ( 0.1181100000000001177, 1.446430334472940009E-17, 0.6305908350957152297 ) ) ;
#26 = AXIS2_PLACEMENT_3D ( 'NONE', #167, #259, #52 ) ;
#27 = ADVANCED_FACE ( 'NONE', ( #35 ), #191, .T. ) ;
#28 = ORIENTED_EDGE ( 'NONE', *, *, #205, .F. ) ;
#29 = LINE ( 'NONE', #153, #5 ) ;
#30 = MANIFOLD_SOLID_BREP ( 'Cut-Revolve1', #79 ) ;
#31 = DIRECTION ( 'NONE',  ( -1.224646799147353207E-16, -0.0000000000000000000, -1.000000000000000000 ) ) ;
#32 = ORIENTED_EDGE ( 'NONE', *, *, #216, .F. ) ;
#33 = AXIS2_PLACEMENT_3D ( 'NONE', #76, #173, #148 ) ;
#34 = DIRECTION ( 'NONE',  ( -1.000000000000000000, 0.0000000000000000000, 1.224646799147352961E-16 ) ) ;
#35 = FACE_OUTER_BOUND ( 'NONE', #158, .T. ) ;
#36 = ADVANCED_FACE ( 'NONE', ( #214 ), #251, .T. ) ;
#37 = DIRECTION ( 'NONE',  ( 1.224646799147353207E-16, 0.0000000000000000000, 1.000000000000000000 ) ) ;
#38 = ORIENTED_EDGE ( 'NONE', *, *, #238, .T. ) ;
#39 = SURFACE_STYLE_FILL_AREA ( #203 ) ;
#40 = ORIENTED_EDGE ( 'NONE', *, *, #68, .F. ) ;
#41 =( GEOMETRIC_REPRESENTATION_CONTEXT ( 3 ) GLOBAL_UNCERTAINTY_ASSIGNED_CONTEXT ( ( #257 ) ) GLOBAL_UNIT_ASSIGNED_CONTEXT ( ( #141, #94, #69 ) ) REPRESENTATION_CONTEXT ( 'NONE', 'WORKASPACE' ) );
#42 = EDGE_CURVE ( 'NONE', #206, #208, #239, .T. ) ;
#43 = ORIENTED_EDGE ( 'NONE', *, *, #17, .T. ) ;
#44 =( CONVERSION_BASED_UNIT ( 'INCH', #154 ) LENGTH_UNIT ( ) NAMED_UNIT ( #186 ) );
#45 = DIRECTION ( 'NONE',  ( 1.000000000000000000, 0.0000000000000000000, 0.0000000000000000000 ) ) ;
#46 =( NAMED_UNIT ( * ) PLANE_ANGLE_UNIT ( ) SI_UNIT ( $, .RADIAN. ) );
#47 = CIRCLE ( 'NONE', #144, 0.1179918899999999882 ) ;
#48 = PRESENTATION_LAYER_ASSIGNMENT (  '', '', ( #55 ) ) ;
#49 = EDGE_CURVE ( 'NONE', #85, #103, #50, .T. ) ;
#50 = LINE ( 'NONE', #115, #86 ) ;
#51 = MECHANICAL_DESIGN_GEOMETRIC_PRESENTATION_REPRESENTATION (  '', ( #128 ), #201 ) ;
#52 = DIRECTION ( 'NONE',  ( -1.000000000000000000, 0.0000000000000000000, 0.0000000000000000000 ) ) ;
#53 = EDGE_CURVE ( 'NONE', #13, #97, #67, .T. ) ;
#54 = CYLINDRICAL_SURFACE ( 'NONE', #96, 0.1179918900000000159 ) ;
#55 = STYLED_ITEM ( 'NONE', ( #250 ), #30 ) ;
#56 = VERTEX_POINT ( 'NONE', #25 ) ;
#57 = CARTESIAN_POINT ( 'NONE',  ( -0.1031100000000002709, 0.0000000000000000000, 2.244094000000000033 ) ) ;
#58 = ORIENTED_EDGE ( 'NONE', *, *, #53, .T. ) ;
#59 = PLANE ( 'NONE',  #139 ) ;
#60 = ORIENTED_EDGE ( 'NONE', *, *, #68, .T. ) ;
#61 = VECTOR ( 'NONE', #169, 39.37007874015748854 ) ;
#62 = DIRECTION ( 'NONE',  ( -1.000000000000000000, 0.0000000000000000000, 1.224646799147352961E-16 ) ) ;
#63 = ORIENTED_EDGE ( 'NONE', *, *, #216, .T. ) ;
#64 = ORIENTED_EDGE ( 'NONE', *, *, #49, .T. ) ;
#65 = ORIENTED_EDGE ( 'NONE', *, *, #42, .F. ) ;
#66 = CARTESIAN_POINT ( 'NONE',  ( 0.0000000000000000000, 0.0000000000000000000, 2.244094000000000033 ) ) ;
#67 = LINE ( 'NONE', #278, #258 ) ;
#68 = EDGE_CURVE ( 'NONE', #274, #206, #137, .T. ) ;
#69 =( NAMED_UNIT ( * ) SI_UNIT ( $, .STERADIAN. ) SOLID_ANGLE_UNIT ( ) );
#70 = CARTESIAN_POINT ( 'NONE',  ( -0.1181100000000000344, 0.0000000000000000000, 2.229093999999999465 ) ) ;
#71 = CIRCLE ( 'NONE', #279, 0.1181100000000000344 ) ;
#72 = LINE ( 'NONE', #192, #61 ) ;
#73 = DIRECTION ( 'NONE',  ( 0.0000000000000000000, 0.0000000000000000000, -1.000000000000000000 ) ) ;
#74 = CARTESIAN_POINT ( 'NONE',  ( 7.714307363656999460E-17, 0.0000000000000000000, 0.6299209999999999532 ) ) ;
#75 = AXIS2_PLACEMENT_3D ( 'NONE', #170, #200, #222 ) ;
#76 = CARTESIAN_POINT ( 'NONE',  ( 0.0000000000000000000, 0.0000000000000000000, 2.244094000000000033 ) ) ;
#77 = DIRECTION ( 'NONE',  ( 1.000000000000000000, 0.0000000000000000000, -0.0000000000000000000 ) ) ;
#78 = ORIENTED_EDGE ( 'NONE', *, *, #42, .T. ) ;
#79 = CLOSED_SHELL ( 'NONE', ( #234, #264, #27, #160, #285, #254, #36, #151, #217, #188 ) ) ;
#80 = DIRECTION ( 'NONE',  ( -1.000000000000000000, 0.0000000000000000000, 1.224646799147352961E-16 ) ) ;
#81 = ORIENTED_EDGE ( 'NONE', *, *, #159, .F. ) ;
#82 = AXIS2_PLACEMENT_3D ( 'NONE', #218, #113, #98 ) ;
#83 =( LENGTH_UNIT ( ) NAMED_UNIT ( * ) SI_UNIT ( $, .METRE. ) );
#84 = CARTESIAN_POINT ( 'NONE',  ( -0.1179918899999999049, 1.445707119305702665E-17, 0.6299209999999999532 ) ) ;
#85 = VERTEX_POINT ( 'NONE', #70 ) ;
#86 = VECTOR ( 'NONE', #23, 39.37007874015748143 ) ;
#87 = CIRCLE ( 'NONE', #75, 0.1181100000000000344 ) ;
#88 = SURFACE_STYLE_USAGE ( .BOTH. , #162 ) ;
#89 = APPLICATION_PROTOCOL_DEFINITION ( 'draft international standard', 'automotive_design', 1998, #209 ) ;
#90 = DIMENSIONAL_EXPONENTS ( 1.000000000000000000, 0.0000000000000000000, 0.0000000000000000000, 0.0000000000000000000, 0.0000000000000000000, 0.0000000000000000000, 0.0000000000000000000 ) ;
#91 = CONICAL_SURFACE ( 'NONE', #236, 0.1179918899999999882, 0.1745329251994342801 ) ;
#92 = UNCERTAINTY_MEASURE_WITH_UNIT (LENGTH_MEASURE( 1.000000000000000082E-05 ), #44, 'distance_accuracy_value', 'NONE');
#93 = DIRECTION ( 'NONE',  ( -1.224646799147353207E-16, -0.0000000000000000000, -1.000000000000000000 ) ) ;
#94 =( NAMED_UNIT ( * ) PLANE_ANGLE_UNIT ( ) SI_UNIT ( $, .RADIAN. ) );
#95 = PRODUCT_RELATED_PRODUCT_CATEGORY ( 'part', '', ( #196 ) ) ;
#96 = AXIS2_PLACEMENT_3D ( 'NONE', #293, #265, #62 ) ;
#97 = VERTEX_POINT ( 'NONE', #212 ) ;
#98 = DIRECTION ( 'NONE',  ( 1.000000000000000000, 0.0000000000000000000, 0.0000000000000000000 ) ) ;
#99 = DIRECTION ( 'NONE',  ( 0.0000000000000000000, 0.0000000000000000000, 1.000000000000000000 ) ) ;
#100 = ORIENTED_EDGE ( 'NONE', *, *, #238, .F. ) ;
#101 = LINE ( 'NONE', #242, #24 ) ;
#102 = EDGE_CURVE ( 'NONE', #13, #103, #72, .T. ) ;
#103 = VERTEX_POINT ( 'NONE', #282 ) ;
#104 = CARTESIAN_POINT ( 'NONE',  ( 0.1179918900000000853, 0.0000000000000000000, 0.6299209999999999532 ) ) ;
#105 = DIRECTION ( 'NONE',  ( -1.000000000000000000, 0.0000000000000000000, 1.224646799147352961E-16 ) ) ;
#106 = DIRECTION ( 'NONE',  ( 0.0000000000000000000, 0.0000000000000000000, 1.000000000000000000 ) ) ;
#107 = ORIENTED_EDGE ( 'NONE', *, *, #182, .T. ) ;
#108 = DIRECTION ( 'NONE',  ( 1.000000000000000000, 0.0000000000000000000, 0.0000000000000000000 ) ) ;
#109 = ORIENTED_EDGE ( 'NONE', *, *, #204, .T. ) ;
#110 = DIRECTION ( 'NONE',  ( 1.000000000000000000, 0.0000000000000000000, 0.0000000000000000000 ) ) ;
#111 = PRODUCT_DEFINITION_FORMATION_WITH_SPECIFIED_SOURCE ( 'ANY', '', #196, .NOT_KNOWN. ) ;
#112 = CARTESIAN_POINT ( 'NONE',  ( 0.0000000000000000000, 0.0000000000000000000, 0.0000000000000000000 ) ) ;
#113 = DIRECTION ( 'NONE',  ( 0.0000000000000000000, 0.0000000000000000000, 1.000000000000000000 ) ) ;
#114 = LENGTH_MEASURE_WITH_UNIT ( LENGTH_MEASURE( 0.02539999999999999897 ), #6 );
#115 = CARTESIAN_POINT ( 'NONE',  ( -0.1181100000000000344, 0.0000000000000000000, 2.244094000000000033 ) ) ;
#116 = ORIENTED_EDGE ( 'NONE', *, *, #233, .T. ) ;
#117 = DIRECTION ( 'NONE',  ( -1.224646799147353207E-16, -0.0000000000000000000, -1.000000000000000000 ) ) ;
#118 = ORIENTED_EDGE ( 'NONE', *, *, #18, .F. ) ;
#119 = ADVANCED_BREP_SHAPE_REPRESENTATION ( 'Micro_SHRM-060-4X', ( #30, #15 ), #252 ) ;
#120 = DIRECTION ( 'NONE',  ( -1.224646799147353207E-16, -0.0000000000000000000, -1.000000000000000000 ) ) ;
#121 = AXIS2_PLACEMENT_3D ( 'NONE', #3, #255, #45 ) ;
#122 = ORIENTED_EDGE ( 'NONE', *, *, #237, .F. ) ;
#123 = CARTESIAN_POINT ( 'NONE',  ( 1.769594913022618379E-33, 0.0000000000000000000, 1.444983904138465938E-17 ) ) ;
#124 = SURFACE_STYLE_USAGE ( .BOTH. , #289 ) ;
#125 = EDGE_CURVE ( 'NONE', #208, #85, #184, .T. ) ;
#126 = DIRECTION ( 'NONE',  ( 1.000000000000000000, 0.0000000000000000000, 0.0000000000000000000 ) ) ;
#127 = ORIENTED_EDGE ( 'NONE', *, *, #182, .F. ) ;
#128 = STYLED_ITEM ( 'NONE', ( #164 ), #119 ) ;
#129 = ORIENTED_EDGE ( 'NONE', *, *, #233, .F. ) ;
#130 = APPLICATION_CONTEXT ( 'automotive_design' ) ;
#131 = SHAPE_DEFINITION_REPRESENTATION ( #271, #119 ) ;
#132 = ORIENTED_EDGE ( 'NONE', *, *, #237, .T. ) ;
#133 = DIRECTION ( 'NONE',  ( 0.0000000000000000000, 0.0000000000000000000, 1.000000000000000000 ) ) ;
#134 = EDGE_CURVE ( 'NONE', #225, #13, #47, .T. ) ;
#135 = DIRECTION ( 'NONE',  ( -1.224646799147353207E-16, -0.0000000000000000000, -1.000000000000000000 ) ) ;
#136 = DIRECTION ( 'NONE',  ( 1.224646799147353207E-16, 0.0000000000000000000, 1.000000000000000000 ) ) ;
#137 = CIRCLE ( 'NONE', #82, 0.1031100000000002709 ) ;
#138 = AXIS2_PLACEMENT_3D ( 'NONE', #221, #117, #80 ) ;
#139 = AXIS2_PLACEMENT_3D ( 'NONE', #286, #99, #77 ) ;
#140 = CYLINDRICAL_SURFACE ( 'NONE', #26, 0.1181100000000000344 ) ;
#141 =( CONVERSION_BASED_UNIT ( 'INCH', #114 ) LENGTH_UNIT ( ) NAMED_UNIT ( #90 ) );
#142 = EDGE_CURVE ( 'NONE', #56, #103, #215, .T. ) ;
#143 = ORIENTED_EDGE ( 'NONE', *, *, #205, .T. ) ;
#144 = AXIS2_PLACEMENT_3D ( 'NONE', #163, #135, #213 ) ;
#145 = DIRECTION ( 'NONE',  ( 0.1736481776669317190, 0.0000000000000000000, 0.9848077530122077983 ) ) ;
#146 = ORIENTED_EDGE ( 'NONE', *, *, #159, .T. ) ;
#147 = CARTESIAN_POINT ( 'NONE',  ( 7.714307363656999460E-17, 0.0000000000000000000, 0.6299209999999999532 ) ) ;
#148 = DIRECTION ( 'NONE',  ( -1.000000000000000000, 0.0000000000000000000, 0.0000000000000000000 ) ) ;
#149 = DIRECTION ( 'NONE',  ( 0.0000000000000000000, 0.0000000000000000000, 1.000000000000000000 ) ) ;
#150 = CIRCLE ( 'NONE', #138, 0.1179918900000000159 ) ;
#151 = ADVANCED_FACE ( 'NONE', ( #189 ), #166, .T. ) ;
#152 = EDGE_LOOP ( 'NONE', ( #65, #40, #38, #7 ) ) ;
#153 = CARTESIAN_POINT ( 'NONE',  ( 0.1179918900000000853, 0.0000000000000000000, 0.6299209999999999532 ) ) ;
#154 = LENGTH_MEASURE_WITH_UNIT ( LENGTH_MEASURE( 0.02539999999999999897 ), #83 );
#155 = SURFACE_STYLE_FILL_AREA ( #273 ) ;
#156 = VECTOR ( 'NONE', #211, 39.37007874015748854 ) ;
#157 = AXIS2_PLACEMENT_3D ( 'NONE', #219, #149, #269 ) ;
#158 = EDGE_LOOP ( 'NONE', ( #298, #78, #129, #100 ) ) ;
#159 = EDGE_CURVE ( 'NONE', #103, #56, #71, .T. ) ;
#160 = ADVANCED_FACE ( 'NONE', ( #277 ), #140, .T. ) ;
#161 = ORIENTED_EDGE ( 'NONE', *, *, #102, .F. ) ;
#162 = SURFACE_SIDE_STYLE ('',( #39 ) ) ;
#163 = CARTESIAN_POINT ( 'NONE',  ( 7.714307363656999460E-17, 0.0000000000000000000, 0.6299209999999999532 ) ) ;
#164 = PRESENTATION_STYLE_ASSIGNMENT (( #88 ) ) ;
#165 = COLOUR_RGB ( '',0.7921568627450980005, 0.8196078431372548767, 0.9333333333333333481 ) ;
#166 = CONICAL_SURFACE ( 'NONE', #241, 0.1179918899999999882, 0.1745329251994342801 ) ;
#167 = CARTESIAN_POINT ( 'NONE',  ( 0.0000000000000000000, 0.0000000000000000000, 2.244094000000000033 ) ) ;
#168 = ORIENTED_EDGE ( 'NONE', *, *, #134, .T. ) ;
#169 = DIRECTION ( 'NONE',  ( -0.1736481776669314969, 2.126576849575787322E-17, 0.9848077530122077983 ) ) ;
#170 = CARTESIAN_POINT ( 'NONE',  ( 0.0000000000000000000, 0.0000000000000000000, 2.229093999999999465 ) ) ;
#171 = EDGE_LOOP ( 'NONE', ( #127, #267, #146, #122 ) ) ;
#172 = FACE_OUTER_BOUND ( 'NONE', #248, .T. ) ;
#173 = DIRECTION ( 'NONE',  ( -0.0000000000000000000, -0.0000000000000000000, -1.000000000000000000 ) ) ;
#174 = DIRECTION ( 'NONE',  ( -1.224646799147353207E-16, -0.0000000000000000000, -1.000000000000000000 ) ) ;
#175 = CARTESIAN_POINT ( 'NONE',  ( 0.0000000000000000000, 0.0000000000000000000, 2.244094000000000033 ) ) ;
#176 = AXIS2_PLACEMENT_3D ( 'NONE', #147, #31, #12 ) ;
#177 = ORIENTED_EDGE ( 'NONE', *, *, #18, .T. ) ;
#178 = PRODUCT_DEFINITION_CONTEXT ( 'detailed design', #130, 'design' ) ;
#179 = APPLICATION_PROTOCOL_DEFINITION ( 'draft international standard', 'automotive_design', 1998, #130 ) ;
#180 = DIRECTION ( 'NONE',  ( 0.0000000000000000000, 0.0000000000000000000, -1.000000000000000000 ) ) ;
#181 = EDGE_LOOP ( 'NONE', ( #28, #168, #58, #32 ) ) ;
#182 = EDGE_CURVE ( 'NONE', #13, #225, #21, .T. ) ;
#183 = AXIS2_PLACEMENT_3D ( 'NONE', #175, #180, #185 ) ;
#184 = CIRCLE ( 'NONE', #232, 0.1181100000000000344 ) ;
#185 = DIRECTION ( 'NONE',  ( -1.000000000000000000, 0.0000000000000000000, 0.0000000000000000000 ) ) ;
#186 = DIMENSIONAL_EXPONENTS ( 1.000000000000000000, 0.0000000000000000000, 0.0000000000000000000, 0.0000000000000000000, 0.0000000000000000000, 0.0000000000000000000, 0.0000000000000000000 ) ;
#187 = DIRECTION ( 'NONE',  ( 1.000000000000000000, 0.0000000000000000000, 0.0000000000000000000 ) ) ;
#188 = ADVANCED_FACE ( 'NONE', ( #288 ), #226, .F. ) ;
#189 = FACE_OUTER_BOUND ( 'NONE', #262, .T. ) ;
#190 = ORIENTED_EDGE ( 'NONE', *, *, #204, .F. ) ;
#191 = CONICAL_SURFACE ( 'NONE', #183, 0.1031100000000002709, 0.7853981633974318477 ) ;
#192 = CARTESIAN_POINT ( 'NONE',  ( -0.1179918899999999049, 1.444983904138465938E-17, 0.6299209999999999532 ) ) ;
#193 = FACE_OUTER_BOUND ( 'NONE', #171, .T. ) ;
#194 = CIRCLE ( 'NONE', #240, 0.1031100000000002709 ) ;
#195 = CARTESIAN_POINT ( 'NONE',  ( 0.1179918900000000159, 1.444983904138465938E-17, -1.444983904138465938E-17 ) ) ;
#196 = PRODUCT ( 'Micro_SHRM-060-4X', 'Micro_SHRM-060-4X', '', ( #207 ) ) ;
#197 = DIRECTION ( 'NONE',  ( 1.000000000000000000, 0.0000000000000000000, 0.0000000000000000000 ) ) ;
#198 = LINE ( 'NONE', #195, #244 ) ;
#199 = EDGE_LOOP ( 'NONE', ( #107, #143, #190, #275 ) ) ;
#200 = DIRECTION ( 'NONE',  ( 0.0000000000000000000, 0.0000000000000000000, -1.000000000000000000 ) ) ;
#201 =( GEOMETRIC_REPRESENTATION_CONTEXT ( 3 ) GLOBAL_UNCERTAINTY_ASSIGNED_CONTEXT ( ( #92 ) ) GLOBAL_UNIT_ASSIGNED_CONTEXT ( ( #44, #46, #229 ) ) REPRESENTATION_CONTEXT ( 'NONE', 'WORKASPACE' ) );
#202 = LINE ( 'NONE', #294, #14 ) ;
#203 = FILL_AREA_STYLE ('',( #297 ) ) ;
#204 = EDGE_CURVE ( 'NONE', #97, #16, #268, .T. ) ;
#205 = EDGE_CURVE ( 'NONE', #225, #16, #198, .T. ) ;
#206 = VERTEX_POINT ( 'NONE', #283 ) ;
#207 = PRODUCT_CONTEXT ( 'NONE', #209, 'mechanical' ) ;
#208 = VERTEX_POINT ( 'NONE', #9 ) ;
#209 = APPLICATION_CONTEXT ( 'automotive_design' ) ;
#210 = PRESENTATION_LAYER_ASSIGNMENT (  '', '', ( #128 ) ) ;
#211 = DIRECTION ( 'NONE',  ( 0.7071067811865358044, 8.659560562354788645E-17, -0.7071067811865590080 ) ) ;
#212 = CARTESIAN_POINT ( 'NONE',  ( -0.1179918900000000159, 0.0000000000000000000, 2.889967808276931875E-17 ) ) ;
#213 = DIRECTION ( 'NONE',  ( -1.000000000000000000, 0.0000000000000000000, 0.0000000000000000000 ) ) ;
#214 = FACE_OUTER_BOUND ( 'NONE', #152, .T. ) ;
#215 = CIRCLE ( 'NONE', #121, 0.1181100000000000344 ) ;
#216 = EDGE_CURVE ( 'NONE', #16, #97, #150, .T. ) ;
#217 = ADVANCED_FACE ( 'NONE', ( #224 ), #11, .T. ) ;
#218 = CARTESIAN_POINT ( 'NONE',  ( 0.0000000000000000000, 0.0000000000000000000, 2.244094000000000033 ) ) ;
#219 = CARTESIAN_POINT ( 'NONE',  ( 0.0000000000000000000, 0.0000000000000000000, 0.0000000000000000000 ) ) ;
#220 = ORIENTED_EDGE ( 'NONE', *, *, #125, .T. ) ;
#221 = CARTESIAN_POINT ( 'NONE',  ( 1.769594913022618379E-33, 0.0000000000000000000, 1.444983904138465938E-17 ) ) ;
#222 = DIRECTION ( 'NONE',  ( 1.000000000000000000, 0.0000000000000000000, 0.0000000000000000000 ) ) ;
#223 = DIRECTION ( 'NONE',  ( -0.0000000000000000000, -0.0000000000000000000, -1.000000000000000000 ) ) ;
#224 = FACE_OUTER_BOUND ( 'NONE', #181, .T. ) ;
#225 = VERTEX_POINT ( 'NONE', #104 ) ;
#226 = PLANE ( 'NONE',  #157 ) ;
#227 = COLOUR_RGB ( '',0.7921568627450980005, 0.8196078431372548767, 0.9333333333333333481 ) ;
#228 =( CONVERSION_BASED_UNIT ( 'INCH', #249 ) LENGTH_UNIT ( ) NAMED_UNIT ( #276 ) );
#229 =( NAMED_UNIT ( * ) SI_UNIT ( $, .STERADIAN. ) SOLID_ANGLE_UNIT ( ) );
#230 = ORIENTED_EDGE ( 'NONE', *, *, #134, .F. ) ;
#231 = DIRECTION ( 'NONE',  ( 1.000000000000000000, 0.0000000000000000000, 0.0000000000000000000 ) ) ;
#232 = AXIS2_PLACEMENT_3D ( 'NONE', #2, #73, #187 ) ;
#233 = EDGE_CURVE ( 'NONE', #85, #208, #87, .T. ) ;
#234 = ADVANCED_FACE ( 'NONE', ( #290 ), #54, .T. ) ;
#235 = DIRECTION ( 'NONE',  ( 0.0000000000000000000, 0.0000000000000000000, -1.000000000000000000 ) ) ;
#236 = AXIS2_PLACEMENT_3D ( 'NONE', #74, #37, #126 ) ;
#237 = EDGE_CURVE ( 'NONE', #225, #56, #29, .T. ) ;
#238 = EDGE_CURVE ( 'NONE', #274, #85, #101, .T. ) ;
#239 = LINE ( 'NONE', #299, #156 ) ;
#240 = AXIS2_PLACEMENT_3D ( 'NONE', #19, #106, #197 ) ;
#241 = AXIS2_PLACEMENT_3D ( 'NONE', #261, #136, #231 ) ;
#242 = CARTESIAN_POINT ( 'NONE',  ( -0.1031100000000002709, 0.0000000000000000000, 2.244094000000000033 ) ) ;
#243 = CARTESIAN_POINT ( 'NONE',  ( 0.0000000000000000000, 0.0000000000000000000, 0.0000000000000000000 ) ) ;
#244 = VECTOR ( 'NONE', #174, 39.37007874015748143 ) ;
#245 = DIRECTION ( 'NONE',  ( -1.224646799147353207E-16, -0.0000000000000000000, -1.000000000000000000 ) ) ;
#246 = CARTESIAN_POINT ( 'NONE',  ( 0.1179918900000000159, 1.444983904138465938E-17, 0.0000000000000000000 ) ) ;
#247 = DIRECTION ( 'NONE',  ( -0.7071067811865358044, 0.0000000000000000000, -0.7071067811865590080 ) ) ;
#248 = EDGE_LOOP ( 'NONE', ( #118, #220, #64, #287 ) ) ;
#249 = LENGTH_MEASURE_WITH_UNIT ( LENGTH_MEASURE( 0.02539999999999999897 ), #266 );
#250 = PRESENTATION_STYLE_ASSIGNMENT (( #124 ) ) ;
#251 = CONICAL_SURFACE ( 'NONE', #284, 0.1031100000000002709, 0.7853981633974318477 ) ;
#252 =( GEOMETRIC_REPRESENTATION_CONTEXT ( 3 ) GLOBAL_UNCERTAINTY_ASSIGNED_CONTEXT ( ( #22 ) ) GLOBAL_UNIT_ASSIGNED_CONTEXT ( ( #228, #295, #272 ) ) REPRESENTATION_CONTEXT ( 'NONE', 'WORKASPACE' ) );
#253 = ORIENTED_EDGE ( 'NONE', *, *, #49, .F. ) ;
#254 = ADVANCED_FACE ( 'NONE', ( #8 ), #59, .T. ) ;
#255 = DIRECTION ( 'NONE',  ( -1.224646799147353207E-16, -0.0000000000000000000, -1.000000000000000000 ) ) ;
#256 = AXIS2_PLACEMENT_3D ( 'NONE', #243, #120, #105 ) ;
#257 = UNCERTAINTY_MEASURE_WITH_UNIT (LENGTH_MEASURE( 1.000000000000000082E-05 ), #141, 'distance_accuracy_value', 'NONE');
#258 = VECTOR ( 'NONE', #281, 39.37007874015748143 ) ;
#259 = DIRECTION ( 'NONE',  ( -0.0000000000000000000, -0.0000000000000000000, -1.000000000000000000 ) ) ;
#260 = PRODUCT_DEFINITION ( 'UNKNOWN', '', #111, #178 ) ;
#261 = CARTESIAN_POINT ( 'NONE',  ( 7.714307363656999460E-17, 0.0000000000000000000, 0.6299209999999999532 ) ) ;
#262 = EDGE_LOOP ( 'NONE', ( #161, #230, #132, #296 ) ) ;
#263 = CYLINDRICAL_SURFACE ( 'NONE', #33, 0.1181100000000000344 ) ;
#264 = ADVANCED_FACE ( 'NONE', ( #193 ), #91, .T. ) ;
#265 = DIRECTION ( 'NONE',  ( -1.224646799147353207E-16, -0.0000000000000000000, -1.000000000000000000 ) ) ;
#266 =( LENGTH_UNIT ( ) NAMED_UNIT ( * ) SI_UNIT ( $, .METRE. ) );
#267 = ORIENTED_EDGE ( 'NONE', *, *, #102, .T. ) ;
#268 = CIRCLE ( 'NONE', #292, 0.1179918900000000159 ) ;
#269 = DIRECTION ( 'NONE',  ( 1.000000000000000000, 0.0000000000000000000, -0.0000000000000000000 ) ) ;
#270 = EDGE_LOOP ( 'NONE', ( #60, #43 ) ) ;
#271 = PRODUCT_DEFINITION_SHAPE ( 'NONE', 'NONE',  #260 ) ;
#272 =( NAMED_UNIT ( * ) SI_UNIT ( $, .STERADIAN. ) SOLID_ANGLE_UNIT ( ) );
#273 = FILL_AREA_STYLE ('',( #10 ) ) ;
#274 = VERTEX_POINT ( 'NONE', #57 ) ;
#275 = ORIENTED_EDGE ( 'NONE', *, *, #53, .F. ) ;
#276 = DIMENSIONAL_EXPONENTS ( 1.000000000000000000, 0.0000000000000000000, 0.0000000000000000000, 0.0000000000000000000, 0.0000000000000000000, 0.0000000000000000000, 0.0000000000000000000 ) ;
#277 = FACE_OUTER_BOUND ( 'NONE', #291, .T. ) ;
#278 = CARTESIAN_POINT ( 'NONE',  ( -0.1179918900000000159, 0.0000000000000000000, 1.444983904138465938E-17 ) ) ;
#279 = AXIS2_PLACEMENT_3D ( 'NONE', #20, #93, #110 ) ;
#280 = EDGE_LOOP ( 'NONE', ( #109, #63 ) ) ;
#281 = DIRECTION ( 'NONE',  ( -1.224646799147353207E-16, -0.0000000000000000000, -1.000000000000000000 ) ) ;
#282 = CARTESIAN_POINT ( 'NONE',  ( -0.1181099999999999373, 0.0000000000000000000, 0.6305908350957152297 ) ) ;
#283 = CARTESIAN_POINT ( 'NONE',  ( 0.1031100000000002709, 1.354581824536889030E-17, 2.244094000000000033 ) ) ;
#284 = AXIS2_PLACEMENT_3D ( 'NONE', #66, #235, #4 ) ;
#285 = ADVANCED_FACE ( 'NONE', ( #172 ), #263, .T. ) ;
#286 = CARTESIAN_POINT ( 'NONE',  ( 0.0000000000000000000, 0.0000000000000000000, 2.244094000000000033 ) ) ;
#287 = ORIENTED_EDGE ( 'NONE', *, *, #142, .F. ) ;
#288 = FACE_OUTER_BOUND ( 'NONE', #280, .T. ) ;
#289 = SURFACE_SIDE_STYLE ('',( #155 ) ) ;
#290 = FACE_OUTER_BOUND ( 'NONE', #199, .T. ) ;
#291 = EDGE_LOOP ( 'NONE', ( #116, #177, #81, #253 ) ) ;
#292 = AXIS2_PLACEMENT_3D ( 'NONE', #123, #245, #34 ) ;
#293 = CARTESIAN_POINT ( 'NONE',  ( 0.0000000000000000000, 0.0000000000000000000, 0.0000000000000000000 ) ) ;
#294 = CARTESIAN_POINT ( 'NONE',  ( 0.1181100000000000344, 1.446430334472939084E-17, 2.244094000000000033 ) ) ;
#295 =( NAMED_UNIT ( * ) PLANE_ANGLE_UNIT ( ) SI_UNIT ( $, .RADIAN. ) );
#296 = ORIENTED_EDGE ( 'NONE', *, *, #142, .T. ) ;
#297 = FILL_AREA_STYLE_COLOUR ( '', #165 ) ;
#298 = ORIENTED_EDGE ( 'NONE', *, *, #17, .F. ) ;
#299 = CARTESIAN_POINT ( 'NONE',  ( 0.1031100000000002709, 1.262733314600839129E-17, 2.244094000000000033 ) ) ;
ENDSEC;
END-ISO-10303-21;
