ISO-10303-21;
HEADER;
FILE_DESCRIPTION (( 'STEP AP214' ),
    '1' );
FILE_NAME ('Micro_GEC-187-3-020.STEP',
    '2021-09-03T17:10:01',
    ( '' ),
    ( '' ),
    'SwSTEP 2.0',
    'SolidWorks 2020',
    '' );
FILE_SCHEMA (( 'AUTOMOTIVE_DESIGN' ));
ENDSEC;

DATA;
#1 = DIRECTION ( 'NONE',  ( -0.0000000000000000000, -0.0000000000000000000, -1.000000000000000000 ) ) ;
#2 = EDGE_LOOP ( 'NONE', ( #113, #103, #314, #299 ) ) ;
#3 = ORIENTED_EDGE ( 'NONE', *, *, #236, .F. ) ;
#4 = ORIENTED_EDGE ( 'NONE', *, *, #185, .T. ) ;
#5 = ADVANCED_FACE ( 'NONE', ( #171 ), #42, .T. ) ;
#6 = ORIENTED_EDGE ( 'NONE', *, *, #340, .T. ) ;
#7 = CARTESIAN_POINT ( 'NONE',  ( 7.654042494670957853E-17, 0.0000000000000000000, 0.6250000000000000000 ) ) ;
#8 = ORIENTED_EDGE ( 'NONE', *, *, #51, .F. ) ;
#9 = AXIS2_PLACEMENT_3D ( 'NONE', #227, #174, #313 ) ;
#10 = CARTESIAN_POINT ( 'NONE',  ( 7.654042494670957853E-17, 0.0000000000000000000, 0.6250000000000000000 ) ) ;
#11 = CARTESIAN_POINT ( 'NONE',  ( 0.0000000000000000000, 0.0000000000000000000, 0.0000000000000000000 ) ) ;
#12 = ADVANCED_FACE ( 'NONE', ( #176 ), #129, .T. ) ;
#13 = PLANE ( 'NONE',  #70 ) ;
#14 = CARTESIAN_POINT ( 'NONE',  ( 0.07874999999999980627, 9.644093543285380530E-18, 2.000000000000000000 ) ) ;
#15 = FACE_OUTER_BOUND ( 'NONE', #92, .T. ) ;
#16 = SURFACE_SIDE_STYLE ('',( #133 ) ) ;
#17 =( CONVERSION_BASED_UNIT ( 'INCH', #294 ) LENGTH_UNIT ( ) NAMED_UNIT ( #107 ) );
#18 = PRODUCT_CONTEXT ( 'NONE', #96, 'mechanical' ) ;
#19 = MECHANICAL_DESIGN_GEOMETRIC_PRESENTATION_REPRESENTATION (  '', ( #210 ), #63 ) ;
#20 = DIRECTION ( 'NONE',  ( 1.000000000000000000, 0.0000000000000000000, 0.0000000000000000000 ) ) ;
#21 =( NAMED_UNIT ( * ) PLANE_ANGLE_UNIT ( ) SI_UNIT ( $, .RADIAN. ) );
#22 = DIRECTION ( 'NONE',  ( -1.224646799147353207E-16, -0.0000000000000000000, -1.000000000000000000 ) ) ;
#23 = CONICAL_SURFACE ( 'NONE', #9, 0.07874999999999980627, 0.7853981633974466137 ) ;
#24 = CARTESIAN_POINT ( 'NONE',  ( 0.09375000000000006939, 1.148106374200644633E-17, 0.6255316826705892286 ) ) ;
#25 = DIRECTION ( 'NONE',  ( 0.0000000000000000000, 0.0000000000000000000, -1.000000000000000000 ) ) ;
#26 = VERTEX_POINT ( 'NONE', #178 ) ;
#27 = EDGE_CURVE ( 'NONE', #26, #297, #256, .T. ) ;
#28 = CARTESIAN_POINT ( 'NONE',  ( 2.449293598294706769E-18, 0.0000000000000000000, 0.0000000000000000000 ) ) ;
#29 = ORIENTED_EDGE ( 'NONE', *, *, #236, .T. ) ;
#30 = PRESENTATION_LAYER_ASSIGNMENT (  '', '', ( #210 ) ) ;
#31 = ORIENTED_EDGE ( 'NONE', *, *, #160, .T. ) ;
#32 = ADVANCED_FACE ( 'NONE', ( #15 ), #126, .F. ) ;
#33 = UNCERTAINTY_MEASURE_WITH_UNIT (LENGTH_MEASURE( 1.000000000000000082E-05 ), #281, 'distance_accuracy_value', 'NONE');
#34 = ORIENTED_EDGE ( 'NONE', *, *, #79, .F. ) ;
#35 = ORIENTED_EDGE ( 'NONE', *, *, #175, .T. ) ;
#36 = VERTEX_POINT ( 'NONE', #102 ) ;
#37 = CIRCLE ( 'NONE', #296, 0.07365624999999999256 ) ;
#38 = PRODUCT_DEFINITION ( 'UNKNOWN', '', #328, #187 ) ;
#39 = STYLED_ITEM ( 'NONE', ( #319 ), #308 ) ;
#40 = CARTESIAN_POINT ( 'NONE',  ( 0.0000000000000000000, 0.0000000000000000000, 1.984999999999999654 ) ) ;
#41 = CARTESIAN_POINT ( 'NONE',  ( -0.07365624999999999256, 1.024493587911707594E-17, 0.0000000000000000000 ) ) ;
#42 = CYLINDRICAL_SURFACE ( 'NONE', #62, 0.09375000000000001388 ) ;
#43 = CARTESIAN_POINT ( 'NONE',  ( -0.07874999999999980627, 0.0000000000000000000, 2.000000000000000000 ) ) ;
#44 = AXIS2_PLACEMENT_3D ( 'NONE', #166, #146, #275 ) ;
#45 = MECHANICAL_DESIGN_GEOMETRIC_PRESENTATION_REPRESENTATION (  '', ( #39 ), #272 ) ;
#46 =( LENGTH_UNIT ( ) NAMED_UNIT ( * ) SI_UNIT ( $, .METRE. ) );
#47 = ADVANCED_FACE ( 'NONE', ( #73 ), #13, .T. ) ;
#48 = DIRECTION ( 'NONE',  ( -1.000000000000000000, 0.0000000000000000000, 1.224646799147352961E-16 ) ) ;
#49 = FACE_OUTER_BOUND ( 'NONE', #169, .T. ) ;
#50 = DIRECTION ( 'NONE',  ( 0.0000000000000000000, 0.0000000000000000000, 1.000000000000000000 ) ) ;
#51 = EDGE_CURVE ( 'NONE', #91, #218, #37, .T. ) ;
#52 = AXIS2_PLACEMENT_3D ( 'NONE', #267, #78, #84 ) ;
#53 = CARTESIAN_POINT ( 'NONE',  ( 0.07365624999999999256, 0.0000000000000000000, 0.02000000000000000042 ) ) ;
#54 = DIRECTION ( 'NONE',  ( -1.224646799147353207E-16, -0.0000000000000000000, -1.000000000000000000 ) ) ;
#55 = VECTOR ( 'NONE', #211, 39.37007874015747433 ) ;
#56 = ADVANCED_FACE ( 'NONE', ( #341 ), #257, .T. ) ;
#57 = LINE ( 'NONE', #148, #184 ) ;
#58 = ORIENTED_EDGE ( 'NONE', *, *, #228, .T. ) ;
#59 = CARTESIAN_POINT ( 'NONE',  ( 0.09365625000000006584, 0.0000000000000000000, 0.6250000000000000000 ) ) ;
#60 = ORIENTED_EDGE ( 'NONE', *, *, #246, .T. ) ;
#61 = EDGE_CURVE ( 'NONE', #26, #114, #342, .T. ) ;
#62 = AXIS2_PLACEMENT_3D ( 'NONE', #315, #282, #206 ) ;
#63 =( GEOMETRIC_REPRESENTATION_CONTEXT ( 3 ) GLOBAL_UNCERTAINTY_ASSIGNED_CONTEXT ( ( #193 ) ) GLOBAL_UNIT_ASSIGNED_CONTEXT ( ( #17, #21, #321 ) ) REPRESENTATION_CONTEXT ( 'NONE', 'WORKASPACE' ) );
#64 = AXIS2_PLACEMENT_3D ( 'NONE', #40, #25, #164 ) ;
#65 = EDGE_LOOP ( 'NONE', ( #58, #144 ) ) ;
#66 = ORIENTED_EDGE ( 'NONE', *, *, #246, .F. ) ;
#67 = CARTESIAN_POINT ( 'NONE',  ( 0.09365624999999999645, 1.146958267826442798E-17, 0.02000000000000000389 ) ) ;
#68 = DIRECTION ( 'NONE',  ( 1.000000000000000000, 0.0000000000000000000, 0.0000000000000000000 ) ) ;
#69 = FACE_OUTER_BOUND ( 'NONE', #251, .T. ) ;
#70 = AXIS2_PLACEMENT_3D ( 'NONE', #155, #131, #152 ) ;
#71 = AXIS2_PLACEMENT_3D ( 'NONE', #159, #288, #237 ) ;
#72 = CARTESIAN_POINT ( 'NONE',  ( 0.09365624999999999645, 1.146958267826442798E-17, -1.146958267826442798E-17 ) ) ;
#73 = FACE_OUTER_BOUND ( 'NONE', #65, .T. ) ;
#74 = ORIENTED_EDGE ( 'NONE', *, *, #165, .T. ) ;
#75 = CIRCLE ( 'NONE', #333, 0.09365624999999999645 ) ;
#76 = AXIS2_PLACEMENT_3D ( 'NONE', #312, #97, #324 ) ;
#77 =( CONVERSION_BASED_UNIT ( 'INCH', #263 ) LENGTH_UNIT ( ) NAMED_UNIT ( #290 ) );
#78 = DIRECTION ( 'NONE',  ( 0.0000000000000000000, 0.0000000000000000000, -1.000000000000000000 ) ) ;
#79 = EDGE_CURVE ( 'NONE', #325, #118, #75, .T. ) ;
#80 = CARTESIAN_POINT ( 'NONE',  ( -0.07365624999999999256, 9.020289079969722367E-18, 0.02000000000000000042 ) ) ;
#81 = DIRECTION ( 'NONE',  ( 0.0000000000000000000, -1.000000000000000000, 0.0000000000000000000 ) ) ;
#82 = AXIS2_PLACEMENT_3D ( 'NONE', #98, #201, #306 ) ;
#83 = AXIS2_PLACEMENT_3D ( 'NONE', #10, #304, #139 ) ;
#84 = DIRECTION ( 'NONE',  ( 1.000000000000000000, 0.0000000000000000000, 0.0000000000000000000 ) ) ;
#85 = DIMENSIONAL_EXPONENTS ( 1.000000000000000000, 0.0000000000000000000, 0.0000000000000000000, 0.0000000000000000000, 0.0000000000000000000, 0.0000000000000000000, 0.0000000000000000000 ) ;
#86 =( LENGTH_UNIT ( ) NAMED_UNIT ( * ) SI_UNIT ( $, .METRE. ) );
#87 = CLOSED_SHELL ( 'NONE', ( #197, #12, #334, #217, #5, #56, #47, #90, #241, #136, #32, #293 ) ) ;
#88 = ORIENTED_EDGE ( 'NONE', *, *, #228, .F. ) ;
#89 = APPLICATION_CONTEXT ( 'automotive_design' ) ;
#90 = ADVANCED_FACE ( 'NONE', ( #69 ), #23, .T. ) ;
#91 = VERTEX_POINT ( 'NONE', #41 ) ;
#92 = EDGE_LOOP ( 'NONE', ( #168, #194 ) ) ;
#93 = VECTOR ( 'NONE', #230, 39.37007874015748143 ) ;
#94 = AXIS2_PLACEMENT_3D ( 'NONE', #125, #202, #68 ) ;
#95 = ORIENTED_EDGE ( 'NONE', *, *, #277, .F. ) ;
#96 = APPLICATION_CONTEXT ( 'automotive_design' ) ;
#97 = DIRECTION ( 'NONE',  ( 0.0000000000000000000, 0.0000000000000000000, 1.000000000000000000 ) ) ;
#98 = CARTESIAN_POINT ( 'NONE',  ( 7.660553729477949085E-17, 0.0000000000000000000, 0.6255316826705892286 ) ) ;
#99 = EDGE_CURVE ( 'NONE', #147, #192, #278, .T. ) ;
#100 = DIRECTION ( 'NONE',  ( -0.0000000000000000000, -0.0000000000000000000, -1.000000000000000000 ) ) ;
#101 = LINE ( 'NONE', #72, #121 ) ;
#102 = CARTESIAN_POINT ( 'NONE',  ( -0.09374999999999994449, 0.0000000000000000000, 0.6255316826705892286 ) ) ;
#103 = ORIENTED_EDGE ( 'NONE', *, *, #320, .T. ) ;
#104 = CARTESIAN_POINT ( 'NONE',  ( -0.09365624999999992706, 1.146958267826442798E-17, 0.6250000000000000000 ) ) ;
#105 = AXIS2_PLACEMENT_3D ( 'NONE', #28, #204, #252 ) ;
#106 = EDGE_CURVE ( 'NONE', #36, #303, #322, .T. ) ;
#107 = DIMENSIONAL_EXPONENTS ( 1.000000000000000000, 0.0000000000000000000, 0.0000000000000000000, 0.0000000000000000000, 0.0000000000000000000, 0.0000000000000000000, 0.0000000000000000000 ) ;
#108 = CARTESIAN_POINT ( 'NONE',  ( -0.09375000000000001388, 0.0000000000000000000, 2.000000000000000000 ) ) ;
#109 = LINE ( 'NONE', #163, #205 ) ;
#110 = AXIS2_PLACEMENT_3D ( 'NONE', #336, #128, #233 ) ;
#111 = DIRECTION ( 'NONE',  ( -1.000000000000000000, 0.0000000000000000000, 0.0000000000000000000 ) ) ;
#112 = FILL_AREA_STYLE_COLOUR ( '', #173 ) ;
#113 = ORIENTED_EDGE ( 'NONE', *, *, #305, .T. ) ;
#114 = VERTEX_POINT ( 'NONE', #43 ) ;
#115 = CIRCLE ( 'NONE', #310, 0.07874999999999980627 ) ;
#116 = CIRCLE ( 'NONE', #52, 0.09375000000000001388 ) ;
#117 = ORIENTED_EDGE ( 'NONE', *, *, #27, .F. ) ;
#118 = VERTEX_POINT ( 'NONE', #67 ) ;
#119 = EDGE_LOOP ( 'NONE', ( #167, #157, #331, #3 ) ) ;
#120 = CARTESIAN_POINT ( 'NONE',  ( -0.09365624999999999645, 0.0000000000000000000, 0.02000000000000000389 ) ) ;
#121 = VECTOR ( 'NONE', #351, 39.37007874015748143 ) ;
#122 = CIRCLE ( 'NONE', #105, 0.07365624999999999256 ) ;
#123 = CARTESIAN_POINT ( 'NONE',  ( 2.449293598294707154E-18, 0.0000000000000000000, 0.02000000000000000389 ) ) ;
#124 = EDGE_CURVE ( 'NONE', #192, #118, #101, .T. ) ;
#125 = CARTESIAN_POINT ( 'NONE',  ( 7.660553729477949085E-17, 0.0000000000000000000, 0.6255316826705892286 ) ) ;
#126 = PLANE ( 'NONE',  #271 ) ;
#127 = APPLICATION_PROTOCOL_DEFINITION ( 'draft international standard', 'automotive_design', 1998, #96 ) ;
#128 = DIRECTION ( 'NONE',  ( -1.224646799147353207E-16, -0.0000000000000000000, -1.000000000000000000 ) ) ;
#129 = CYLINDRICAL_SURFACE ( 'NONE', #149, 0.09365624999999999645 ) ;
#130 = PRESENTATION_LAYER_ASSIGNMENT (  '', '', ( #39 ) ) ;
#131 = DIRECTION ( 'NONE',  ( 0.0000000000000000000, 0.0000000000000000000, 1.000000000000000000 ) ) ;
#132 = SURFACE_STYLE_USAGE ( .BOTH. , #316 ) ;
#133 = SURFACE_STYLE_FILL_AREA ( #347 ) ;
#134 = DIRECTION ( 'NONE',  ( -0.0000000000000000000, -0.0000000000000000000, -1.000000000000000000 ) ) ;
#135 = CARTESIAN_POINT ( 'NONE',  ( 0.0000000000000000000, 0.0000000000000000000, 2.000000000000000000 ) ) ;
#136 = ADVANCED_FACE ( 'NONE', ( #240 ), #186, .T. ) ;
#137 = DIRECTION ( 'NONE',  ( 1.224646799147353207E-16, 1.000000000000000000, -0.0000000000000000000 ) ) ;
#138 = AXIS2_PLACEMENT_3D ( 'NONE', #235, #100, #344 ) ;
#139 = DIRECTION ( 'NONE',  ( 1.000000000000000000, 0.0000000000000000000, 0.0000000000000000000 ) ) ;
#140 = LINE ( 'NONE', #59, #93 ) ;
#141 = ORIENTED_EDGE ( 'NONE', *, *, #340, .F. ) ;
#142 = ORIENTED_EDGE ( 'NONE', *, *, #99, .F. ) ;
#143 = AXIS2_PLACEMENT_3D ( 'NONE', #7, #250, #273 ) ;
#144 = ORIENTED_EDGE ( 'NONE', *, *, #61, .T. ) ;
#145 = ORIENTED_EDGE ( 'NONE', *, *, #79, .T. ) ;
#146 = DIRECTION ( 'NONE',  ( -1.224646799147353207E-16, -0.0000000000000000000, -1.000000000000000000 ) ) ;
#147 = VERTEX_POINT ( 'NONE', #262 ) ;
#148 = CARTESIAN_POINT ( 'NONE',  ( -0.07874999999999980627, 0.0000000000000000000, 2.000000000000000000 ) ) ;
#149 = AXIS2_PLACEMENT_3D ( 'NONE', #177, #231, #48 ) ;
#150 = AXIS2_PLACEMENT_3D ( 'NONE', #80, #137, #239 ) ;
#151 = CONICAL_SURFACE ( 'NONE', #83, 0.09365624999999999645, 0.1745329251994338360 ) ;
#152 = DIRECTION ( 'NONE',  ( 1.000000000000000000, 0.0000000000000000000, -0.0000000000000000000 ) ) ;
#153 = MANIFOLD_SOLID_BREP ( 'Fillet1', #87 ) ;
#154 = EDGE_LOOP ( 'NONE', ( #142, #4, #301, #66 ) ) ;
#155 = CARTESIAN_POINT ( 'NONE',  ( 0.0000000000000000000, 0.0000000000000000000, 2.000000000000000000 ) ) ;
#156 = CIRCLE ( 'NONE', #317, 0.02000000000000000042 ) ;
#157 = ORIENTED_EDGE ( 'NONE', *, *, #124, .T. ) ;
#158 = DIRECTION ( 'NONE',  ( 0.0000000000000000000, 0.0000000000000000000, 1.000000000000000000 ) ) ;
#159 = CARTESIAN_POINT ( 'NONE',  ( 0.0000000000000000000, 0.0000000000000000000, 0.0000000000000000000 ) ) ;
#160 = EDGE_CURVE ( 'NONE', #209, #36, #213, .T. ) ;
#161 = SURFACE_STYLE_FILL_AREA ( #295 ) ;
#162 = DIRECTION ( 'NONE',  ( 0.0000000000000000000, 0.0000000000000000000, -1.000000000000000000 ) ) ;
#163 = CARTESIAN_POINT ( 'NONE',  ( -0.09365624999999999645, 0.0000000000000000000, 1.146958267826442798E-17 ) ) ;
#164 = DIRECTION ( 'NONE',  ( 1.000000000000000000, 0.0000000000000000000, 0.0000000000000000000 ) ) ;
#165 = EDGE_CURVE ( 'NONE', #91, #325, #302, .T. ) ;
#166 = CARTESIAN_POINT ( 'NONE',  ( 7.654042494670957853E-17, 0.0000000000000000000, 0.6250000000000000000 ) ) ;
#167 = ORIENTED_EDGE ( 'NONE', *, *, #99, .T. ) ;
#168 = ORIENTED_EDGE ( 'NONE', *, *, #269, .T. ) ;
#169 = EDGE_LOOP ( 'NONE', ( #274, #248, #221, #329 ) ) ;
#170 = EDGE_LOOP ( 'NONE', ( #345, #223, #60, #6 ) ) ;
#171 = FACE_OUTER_BOUND ( 'NONE', #2, .T. ) ;
#172 = AXIS2_PLACEMENT_3D ( 'NONE', #283, #158, #285 ) ;
#173 = COLOUR_RGB ( '',0.7921568627450980005, 0.8196078431372548767, 0.9333333333333333481 ) ;
#174 = DIRECTION ( 'NONE',  ( 0.0000000000000000000, 0.0000000000000000000, -1.000000000000000000 ) ) ;
#175 = EDGE_CURVE ( 'NONE', #218, #118, #156, .T. ) ;
#176 = FACE_OUTER_BOUND ( 'NONE', #119, .T. ) ;
#177 = CARTESIAN_POINT ( 'NONE',  ( 0.0000000000000000000, 0.0000000000000000000, 0.0000000000000000000 ) ) ;
#178 = CARTESIAN_POINT ( 'NONE',  ( 0.07874999999999980627, 1.056257864264590573E-17, 2.000000000000000000 ) ) ;
#179 =( NAMED_UNIT ( * ) PLANE_ANGLE_UNIT ( ) SI_UNIT ( $, .RADIAN. ) );
#180 = DIRECTION ( 'NONE',  ( 1.000000000000000000, 0.0000000000000000000, 0.0000000000000000000 ) ) ;
#181 = DIRECTION ( 'NONE',  ( 0.0000000000000000000, 0.0000000000000000000, -1.000000000000000000 ) ) ;
#182 = VECTOR ( 'NONE', #284, 39.37007874015748143 ) ;
#183 = PRESENTATION_STYLE_ASSIGNMENT (( #268 ) ) ;
#184 = VECTOR ( 'NONE', #337, 39.37007874015748143 ) ;
#185 = EDGE_CURVE ( 'NONE', #147, #36, #346, .T. ) ;
#186 = CYLINDRICAL_SURFACE ( 'NONE', #258, 0.09365624999999999645 ) ;
#187 = PRODUCT_DEFINITION_CONTEXT ( 'detailed design', #89, 'design' ) ;
#188 =( NAMED_UNIT ( * ) SI_UNIT ( $, .STERADIAN. ) SOLID_ANGLE_UNIT ( ) );
#189 = ORIENTED_EDGE ( 'NONE', *, *, #124, .F. ) ;
#190 = CONICAL_SURFACE ( 'NONE', #264, 0.07874999999999980627, 0.7853981633974466137 ) ;
#191 = LENGTH_MEASURE_WITH_UNIT ( LENGTH_MEASURE( 0.02539999999999999897 ), #215 );
#192 = VERTEX_POINT ( 'NONE', #292 ) ;
#193 = UNCERTAINTY_MEASURE_WITH_UNIT (LENGTH_MEASURE( 1.000000000000000082E-05 ), #17, 'distance_accuracy_value', 'NONE');
#194 = ORIENTED_EDGE ( 'NONE', *, *, #51, .T. ) ;
#195 = PRODUCT ( 'Micro_GEC-187-3-020', 'Micro_GEC-187-3-020', '', ( #18 ) ) ;
#196 = ORIENTED_EDGE ( 'NONE', *, *, #238, .T. ) ;
#197 = ADVANCED_FACE ( 'NONE', ( #214 ), #350, .T. ) ;
#198 =( GEOMETRIC_REPRESENTATION_CONTEXT ( 3 ) GLOBAL_UNCERTAINTY_ASSIGNED_CONTEXT ( ( #33 ) ) GLOBAL_UNIT_ASSIGNED_CONTEXT ( ( #281, #327, #188 ) ) REPRESENTATION_CONTEXT ( 'NONE', 'WORKASPACE' ) );
#199 = UNCERTAINTY_MEASURE_WITH_UNIT (LENGTH_MEASURE( 1.000000000000000082E-05 ), #77, 'distance_accuracy_value', 'NONE');
#200 = CARTESIAN_POINT ( 'NONE',  ( 0.09375000000000001388, 1.148106374200643863E-17, 1.984999999999999654 ) ) ;
#201 = DIRECTION ( 'NONE',  ( -1.224646799147353207E-16, -0.0000000000000000000, -1.000000000000000000 ) ) ;
#202 = DIRECTION ( 'NONE',  ( -1.224646799147353207E-16, -0.0000000000000000000, -1.000000000000000000 ) ) ;
#203 = DIRECTION ( 'NONE',  ( 0.0000000000000000000, 0.0000000000000000000, 1.000000000000000000 ) ) ;
#204 = DIRECTION ( 'NONE',  ( -0.0000000000000000000, -0.0000000000000000000, -1.000000000000000000 ) ) ;
#205 = VECTOR ( 'NONE', #22, 39.37007874015748143 ) ;
#206 = DIRECTION ( 'NONE',  ( -1.000000000000000000, 0.0000000000000000000, 0.0000000000000000000 ) ) ;
#207 = APPLICATION_PROTOCOL_DEFINITION ( 'draft international standard', 'automotive_design', 1998, #89 ) ;
#208 = DIRECTION ( 'NONE',  ( 1.000000000000000000, 0.0000000000000000000, 0.0000000000000000000 ) ) ;
#209 = VERTEX_POINT ( 'NONE', #287 ) ;
#210 = STYLED_ITEM ( 'NONE', ( #183 ), #153 ) ;
#211 = DIRECTION ( 'NONE',  ( -0.1736481776669311639, 2.126576849575782392E-17, 0.9848077530122080203 ) ) ;
#212 = EDGE_CURVE ( 'NONE', #297, #209, #116, .T. ) ;
#213 = LINE ( 'NONE', #108, #224 ) ;
#214 = FACE_OUTER_BOUND ( 'NONE', #279, .T. ) ;
#215 =( LENGTH_UNIT ( ) NAMED_UNIT ( * ) SI_UNIT ( $, .METRE. ) );
#216 = ORIENTED_EDGE ( 'NONE', *, *, #212, .F. ) ;
#217 = ADVANCED_FACE ( 'NONE', ( #49 ), #190, .T. ) ;
#218 = VERTEX_POINT ( 'NONE', #348 ) ;
#219 = AXIS2_PLACEMENT_3D ( 'NONE', #349, #266, #180 ) ;
#220 = VECTOR ( 'NONE', #1, 39.37007874015748143 ) ;
#221 = ORIENTED_EDGE ( 'NONE', *, *, #305, .F. ) ;
#222 = ORIENTED_EDGE ( 'NONE', *, *, #212, .T. ) ;
#223 = ORIENTED_EDGE ( 'NONE', *, *, #238, .F. ) ;
#224 = VECTOR ( 'NONE', #134, 39.37007874015748143 ) ;
#225 = AXIS2_PLACEMENT_3D ( 'NONE', #255, #226, #307 ) ;
#226 = DIRECTION ( 'NONE',  ( 0.0000000000000000000, 0.0000000000000000000, 1.000000000000000000 ) ) ;
#227 = CARTESIAN_POINT ( 'NONE',  ( 0.0000000000000000000, 0.0000000000000000000, 2.000000000000000000 ) ) ;
#228 = EDGE_CURVE ( 'NONE', #114, #26, #115, .T. ) ;
#229 = DIRECTION ( 'NONE',  ( 0.0000000000000000000, 0.0000000000000000000, 1.000000000000000000 ) ) ;
#230 = DIRECTION ( 'NONE',  ( 0.1736481776669313304, 0.0000000000000000000, 0.9848077530122077983 ) ) ;
#231 = DIRECTION ( 'NONE',  ( -1.224646799147353207E-16, -0.0000000000000000000, -1.000000000000000000 ) ) ;
#232 = CIRCLE ( 'NONE', #94, 0.09375000000000001388 ) ;
#233 = DIRECTION ( 'NONE',  ( -1.000000000000000000, 0.0000000000000000000, 0.0000000000000000000 ) ) ;
#234 =( NAMED_UNIT ( * ) SI_UNIT ( $, .STERADIAN. ) SOLID_ANGLE_UNIT ( ) );
#235 = CARTESIAN_POINT ( 'NONE',  ( 0.0000000000000000000, 0.0000000000000000000, 2.000000000000000000 ) ) ;
#236 = EDGE_CURVE ( 'NONE', #147, #325, #109, .T. ) ;
#237 = DIRECTION ( 'NONE',  ( 1.000000000000000000, 0.0000000000000000000, 0.0000000000000000000 ) ) ;
#238 = EDGE_CURVE ( 'NONE', #192, #147, #245, .T. ) ;
#239 = DIRECTION ( 'NONE',  ( -1.000000000000000000, 1.224646799147353454E-16, 0.0000000000000000000 ) ) ;
#240 = FACE_OUTER_BOUND ( 'NONE', #300, .T. ) ;
#241 = ADVANCED_FACE ( 'NONE', ( #270 ), #343, .T. ) ;
#242 = CARTESIAN_POINT ( 'NONE',  ( 0.09375000000000001388, 1.148106374200643863E-17, 2.000000000000000000 ) ) ;
#243 = ORIENTED_EDGE ( 'NONE', *, *, #175, .F. ) ;
#244 = ORIENTED_EDGE ( 'NONE', *, *, #254, .T. ) ;
#245 = CIRCLE ( 'NONE', #44, 0.09365624999999999645 ) ;
#246 = EDGE_CURVE ( 'NONE', #192, #303, #140, .T. ) ;
#247 = EDGE_LOOP ( 'NONE', ( #332, #222, #31, #141 ) ) ;
#248 = ORIENTED_EDGE ( 'NONE', *, *, #27, .T. ) ;
#249 = PRODUCT_DEFINITION_SHAPE ( 'NONE', 'NONE',  #38 ) ;
#250 = DIRECTION ( 'NONE',  ( 1.224646799147353207E-16, 0.0000000000000000000, 1.000000000000000000 ) ) ;
#251 = EDGE_LOOP ( 'NONE', ( #117, #88, #244, #216 ) ) ;
#252 = DIRECTION ( 'NONE',  ( 1.000000000000000000, 0.0000000000000000000, 0.0000000000000000000 ) ) ;
#253 = CARTESIAN_POINT ( 'NONE',  ( 2.449293598294706769E-18, 0.0000000000000000000, 0.0000000000000000000 ) ) ;
#254 = EDGE_CURVE ( 'NONE', #114, #209, #57, .T. ) ;
#255 = CARTESIAN_POINT ( 'NONE',  ( 2.449293598294707154E-18, 0.0000000000000000000, 0.02000000000000000389 ) ) ;
#256 = LINE ( 'NONE', #14, #182 ) ;
#257 = CYLINDRICAL_SURFACE ( 'NONE', #138, 0.09375000000000001388 ) ;
#258 = AXIS2_PLACEMENT_3D ( 'NONE', #323, #54, #260 ) ;
#259 = CIRCLE ( 'NONE', #64, 0.09375000000000001388 ) ;
#260 = DIRECTION ( 'NONE',  ( -1.000000000000000000, 0.0000000000000000000, 1.224646799147352961E-16 ) ) ;
#261 = SHAPE_DEFINITION_REPRESENTATION ( #249, #308 ) ;
#262 = CARTESIAN_POINT ( 'NONE',  ( -0.09365624999999992706, 1.147532321013543253E-17, 0.6250000000000000000 ) ) ;
#263 = LENGTH_MEASURE_WITH_UNIT ( LENGTH_MEASURE( 0.02539999999999999897 ), #46 );
#264 = AXIS2_PLACEMENT_3D ( 'NONE', #135, #181, #111 ) ;
#265 = COLOUR_RGB ( '',0.7921568627450980005, 0.8196078431372548767, 0.9333333333333333481 ) ;
#266 = DIRECTION ( 'NONE',  ( 0.0000000000000000000, 0.0000000000000000000, 1.000000000000000000 ) ) ;
#267 = CARTESIAN_POINT ( 'NONE',  ( 0.0000000000000000000, 0.0000000000000000000, 1.984999999999999654 ) ) ;
#268 = SURFACE_STYLE_USAGE ( .BOTH. , #16 ) ;
#269 = EDGE_CURVE ( 'NONE', #218, #91, #122, .T. ) ;
#270 = FACE_OUTER_BOUND ( 'NONE', #170, .T. ) ;
#271 = AXIS2_PLACEMENT_3D ( 'NONE', #11, #229, #286 ) ;
#272 =( GEOMETRIC_REPRESENTATION_CONTEXT ( 3 ) GLOBAL_UNCERTAINTY_ASSIGNED_CONTEXT ( ( #199 ) ) GLOBAL_UNIT_ASSIGNED_CONTEXT ( ( #77, #179, #234 ) ) REPRESENTATION_CONTEXT ( 'NONE', 'WORKASPACE' ) );
#273 = DIRECTION ( 'NONE',  ( 1.000000000000000000, 0.0000000000000000000, 0.0000000000000000000 ) ) ;
#274 = ORIENTED_EDGE ( 'NONE', *, *, #61, .F. ) ;
#275 = DIRECTION ( 'NONE',  ( -1.000000000000000000, 0.0000000000000000000, 0.0000000000000000000 ) ) ;
#276 = ORIENTED_EDGE ( 'NONE', *, *, #269, .F. ) ;
#277 = EDGE_CURVE ( 'NONE', #118, #325, #311, .T. ) ;
#278 = CIRCLE ( 'NONE', #110, 0.09365624999999999645 ) ;
#279 = EDGE_LOOP ( 'NONE', ( #8, #74, #95, #243 ) ) ;
#280 = ORIENTED_EDGE ( 'NONE', *, *, #165, .F. ) ;
#281 =( CONVERSION_BASED_UNIT ( 'INCH', #191 ) LENGTH_UNIT ( ) NAMED_UNIT ( #85 ) );
#282 = DIRECTION ( 'NONE',  ( -0.0000000000000000000, -0.0000000000000000000, -1.000000000000000000 ) ) ;
#283 = CARTESIAN_POINT ( 'NONE',  ( 0.0000000000000000000, 0.0000000000000000000, 2.000000000000000000 ) ) ;
#284 = DIRECTION ( 'NONE',  ( 0.7071067811865463515, 8.659560562354916834E-17, -0.7071067811865486830 ) ) ;
#285 = DIRECTION ( 'NONE',  ( 1.000000000000000000, 0.0000000000000000000, 0.0000000000000000000 ) ) ;
#286 = DIRECTION ( 'NONE',  ( 1.000000000000000000, 0.0000000000000000000, -0.0000000000000000000 ) ) ;
#287 = CARTESIAN_POINT ( 'NONE',  ( -0.09375000000000001388, 0.0000000000000000000, 1.984999999999999654 ) ) ;
#288 = DIRECTION ( 'NONE',  ( 0.0000000000000000000, 0.0000000000000000000, 1.000000000000000000 ) ) ;
#289 = CARTESIAN_POINT ( 'NONE',  ( 0.0000000000000000000, 0.0000000000000000000, 2.000000000000000000 ) ) ;
#290 = DIMENSIONAL_EXPONENTS ( 1.000000000000000000, 0.0000000000000000000, 0.0000000000000000000, 0.0000000000000000000, 0.0000000000000000000, 0.0000000000000000000, 0.0000000000000000000 ) ;
#291 = FILL_AREA_STYLE_COLOUR ( '', #265 ) ;
#292 = CARTESIAN_POINT ( 'NONE',  ( 0.09365625000000006584, 0.0000000000000000000, 0.6250000000000000000 ) ) ;
#293 = ADVANCED_FACE ( 'NONE', ( #298 ), #318, .T. ) ;
#294 = LENGTH_MEASURE_WITH_UNIT ( LENGTH_MEASURE( 0.02539999999999999897 ), #86 );
#295 = FILL_AREA_STYLE ('',( #112 ) ) ;
#296 = AXIS2_PLACEMENT_3D ( 'NONE', #253, #309, #338 ) ;
#297 = VERTEX_POINT ( 'NONE', #200 ) ;
#298 = FACE_OUTER_BOUND ( 'NONE', #330, .T. ) ;
#299 = ORIENTED_EDGE ( 'NONE', *, *, #160, .F. ) ;
#300 = EDGE_LOOP ( 'NONE', ( #189, #196, #29, #145 ) ) ;
#301 = ORIENTED_EDGE ( 'NONE', *, *, #106, .T. ) ;
#302 = CIRCLE ( 'NONE', #150, 0.02000000000000000042 ) ;
#303 = VERTEX_POINT ( 'NONE', #24 ) ;
#304 = DIRECTION ( 'NONE',  ( 1.224646799147353207E-16, 0.0000000000000000000, 1.000000000000000000 ) ) ;
#305 = EDGE_CURVE ( 'NONE', #209, #297, #259, .T. ) ;
#306 = DIRECTION ( 'NONE',  ( 1.000000000000000000, 0.0000000000000000000, 0.0000000000000000000 ) ) ;
#307 = DIRECTION ( 'NONE',  ( 1.000000000000000000, 0.0000000000000000000, 0.0000000000000000000 ) ) ;
#308 = ADVANCED_BREP_SHAPE_REPRESENTATION ( 'Micro_GEC-187-3-020', ( #153, #71 ), #198 ) ;
#309 = DIRECTION ( 'NONE',  ( -0.0000000000000000000, -0.0000000000000000000, -1.000000000000000000 ) ) ;
#310 = AXIS2_PLACEMENT_3D ( 'NONE', #289, #50, #20 ) ;
#311 = CIRCLE ( 'NONE', #225, 0.09365624999999999645 ) ;
#312 = CARTESIAN_POINT ( 'NONE',  ( 2.449293598294706769E-18, 0.0000000000000000000, 0.02000000000000000042 ) ) ;
#313 = DIRECTION ( 'NONE',  ( -1.000000000000000000, 0.0000000000000000000, 0.0000000000000000000 ) ) ;
#314 = ORIENTED_EDGE ( 'NONE', *, *, #106, .F. ) ;
#315 = CARTESIAN_POINT ( 'NONE',  ( 0.0000000000000000000, 0.0000000000000000000, 2.000000000000000000 ) ) ;
#316 = SURFACE_SIDE_STYLE ('',( #161 ) ) ;
#317 = AXIS2_PLACEMENT_3D ( 'NONE', #53, #81, #162 ) ;
#318 = TOROIDAL_SURFACE ( 'NONE', #76, 0.07365624999999999256, 0.02000000000000000042 ) ;
#319 = PRESENTATION_STYLE_ASSIGNMENT (( #132 ) ) ;
#320 = EDGE_CURVE ( 'NONE', #297, #303, #339, .T. ) ;
#321 =( NAMED_UNIT ( * ) SI_UNIT ( $, .STERADIAN. ) SOLID_ANGLE_UNIT ( ) );
#322 = CIRCLE ( 'NONE', #82, 0.09375000000000001388 ) ;
#323 = CARTESIAN_POINT ( 'NONE',  ( 0.0000000000000000000, 0.0000000000000000000, 0.0000000000000000000 ) ) ;
#324 = DIRECTION ( 'NONE',  ( 1.000000000000000000, 0.0000000000000000000, 0.0000000000000000000 ) ) ;
#325 = VERTEX_POINT ( 'NONE', #120 ) ;
#326 = PRODUCT_RELATED_PRODUCT_CATEGORY ( 'part', '', ( #195 ) ) ;
#327 =( NAMED_UNIT ( * ) PLANE_ANGLE_UNIT ( ) SI_UNIT ( $, .RADIAN. ) );
#328 = PRODUCT_DEFINITION_FORMATION_WITH_SPECIFIED_SOURCE ( 'ANY', '', #195, .NOT_KNOWN. ) ;
#329 = ORIENTED_EDGE ( 'NONE', *, *, #254, .F. ) ;
#330 = EDGE_LOOP ( 'NONE', ( #280, #276, #35, #34 ) ) ;
#331 = ORIENTED_EDGE ( 'NONE', *, *, #277, .T. ) ;
#332 = ORIENTED_EDGE ( 'NONE', *, *, #320, .F. ) ;
#333 = AXIS2_PLACEMENT_3D ( 'NONE', #123, #203, #208 ) ;
#334 = ADVANCED_FACE ( 'NONE', ( #335 ), #151, .T. ) ;
#335 = FACE_OUTER_BOUND ( 'NONE', #154, .T. ) ;
#336 = CARTESIAN_POINT ( 'NONE',  ( 7.654042494670957853E-17, 0.0000000000000000000, 0.6250000000000000000 ) ) ;
#337 = DIRECTION ( 'NONE',  ( -0.7071067811865463515, 0.0000000000000000000, -0.7071067811865486830 ) ) ;
#338 = DIRECTION ( 'NONE',  ( 1.000000000000000000, 0.0000000000000000000, 0.0000000000000000000 ) ) ;
#339 = LINE ( 'NONE', #242, #220 ) ;
#340 = EDGE_CURVE ( 'NONE', #303, #36, #232, .T. ) ;
#341 = FACE_OUTER_BOUND ( 'NONE', #247, .T. ) ;
#342 = CIRCLE ( 'NONE', #172, 0.07874999999999980627 ) ;
#343 = CONICAL_SURFACE ( 'NONE', #143, 0.09365624999999999645, 0.1745329251994338360 ) ;
#344 = DIRECTION ( 'NONE',  ( -1.000000000000000000, 0.0000000000000000000, 0.0000000000000000000 ) ) ;
#345 = ORIENTED_EDGE ( 'NONE', *, *, #185, .F. ) ;
#346 = LINE ( 'NONE', #104, #55 ) ;
#347 = FILL_AREA_STYLE ('',( #291 ) ) ;
#348 = CARTESIAN_POINT ( 'NONE',  ( 0.07365624999999999256, 0.0000000000000000000, 0.0000000000000000000 ) ) ;
#349 = CARTESIAN_POINT ( 'NONE',  ( 2.449293598294706769E-18, 0.0000000000000000000, 0.02000000000000000042 ) ) ;
#350 = TOROIDAL_SURFACE ( 'NONE', #219, 0.07365624999999999256, 0.02000000000000000042 ) ;
#351 = DIRECTION ( 'NONE',  ( -1.224646799147353207E-16, -0.0000000000000000000, -1.000000000000000000 ) ) ;
ENDSEC;
END-ISO-10303-21;
