ISO-10303-21;
HEADER;
FILE_DESCRIPTION (( 'STEP AP214' ),
    '1' );
FILE_NAME ('Micro_DMM-050-290.STEP',
    '2021-09-02T16:20:23',
    ( '' ),
    ( '' ),
    'SwSTEP 2.0',
    'SolidWorks 2020',
    '' );
FILE_SCHEMA (( 'AUTOMOTIVE_DESIGN' ));
ENDSEC;

DATA;
#1 = LINE ( 'NONE', #81, #96 ) ;
#2 = CYLINDRICAL_SURFACE ( 'NONE', #217, 0.09837500000000003186 ) ;
#3 = CARTESIAN_POINT ( 'NONE',  ( -0.1181100000000000066, 0.0000000000000000000, 2.229093999999999465 ) ) ;
#4 = DIRECTION ( 'NONE',  ( 0.7071067811865358044, 8.659560562354788645E-17, -0.7071067811865590080 ) ) ;
#5 = EDGE_CURVE ( 'NONE', #11, #146, #122, .T. ) ;
#6 = DIRECTION ( 'NONE',  ( -0.0000000000000000000, -0.0000000000000000000, -1.000000000000000000 ) ) ;
#7 = EDGE_CURVE ( 'NONE', #321, #298, #325, .T. ) ;
#8 = MECHANICAL_DESIGN_GEOMETRIC_PRESENTATION_REPRESENTATION (  '', ( #121 ), #27 ) ;
#9 = ORIENTED_EDGE ( 'NONE', *, *, #127, .T. ) ;
#10 = PRODUCT_RELATED_PRODUCT_CATEGORY ( 'part', '', ( #328 ) ) ;
#11 = VERTEX_POINT ( 'NONE', #292 ) ;
#12 = DIRECTION ( 'NONE',  ( 1.000000000000000000, 0.0000000000000000000, 0.0000000000000000000 ) ) ;
#13 = CIRCLE ( 'NONE', #72, 0.09837500000000004574 ) ;
#14 = DIRECTION ( 'NONE',  ( 0.7071067811865490160, 0.0000000000000000000, 0.7071067811865460184 ) ) ;
#15 = ORIENTED_EDGE ( 'NONE', *, *, #97, .T. ) ;
#16 = CARTESIAN_POINT ( 'NONE',  ( 0.0000000000000000000, 0.0000000000000000000, 2.244094000000000033 ) ) ;
#17 = ORIENTED_EDGE ( 'NONE', *, *, #254, .T. ) ;
#18 = PLANE ( 'NONE',  #318 ) ;
#19 = PRESENTATION_LAYER_ASSIGNMENT (  '', '', ( #121 ) ) ;
#20 = ORIENTED_EDGE ( 'NONE', *, *, #264, .F. ) ;
#21 = DIRECTION ( 'NONE',  ( 1.000000000000000000, 0.0000000000000000000, 0.0000000000000000000 ) ) ;
#22 = ORIENTED_EDGE ( 'NONE', *, *, #181, .F. ) ;
#23 = DIMENSIONAL_EXPONENTS ( 1.000000000000000000, 0.0000000000000000000, 0.0000000000000000000, 0.0000000000000000000, 0.0000000000000000000, 0.0000000000000000000, 0.0000000000000000000 ) ;
#24 = CARTESIAN_POINT ( 'NONE',  ( 0.0000000000000000000, 0.0000000000000000000, 1.707404996040164512E-17 ) ) ;
#25 = ORIENTED_EDGE ( 'NONE', *, *, #301, .F. ) ;
#26 = DIRECTION ( 'NONE',  ( -0.0000000000000000000, -0.0000000000000000000, -1.000000000000000000 ) ) ;
#27 =( GEOMETRIC_REPRESENTATION_CONTEXT ( 3 ) GLOBAL_UNCERTAINTY_ASSIGNED_CONTEXT ( ( #195 ) ) GLOBAL_UNIT_ASSIGNED_CONTEXT ( ( #60, #57, #177 ) ) REPRESENTATION_CONTEXT ( 'NONE', 'WORKASPACE' ) );
#28 = PRODUCT_DEFINITION_CONTEXT ( 'detailed design', #175, 'design' ) ;
#29 = VECTOR ( 'NONE', #194, 39.37007874015748143 ) ;
#30 =( GEOMETRIC_REPRESENTATION_CONTEXT ( 3 ) GLOBAL_UNCERTAINTY_ASSIGNED_CONTEXT ( ( #70 ) ) GLOBAL_UNIT_ASSIGNED_CONTEXT ( ( #54, #83, #152 ) ) REPRESENTATION_CONTEXT ( 'NONE', 'WORKASPACE' ) );
#31 = ADVANCED_FACE ( 'NONE', ( #166 ), #268, .T. ) ;
#32 = DIRECTION ( 'NONE',  ( 0.0000000000000000000, 0.0000000000000000000, 1.000000000000000000 ) ) ;
#33 = EDGE_CURVE ( 'NONE', #93, #208, #135, .T. ) ;
#34 = CARTESIAN_POINT ( 'NONE',  ( 0.0000000000000000000, 0.0000000000000000000, 0.5118110000000001270 ) ) ;
#35 = VECTOR ( 'NONE', #273, 39.37007874015748854 ) ;
#36 = DIRECTION ( 'NONE',  ( -1.000000000000000000, 0.0000000000000000000, 0.0000000000000000000 ) ) ;
#37 = ORIENTED_EDGE ( 'NONE', *, *, #33, .F. ) ;
#38 = AXIS2_PLACEMENT_3D ( 'NONE', #265, #147, #261 ) ;
#39 = CONICAL_SURFACE ( 'NONE', #85, 0.007499999999999999722, 0.7853981633974503884 ) ;
#40 = ORIENTED_EDGE ( 'NONE', *, *, #296, .F. ) ;
#41 = CARTESIAN_POINT ( 'NONE',  ( 0.09837500000000004574, 0.0000000000000000000, 0.5118110000000000159 ) ) ;
#42 = VERTEX_POINT ( 'NONE', #98 ) ;
#43 = ADVANCED_FACE ( 'NONE', ( #125 ), #18, .F. ) ;
#44 = DIRECTION ( 'NONE',  ( 0.0000000000000000000, 0.0000000000000000000, 1.000000000000000000 ) ) ;
#45 = VECTOR ( 'NONE', #214, 39.37007874015748143 ) ;
#46 = STYLED_ITEM ( 'NONE', ( #276 ), #231 ) ;
#47 = ORIENTED_EDGE ( 'NONE', *, *, #174, .F. ) ;
#48 = DIRECTION ( 'NONE',  ( -1.000000000000000000, 0.0000000000000000000, 0.0000000000000000000 ) ) ;
#49 = ORIENTED_EDGE ( 'NONE', *, *, #272, .T. ) ;
#50 = DIRECTION ( 'NONE',  ( 1.000000000000000000, 0.0000000000000000000, 0.0000000000000000000 ) ) ;
#51 = EDGE_CURVE ( 'NONE', #208, #93, #230, .T. ) ;
#52 = DIRECTION ( 'NONE',  ( 1.000000000000000000, 0.0000000000000000000, 0.0000000000000000000 ) ) ;
#53 = AXIS2_PLACEMENT_3D ( 'NONE', #62, #193, #71 ) ;
#54 =( CONVERSION_BASED_UNIT ( 'INCH', #196 ) LENGTH_UNIT ( ) NAMED_UNIT ( #212 ) );
#55 = VECTOR ( 'NONE', #92, 39.37007874015748143 ) ;
#56 = SURFACE_STYLE_USAGE ( .BOTH. , #84 ) ;
#57 =( NAMED_UNIT ( * ) PLANE_ANGLE_UNIT ( ) SI_UNIT ( $, .RADIAN. ) );
#58 = DIRECTION ( 'NONE',  ( -1.000000000000000000, 0.0000000000000000000, 0.0000000000000000000 ) ) ;
#59 = ORIENTED_EDGE ( 'NONE', *, *, #153, .F. ) ;
#60 =( CONVERSION_BASED_UNIT ( 'INCH', #134 ) LENGTH_UNIT ( ) NAMED_UNIT ( #23 ) );
#61 = AXIS2_PLACEMENT_3D ( 'NONE', #291, #297, #50 ) ;
#62 = CARTESIAN_POINT ( 'NONE',  ( 0.0000000000000000000, 0.0000000000000000000, 2.244094000000000033 ) ) ;
#63 = CIRCLE ( 'NONE', #250, 0.09837500000000004574 ) ;
#64 = ORIENTED_EDGE ( 'NONE', *, *, #301, .T. ) ;
#65 = DIRECTION ( 'NONE',  ( -0.0000000000000000000, -0.0000000000000000000, -1.000000000000000000 ) ) ;
#66 = EDGE_LOOP ( 'NONE', ( #295, #243, #17, #319 ) ) ;
#67 = ADVANCED_FACE ( 'NONE', ( #148 ), #100, .T. ) ;
#68 = FACE_OUTER_BOUND ( 'NONE', #189, .T. ) ;
#69 = EDGE_LOOP ( 'NONE', ( #167, #15 ) ) ;
#70 = UNCERTAINTY_MEASURE_WITH_UNIT (LENGTH_MEASURE( 1.000000000000000082E-05 ), #54, 'distance_accuracy_value', 'NONE');
#71 = DIRECTION ( 'NONE',  ( -1.000000000000000000, 0.0000000000000000000, 0.0000000000000000000 ) ) ;
#72 = AXIS2_PLACEMENT_3D ( 'NONE', #224, #277, #132 ) ;
#73 = EDGE_LOOP ( 'NONE', ( #40, #37, #180, #236 ) ) ;
#74 = CARTESIAN_POINT ( 'NONE',  ( 0.0000000000000000000, 0.0000000000000000000, 0.0000000000000000000 ) ) ;
#75 = ADVANCED_BREP_SHAPE_REPRESENTATION ( 'Micro_DMM-050-290', ( #231, #286 ), #111 ) ;
#76 = CARTESIAN_POINT ( 'NONE',  ( -0.1031100000000002570, 0.0000000000000000000, 2.244094000000000033 ) ) ;
#77 = EDGE_CURVE ( 'NONE', #11, #321, #163, .T. ) ;
#78 = AXIS2_PLACEMENT_3D ( 'NONE', #16, #44, #117 ) ;
#79 = FILL_AREA_STYLE_COLOUR ( '', #170 ) ;
#80 = DIRECTION ( 'NONE',  ( -1.000000000000000000, 0.0000000000000000000, 0.0000000000000000000 ) ) ;
#81 = CARTESIAN_POINT ( 'NONE',  ( 0.1031100000000002570, 1.262733314600838667E-17, 2.244094000000000033 ) ) ;
#82 = CARTESIAN_POINT ( 'NONE',  ( -0.09837500000000003186, 1.204746288661208977E-17, 0.09087499999999965050 ) ) ;
#83 =( NAMED_UNIT ( * ) PLANE_ANGLE_UNIT ( ) SI_UNIT ( $, .RADIAN. ) );
#84 = SURFACE_SIDE_STYLE ('',( #253 ) ) ;
#85 = AXIS2_PLACEMENT_3D ( 'NONE', #234, #182, #252 ) ;
#86 = SURFACE_STYLE_USAGE ( .BOTH. , #305 ) ;
#87 = LINE ( 'NONE', #176, #326 ) ;
#88 = EDGE_LOOP ( 'NONE', ( #309, #9, #101, #239 ) ) ;
#89 = CONICAL_SURFACE ( 'NONE', #179, 0.1031100000000002570, 0.7853981633974318477 ) ;
#90 = AXIS2_PLACEMENT_3D ( 'NONE', #274, #156, #223 ) ;
#91 = FACE_OUTER_BOUND ( 'NONE', #66, .T. ) ;
#92 = DIRECTION ( 'NONE',  ( -0.0000000000000000000, -0.0000000000000000000, -1.000000000000000000 ) ) ;
#93 = VERTEX_POINT ( 'NONE', #188 ) ;
#94 = CYLINDRICAL_SURFACE ( 'NONE', #248, 0.09837500000000003186 ) ;
#95 = CARTESIAN_POINT ( 'NONE',  ( 0.0000000000000000000, 0.0000000000000000000, 2.229093999999999465 ) ) ;
#96 = VECTOR ( 'NONE', #4, 39.37007874015748854 ) ;
#97 = EDGE_CURVE ( 'NONE', #146, #298, #279, .T. ) ;
#98 = CARTESIAN_POINT ( 'NONE',  ( 0.09837500000000003186, 0.0000000000000000000, 0.09087499999999965050 ) ) ;
#99 = ADVANCED_FACE ( 'NONE', ( #242, #190 ), #320, .T. ) ;
#100 = CYLINDRICAL_SURFACE ( 'NONE', #53, 0.1181100000000000066 ) ;
#101 = ORIENTED_EDGE ( 'NONE', *, *, #254, .F. ) ;
#102 = FACE_OUTER_BOUND ( 'NONE', #73, .T. ) ;
#103 = CARTESIAN_POINT ( 'NONE',  ( -0.1181100000000000066, 0.0000000000000000000, 2.244094000000000033 ) ) ;
#104 = ADVANCED_FACE ( 'NONE', ( #68 ), #89, .T. ) ;
#105 = CARTESIAN_POINT ( 'NONE',  ( -0.1181100000000000066, 0.0000000000000000000, 0.5118110000000001270 ) ) ;
#106 = FACE_OUTER_BOUND ( 'NONE', #203, .T. ) ;
#107 = LINE ( 'NONE', #76, #35 ) ;
#108 = AXIS2_PLACEMENT_3D ( 'NONE', #164, #210, #48 ) ;
#109 = CARTESIAN_POINT ( 'NONE',  ( -0.09837500000000004574, 0.0000000000000000000, 0.5118110000000000159 ) ) ;
#110 = CIRCLE ( 'NONE', #78, 0.1031100000000002570 ) ;
#111 =( GEOMETRIC_REPRESENTATION_CONTEXT ( 3 ) GLOBAL_UNCERTAINTY_ASSIGNED_CONTEXT ( ( #244 ) ) GLOBAL_UNIT_ASSIGNED_CONTEXT ( ( #329, #227, #115 ) ) REPRESENTATION_CONTEXT ( 'NONE', 'WORKASPACE' ) );
#112 = ADVANCED_FACE ( 'NONE', ( #102 ), #202, .T. ) ;
#113 = LINE ( 'NONE', #312, #55 ) ;
#114 = CONICAL_SURFACE ( 'NONE', #90, 0.1031100000000002570, 0.7853981633974318477 ) ;
#115 =( NAMED_UNIT ( * ) SI_UNIT ( $, .STERADIAN. ) SOLID_ANGLE_UNIT ( ) );
#116 = ORIENTED_EDGE ( 'NONE', *, *, #181, .T. ) ;
#117 = DIRECTION ( 'NONE',  ( 1.000000000000000000, 0.0000000000000000000, 0.0000000000000000000 ) ) ;
#118 = ORIENTED_EDGE ( 'NONE', *, *, #264, .T. ) ;
#119 = CIRCLE ( 'NONE', #299, 0.1031100000000002570 ) ;
#120 = CARTESIAN_POINT ( 'NONE',  ( 0.0000000000000000000, 0.0000000000000000000, 2.244094000000000033 ) ) ;
#121 = STYLED_ITEM ( 'NONE', ( #308 ), #75 ) ;
#122 = LINE ( 'NONE', #266, #45 ) ;
#123 = CARTESIAN_POINT ( 'NONE',  ( 0.0000000000000000000, 0.0000000000000000000, 2.244094000000000033 ) ) ;
#124 = VERTEX_POINT ( 'NONE', #245 ) ;
#125 = FACE_OUTER_BOUND ( 'NONE', #169, .T. ) ;
#126 = ORIENTED_EDGE ( 'NONE', *, *, #33, .T. ) ;
#127 = EDGE_CURVE ( 'NONE', #124, #42, #168, .T. ) ;
#128 = FACE_OUTER_BOUND ( 'NONE', #281, .T. ) ;
#129 = ADVANCED_FACE ( 'NONE', ( #128 ), #235, .T. ) ;
#130 = PRODUCT_DEFINITION ( 'UNKNOWN', '', #300, #28 ) ;
#131 = CIRCLE ( 'NONE', #151, 0.1181100000000000066 ) ;
#132 = DIRECTION ( 'NONE',  ( -1.000000000000000000, 0.0000000000000000000, 0.0000000000000000000 ) ) ;
#133 = LENGTH_MEASURE_WITH_UNIT ( LENGTH_MEASURE( 0.02539999999999999897 ), #150 );
#134 = LENGTH_MEASURE_WITH_UNIT ( LENGTH_MEASURE( 0.02539999999999999897 ), #225 );
#135 = CIRCLE ( 'NONE', #310, 0.007499999999999999722 ) ;
#136 = EDGE_CURVE ( 'NONE', #143, #171, #110, .T. ) ;
#137 = APPLICATION_PROTOCOL_DEFINITION ( 'draft international standard', 'automotive_design', 1998, #175 ) ;
#138 = DIRECTION ( 'NONE',  ( -0.0000000000000000000, -0.0000000000000000000, -1.000000000000000000 ) ) ;
#139 = ORIENTED_EDGE ( 'NONE', *, *, #259, .F. ) ;
#140 = ORIENTED_EDGE ( 'NONE', *, *, #127, .F. ) ;
#141 = CARTESIAN_POINT ( 'NONE',  ( 0.0000000000000000000, 0.0000000000000000000, 2.244094000000000033 ) ) ;
#142 = DIRECTION ( 'NONE',  ( -0.0000000000000000000, 0.0000000000000000000, -1.000000000000000000 ) ) ;
#143 = VERTEX_POINT ( 'NONE', #207 ) ;
#144 = AXIS2_PLACEMENT_3D ( 'NONE', #41, #142, #215 ) ;
#145 = CARTESIAN_POINT ( 'NONE',  ( 0.1181100000000000066, 1.446430334472939084E-17, 0.5118110000000001270 ) ) ;
#146 = VERTEX_POINT ( 'NONE', #145 ) ;
#147 = DIRECTION ( 'NONE',  ( 0.0000000000000000000, 0.0000000000000000000, -1.000000000000000000 ) ) ;
#148 = FACE_OUTER_BOUND ( 'NONE', #270, .T. ) ;
#149 = COLOUR_RGB ( '',0.7921568627450980005, 0.8196078431372548767, 0.9333333333333333481 ) ;
#150 =( LENGTH_UNIT ( ) NAMED_UNIT ( * ) SI_UNIT ( $, .METRE. ) );
#151 = AXIS2_PLACEMENT_3D ( 'NONE', #34, #6, #306 ) ;
#152 =( NAMED_UNIT ( * ) SI_UNIT ( $, .STERADIAN. ) SOLID_ANGLE_UNIT ( ) );
#153 = EDGE_CURVE ( 'NONE', #321, #11, #256, .T. ) ;
#154 = APPLICATION_PROTOCOL_DEFINITION ( 'draft international standard', 'automotive_design', 1998, #161 ) ;
#155 = EDGE_CURVE ( 'NONE', #171, #143, #119, .T. ) ;
#156 = DIRECTION ( 'NONE',  ( 0.0000000000000000000, 0.0000000000000000000, -1.000000000000000000 ) ) ;
#157 = VECTOR ( 'NONE', #197, 39.37007874015748143 ) ;
#158 = DIRECTION ( 'NONE',  ( -0.0000000000000000000, -0.0000000000000000000, -1.000000000000000000 ) ) ;
#159 = DIRECTION ( 'NONE',  ( 0.0000000000000000000, 0.0000000000000000000, 1.000000000000000000 ) ) ;
#160 = FILL_AREA_STYLE ('',( #307 ) ) ;
#161 = APPLICATION_CONTEXT ( 'automotive_design' ) ;
#162 = EDGE_LOOP ( 'NONE', ( #229, #262 ) ) ;
#163 = CIRCLE ( 'NONE', #38, 0.1181100000000000066 ) ;
#164 = CARTESIAN_POINT ( 'NONE',  ( 0.0000000000000000000, 0.0000000000000000000, 1.707404996040164512E-17 ) ) ;
#165 = ORIENTED_EDGE ( 'NONE', *, *, #5, .T. ) ;
#166 = FACE_OUTER_BOUND ( 'NONE', #162, .T. ) ;
#167 = ORIENTED_EDGE ( 'NONE', *, *, #237, .T. ) ;
#168 = LINE ( 'NONE', #263, #247 ) ;
#169 = EDGE_LOOP ( 'NONE', ( #126, #316 ) ) ;
#170 = COLOUR_RGB ( '',0.7921568627450980005, 0.8196078431372548767, 0.9333333333333333481 ) ;
#171 = VERTEX_POINT ( 'NONE', #249 ) ;
#172 = DIRECTION ( 'NONE',  ( 0.0000000000000000000, 0.0000000000000000000, 1.000000000000000000 ) ) ;
#173 = FILL_AREA_STYLE ('',( #79 ) ) ;
#174 = EDGE_CURVE ( 'NONE', #185, #124, #13, .T. ) ;
#175 = APPLICATION_CONTEXT ( 'automotive_design' ) ;
#176 = CARTESIAN_POINT ( 'NONE',  ( 0.007499999999999999722, 0.0000000000000000000, 1.707404996040164512E-17 ) ) ;
#177 =( NAMED_UNIT ( * ) SI_UNIT ( $, .STERADIAN. ) SOLID_ANGLE_UNIT ( ) );
#178 = ADVANCED_FACE ( 'NONE', ( #219 ), #2, .T. ) ;
#179 = AXIS2_PLACEMENT_3D ( 'NONE', #141, #293, #324 ) ;
#180 = ORIENTED_EDGE ( 'NONE', *, *, #246, .T. ) ;
#181 = EDGE_CURVE ( 'NONE', #143, #11, #1, .T. ) ;
#182 = DIRECTION ( 'NONE',  ( 0.0000000000000000000, 0.0000000000000000000, 1.000000000000000000 ) ) ;
#183 = FACE_OUTER_BOUND ( 'NONE', #211, .T. ) ;
#184 = DIRECTION ( 'NONE',  ( -1.000000000000000000, 0.0000000000000000000, 0.0000000000000000000 ) ) ;
#185 = VERTEX_POINT ( 'NONE', #109 ) ;
#186 = DIRECTION ( 'NONE',  ( 1.000000000000000000, 0.0000000000000000000, -0.0000000000000000000 ) ) ;
#187 = ORIENTED_EDGE ( 'NONE', *, *, #153, .T. ) ;
#188 = CARTESIAN_POINT ( 'NONE',  ( 0.007499999999999999722, 0.0000000000000000000, 1.707404996040164512E-17 ) ) ;
#189 = EDGE_LOOP ( 'NONE', ( #314, #116, #59, #25 ) ) ;
#190 = FACE_OUTER_BOUND ( 'NONE', #69, .T. ) ;
#191 = ORIENTED_EDGE ( 'NONE', *, *, #155, .F. ) ;
#192 = CLOSED_SHELL ( 'NONE', ( #178, #282, #104, #67, #129, #31, #222, #99, #112, #278, #43 ) ) ;
#193 = DIRECTION ( 'NONE',  ( -0.0000000000000000000, -0.0000000000000000000, -1.000000000000000000 ) ) ;
#194 = DIRECTION ( 'NONE',  ( -0.0000000000000000000, -0.0000000000000000000, -1.000000000000000000 ) ) ;
#195 = UNCERTAINTY_MEASURE_WITH_UNIT (LENGTH_MEASURE( 1.000000000000000082E-05 ), #60, 'distance_accuracy_value', 'NONE');
#196 = LENGTH_MEASURE_WITH_UNIT ( LENGTH_MEASURE( 0.02539999999999999897 ), #251 );
#197 = DIRECTION ( 'NONE',  ( -0.7071067811865490160, 8.659560562354951347E-17, 0.7071067811865460184 ) ) ;
#198 = DIRECTION ( 'NONE',  ( -1.000000000000000000, 0.0000000000000000000, 0.0000000000000000000 ) ) ;
#199 = CARTESIAN_POINT ( 'NONE',  ( 0.0000000000000000000, 0.0000000000000000000, 0.0000000000000000000 ) ) ;
#200 = LINE ( 'NONE', #221, #157 ) ;
#201 = PRODUCT_CONTEXT ( 'NONE', #161, 'mechanical' ) ;
#202 = CONICAL_SURFACE ( 'NONE', #61, 0.007499999999999999722, 0.7853981633974503884 ) ;
#203 = EDGE_LOOP ( 'NONE', ( #22, #191, #64, #206 ) ) ;
#204 = AXIS2_PLACEMENT_3D ( 'NONE', #315, #158, #287 ) ;
#205 = CARTESIAN_POINT ( 'NONE',  ( 0.0000000000000000000, 0.0000000000000000000, 0.09087499999999965050 ) ) ;
#206 = ORIENTED_EDGE ( 'NONE', *, *, #77, .F. ) ;
#207 = CARTESIAN_POINT ( 'NONE',  ( 0.1031100000000002570, 1.354581824536888722E-17, 2.244094000000000033 ) ) ;
#208 = VERTEX_POINT ( 'NONE', #303 ) ;
#209 = AXIS2_PLACEMENT_3D ( 'NONE', #240, #218, #238 ) ;
#210 = DIRECTION ( 'NONE',  ( -0.0000000000000000000, -0.0000000000000000000, -1.000000000000000000 ) ) ;
#211 = EDGE_LOOP ( 'NONE', ( #140, #118, #49, #139 ) ) ;
#212 = DIMENSIONAL_EXPONENTS ( 1.000000000000000000, 0.0000000000000000000, 0.0000000000000000000, 0.0000000000000000000, 0.0000000000000000000, 0.0000000000000000000, 0.0000000000000000000 ) ;
#213 = DIRECTION ( 'NONE',  ( -0.0000000000000000000, -0.0000000000000000000, -1.000000000000000000 ) ) ;
#214 = DIRECTION ( 'NONE',  ( -0.0000000000000000000, -0.0000000000000000000, -1.000000000000000000 ) ) ;
#215 = DIRECTION ( 'NONE',  ( -1.000000000000000000, 0.0000000000000000000, 0.0000000000000000000 ) ) ;
#216 = EDGE_LOOP ( 'NONE', ( #47, #20 ) ) ;
#217 = AXIS2_PLACEMENT_3D ( 'NONE', #199, #302, #198 ) ;
#218 = DIRECTION ( 'NONE',  ( -0.0000000000000000000, -0.0000000000000000000, -1.000000000000000000 ) ) ;
#219 = FACE_OUTER_BOUND ( 'NONE', #88, .T. ) ;
#220 = AXIS2_PLACEMENT_3D ( 'NONE', #271, #65, #184 ) ;
#221 = CARTESIAN_POINT ( 'NONE',  ( -0.007499999999999999722, 9.184850993605147975E-19, 1.707404996040164512E-17 ) ) ;
#222 = ADVANCED_FACE ( 'NONE', ( #106 ), #114, .T. ) ;
#223 = DIRECTION ( 'NONE',  ( -1.000000000000000000, 0.0000000000000000000, 0.0000000000000000000 ) ) ;
#224 = CARTESIAN_POINT ( 'NONE',  ( 0.0000000000000000000, 0.0000000000000000000, 0.5118110000000000159 ) ) ;
#225 =( LENGTH_UNIT ( ) NAMED_UNIT ( * ) SI_UNIT ( $, .METRE. ) );
#226 = SHAPE_DEFINITION_REPRESENTATION ( #269, #75 ) ;
#227 =( NAMED_UNIT ( * ) PLANE_ANGLE_UNIT ( ) SI_UNIT ( $, .RADIAN. ) );
#228 = DIRECTION ( 'NONE',  ( -0.0000000000000000000, -0.0000000000000000000, -1.000000000000000000 ) ) ;
#229 = ORIENTED_EDGE ( 'NONE', *, *, #155, .T. ) ;
#230 = CIRCLE ( 'NONE', #108, 0.007499999999999999722 ) ;
#231 = MANIFOLD_SOLID_BREP ( 'Cut-Revolve4', #192 ) ;
#232 = MECHANICAL_DESIGN_GEOMETRIC_PRESENTATION_REPRESENTATION (  '', ( #46 ), #30 ) ;
#233 = ORIENTED_EDGE ( 'NONE', *, *, #5, .F. ) ;
#234 = CARTESIAN_POINT ( 'NONE',  ( 0.0000000000000000000, 0.0000000000000000000, 1.707404996040164512E-17 ) ) ;
#235 = CYLINDRICAL_SURFACE ( 'NONE', #209, 0.1181100000000000066 ) ;
#236 = ORIENTED_EDGE ( 'NONE', *, *, #259, .T. ) ;
#237 = EDGE_CURVE ( 'NONE', #298, #146, #131, .T. ) ;
#238 = DIRECTION ( 'NONE',  ( -1.000000000000000000, 0.0000000000000000000, 0.0000000000000000000 ) ) ;
#239 = ORIENTED_EDGE ( 'NONE', *, *, #272, .F. ) ;
#240 = CARTESIAN_POINT ( 'NONE',  ( 0.0000000000000000000, 0.0000000000000000000, 2.244094000000000033 ) ) ;
#241 = ORIENTED_EDGE ( 'NONE', *, *, #7, .F. ) ;
#242 = FACE_BOUND ( 'NONE', #216, .T. ) ;
#243 = ORIENTED_EDGE ( 'NONE', *, *, #296, .T. ) ;
#244 = UNCERTAINTY_MEASURE_WITH_UNIT (LENGTH_MEASURE( 1.000000000000000082E-05 ), #329, 'distance_accuracy_value', 'NONE');
#245 = CARTESIAN_POINT ( 'NONE',  ( 0.09837500000000004574, 1.204746288661209285E-17, 0.5118110000000000159 ) ) ;
#246 = EDGE_CURVE ( 'NONE', #93, #42, #87, .T. ) ;
#247 = VECTOR ( 'NONE', #26, 39.37007874015748143 ) ;
#248 = AXIS2_PLACEMENT_3D ( 'NONE', #283, #213, #80 ) ;
#249 = CARTESIAN_POINT ( 'NONE',  ( -0.1031100000000002570, 0.0000000000000000000, 2.244094000000000033 ) ) ;
#250 = AXIS2_PLACEMENT_3D ( 'NONE', #258, #228, #36 ) ;
#251 =( LENGTH_UNIT ( ) NAMED_UNIT ( * ) SI_UNIT ( $, .METRE. ) );
#252 = DIRECTION ( 'NONE',  ( 1.000000000000000000, 0.0000000000000000000, 0.0000000000000000000 ) ) ;
#253 = SURFACE_STYLE_FILL_AREA ( #173 ) ;
#254 = EDGE_CURVE ( 'NONE', #290, #42, #267, .T. ) ;
#255 = AXIS2_PLACEMENT_3D ( 'NONE', #95, #317, #21 ) ;
#256 = CIRCLE ( 'NONE', #255, 0.1181100000000000066 ) ;
#257 = CARTESIAN_POINT ( 'NONE',  ( 0.0000000000000000000, 0.0000000000000000000, 0.0000000000000000000 ) ) ;
#258 = CARTESIAN_POINT ( 'NONE',  ( 0.0000000000000000000, 0.0000000000000000000, 0.5118110000000000159 ) ) ;
#259 = EDGE_CURVE ( 'NONE', #42, #290, #275, .T. ) ;
#260 = SURFACE_STYLE_FILL_AREA ( #160 ) ;
#261 = DIRECTION ( 'NONE',  ( 1.000000000000000000, 0.0000000000000000000, 0.0000000000000000000 ) ) ;
#262 = ORIENTED_EDGE ( 'NONE', *, *, #136, .T. ) ;
#263 = CARTESIAN_POINT ( 'NONE',  ( 0.09837500000000003186, 1.204746288661209131E-17, 0.0000000000000000000 ) ) ;
#264 = EDGE_CURVE ( 'NONE', #124, #185, #63, .T. ) ;
#265 = CARTESIAN_POINT ( 'NONE',  ( 0.0000000000000000000, 0.0000000000000000000, 2.229093999999999465 ) ) ;
#266 = CARTESIAN_POINT ( 'NONE',  ( 0.1181100000000000066, 1.446430334472939084E-17, 2.244094000000000033 ) ) ;
#267 = CIRCLE ( 'NONE', #311, 0.09837500000000001799 ) ;
#268 = PLANE ( 'NONE',  #304 ) ;
#269 = PRODUCT_DEFINITION_SHAPE ( 'NONE', 'NONE',  #130 ) ;
#270 = EDGE_LOOP ( 'NONE', ( #187, #165, #313, #241 ) ) ;
#271 = CARTESIAN_POINT ( 'NONE',  ( 0.0000000000000000000, 0.0000000000000000000, 0.5118110000000001270 ) ) ;
#272 = EDGE_CURVE ( 'NONE', #185, #290, #113, .T. ) ;
#273 = DIRECTION ( 'NONE',  ( -0.7071067811865358044, 0.0000000000000000000, -0.7071067811865590080 ) ) ;
#274 = CARTESIAN_POINT ( 'NONE',  ( 0.0000000000000000000, 0.0000000000000000000, 2.244094000000000033 ) ) ;
#275 = CIRCLE ( 'NONE', #204, 0.09837500000000001799 ) ;
#276 = PRESENTATION_STYLE_ASSIGNMENT (( #56 ) ) ;
#277 = DIRECTION ( 'NONE',  ( -0.0000000000000000000, -0.0000000000000000000, -1.000000000000000000 ) ) ;
#278 = ADVANCED_FACE ( 'NONE', ( #183 ), #94, .T. ) ;
#279 = CIRCLE ( 'NONE', #220, 0.1181100000000000066 ) ;
#280 = PRESENTATION_LAYER_ASSIGNMENT (  '', '', ( #46 ) ) ;
#281 = EDGE_LOOP ( 'NONE', ( #233, #284, #323, #288 ) ) ;
#282 = ADVANCED_FACE ( 'NONE', ( #91 ), #39, .T. ) ;
#283 = CARTESIAN_POINT ( 'NONE',  ( 0.0000000000000000000, 0.0000000000000000000, 0.0000000000000000000 ) ) ;
#284 = ORIENTED_EDGE ( 'NONE', *, *, #77, .T. ) ;
#285 = DIRECTION ( 'NONE',  ( -0.0000000000000000000, -0.0000000000000000000, -1.000000000000000000 ) ) ;
#286 = AXIS2_PLACEMENT_3D ( 'NONE', #257, #159, #12 ) ;
#287 = DIRECTION ( 'NONE',  ( -1.000000000000000000, 0.0000000000000000000, 0.0000000000000000000 ) ) ;
#288 = ORIENTED_EDGE ( 'NONE', *, *, #97, .F. ) ;
#289 = DIRECTION ( 'NONE',  ( -1.000000000000000000, 0.0000000000000000000, 0.0000000000000000000 ) ) ;
#290 = VERTEX_POINT ( 'NONE', #82 ) ;
#291 = CARTESIAN_POINT ( 'NONE',  ( 0.0000000000000000000, 0.0000000000000000000, 1.707404996040164512E-17 ) ) ;
#292 = CARTESIAN_POINT ( 'NONE',  ( 0.1181100000000000066, 1.446430334472939084E-17, 2.229093999999999465 ) ) ;
#293 = DIRECTION ( 'NONE',  ( 0.0000000000000000000, 0.0000000000000000000, -1.000000000000000000 ) ) ;
#294 = DIMENSIONAL_EXPONENTS ( 1.000000000000000000, 0.0000000000000000000, 0.0000000000000000000, 0.0000000000000000000, 0.0000000000000000000, 0.0000000000000000000, 0.0000000000000000000 ) ;
#295 = ORIENTED_EDGE ( 'NONE', *, *, #51, .F. ) ;
#296 = EDGE_CURVE ( 'NONE', #208, #290, #200, .T. ) ;
#297 = DIRECTION ( 'NONE',  ( 0.0000000000000000000, 0.0000000000000000000, 1.000000000000000000 ) ) ;
#298 = VERTEX_POINT ( 'NONE', #105 ) ;
#299 = AXIS2_PLACEMENT_3D ( 'NONE', #123, #32, #52 ) ;
#300 = PRODUCT_DEFINITION_FORMATION_WITH_SPECIFIED_SOURCE ( 'ANY', '', #328, .NOT_KNOWN. ) ;
#301 = EDGE_CURVE ( 'NONE', #171, #321, #107, .T. ) ;
#302 = DIRECTION ( 'NONE',  ( -0.0000000000000000000, -0.0000000000000000000, -1.000000000000000000 ) ) ;
#303 = CARTESIAN_POINT ( 'NONE',  ( -0.007499999999999999722, 6.482973992986302093E-18, 1.707404996040164512E-17 ) ) ;
#304 = AXIS2_PLACEMENT_3D ( 'NONE', #120, #172, #322 ) ;
#305 = SURFACE_SIDE_STYLE ('',( #260 ) ) ;
#306 = DIRECTION ( 'NONE',  ( -1.000000000000000000, 0.0000000000000000000, 0.0000000000000000000 ) ) ;
#307 = FILL_AREA_STYLE_COLOUR ( '', #149 ) ;
#308 = PRESENTATION_STYLE_ASSIGNMENT (( #86 ) ) ;
#309 = ORIENTED_EDGE ( 'NONE', *, *, #174, .T. ) ;
#310 = AXIS2_PLACEMENT_3D ( 'NONE', #24, #285, #289 ) ;
#311 = AXIS2_PLACEMENT_3D ( 'NONE', #205, #138, #58 ) ;
#312 = CARTESIAN_POINT ( 'NONE',  ( -0.09837500000000003186, 0.0000000000000000000, 0.0000000000000000000 ) ) ;
#313 = ORIENTED_EDGE ( 'NONE', *, *, #237, .F. ) ;
#314 = ORIENTED_EDGE ( 'NONE', *, *, #136, .F. ) ;
#315 = CARTESIAN_POINT ( 'NONE',  ( 0.0000000000000000000, 0.0000000000000000000, 0.09087499999999965050 ) ) ;
#316 = ORIENTED_EDGE ( 'NONE', *, *, #51, .T. ) ;
#317 = DIRECTION ( 'NONE',  ( 0.0000000000000000000, 0.0000000000000000000, -1.000000000000000000 ) ) ;
#318 = AXIS2_PLACEMENT_3D ( 'NONE', #74, #327, #186 ) ;
#319 = ORIENTED_EDGE ( 'NONE', *, *, #246, .F. ) ;
#320 = PLANE ( 'NONE',  #144 ) ;
#321 = VERTEX_POINT ( 'NONE', #3 ) ;
#322 = DIRECTION ( 'NONE',  ( 1.000000000000000000, 0.0000000000000000000, -0.0000000000000000000 ) ) ;
#323 = ORIENTED_EDGE ( 'NONE', *, *, #7, .T. ) ;
#324 = DIRECTION ( 'NONE',  ( -1.000000000000000000, 0.0000000000000000000, 0.0000000000000000000 ) ) ;
#325 = LINE ( 'NONE', #103, #29 ) ;
#326 = VECTOR ( 'NONE', #14, 39.37007874015748143 ) ;
#327 = DIRECTION ( 'NONE',  ( 0.0000000000000000000, 0.0000000000000000000, 1.000000000000000000 ) ) ;
#328 = PRODUCT ( 'Micro_DMM-050-290', 'Micro_DMM-050-290', '', ( #201 ) ) ;
#329 =( CONVERSION_BASED_UNIT ( 'INCH', #133 ) LENGTH_UNIT ( ) NAMED_UNIT ( #294 ) );
ENDSEC;
END-ISO-10303-21;
