ISO-10303-21;
HEADER;
FILE_DESCRIPTION (( 'STEP AP214' ),
    '1' );
FILE_NAME ('59474.STEP',
    '2023-07-24T15:07:13',
    ( '' ),
    ( '' ),
    'SwSTEP 2.0',
    'SolidWorks 2023',
    '' );
FILE_SCHEMA (( 'AUTOMOTIVE_DESIGN' ));
ENDSEC;

DATA;
#1 = CIRCLE ( 'NONE', #208, 10.00000000000000000 ) ;
#2 = FILL_AREA_STYLE ('',( #176 ) ) ;
#3 = SURFACE_STYLE_FILL_AREA ( #151 ) ;
#4 = STYLED_ITEM ( 'NONE', ( #86 ), #61 ) ;
#5 = UNCERTAINTY_MEASURE_WITH_UNIT (LENGTH_MEASURE( 1.000000000000000082E-05 ), #66, 'distance_accuracy_value', 'NONE');
#6 = CYLINDRICAL_SURFACE ( 'NONE', #72, 9.999999999999998224 ) ;
#7 = CARTESIAN_POINT ( 'NONE',  ( 10.00000000000000000, 30.00000000000000000, 1.224646799147353256E-15 ) ) ;
#8 = STYLED_ITEM ( 'NONE', ( #332 ), #95 ) ;
#9 = ADVANCED_FACE ( 'NONE', ( #214 ), #231, .T. ) ;
#10 = ORIENTED_EDGE ( 'NONE', *, *, #197, .F. ) ;
#11 = COLOUR_RGB ( '',1.000000000000000000, 0.000000000000000000, 0.000000000000000000 ) ;
#12 = SURFACE_SIDE_STYLE ('',( #299 ) ) ;
#13 = FILL_AREA_STYLE ('',( #266 ) ) ;
#14 = LINE ( 'NONE', #365, #226 ) ;
#15 = VERTEX_POINT ( 'NONE', #250 ) ;
#16 = ORIENTED_EDGE ( 'NONE', *, *, #119, .T. ) ;
#17 = MECHANICAL_DESIGN_GEOMETRIC_PRESENTATION_REPRESENTATION (  '', ( #236 ), #211 ) ;
#18 = EDGE_LOOP ( 'NONE', ( #310, #46 ) ) ;
#19 = CARTESIAN_POINT ( 'NONE',  ( 0.000000000000000000, 0.000000000000000000, 0.000000000000000000 ) ) ;
#20 = DIRECTION ( 'NONE',  ( -1.576935716305902603E-16, 1.000000000000000000, -0.000000000000000000 ) ) ;
#21 = VERTEX_POINT ( 'NONE', #67 ) ;
#22 = CARTESIAN_POINT ( 'NONE',  ( 7.589415207398531038E-15, 30.00000000000000000, 0.000000000000000000 ) ) ;
#23 = DIRECTION ( 'NONE',  ( 0.000000000000000000, 0.000000000000000000, 1.000000000000000000 ) ) ;
#24 = EDGE_CURVE ( 'NONE', #21, #306, #159, .T. ) ;
#25 = DIRECTION ( 'NONE',  ( -1.576935716305902603E-16, 1.000000000000000000, -0.000000000000000000 ) ) ;
#26 = PRESENTATION_LAYER_ASSIGNMENT (  '', '', ( #4 ) ) ;
#27 = EDGE_CURVE ( 'NONE', #77, #306, #91, .T. ) ;
#28 = CARTESIAN_POINT ( 'NONE',  ( 0.000000000000000000, 30.00000000000000000, 0.000000000000000000 ) ) ;
#29 = FACE_OUTER_BOUND ( 'NONE', #173, .T. ) ;
#30 =( NAMED_UNIT ( * ) PLANE_ANGLE_UNIT ( ) SI_UNIT ( $, .RADIAN. ) );
#31 = EDGE_CURVE ( 'NONE', #106, #70, #370, .T. ) ;
#32 = PRESENTATION_LAYER_ASSIGNMENT (  '', '', ( #303 ) ) ;
#33 = AXIS2_PLACEMENT_3D ( 'NONE', #52, #247, #368 ) ;
#34 = UNCERTAINTY_MEASURE_WITH_UNIT (LENGTH_MEASURE( 1.000000000000000082E-05 ), #76, 'distance_accuracy_value', 'NONE');
#35 = CARTESIAN_POINT ( 'NONE',  ( -9.999999999999985789, 30.00000000000000000, 0.000000000000000000 ) ) ;
#36 = SHAPE_DEFINITION_REPRESENTATION ( #124, #284 ) ;
#37 = CARTESIAN_POINT ( 'NONE',  ( 0.000000000000000000, 0.000000000000000000, 0.000000000000000000 ) ) ;
#38 = COLOUR_RGB ( '',0.7921568627450980005, 0.8196078431372548767, 0.9333333333333333481 ) ;
#39 =( NAMED_UNIT ( * ) PLANE_ANGLE_UNIT ( ) SI_UNIT ( $, .RADIAN. ) );
#40 = DIRECTION ( 'NONE',  ( -0.000000000000000000, -1.000000000000000000, -0.000000000000000000 ) ) ;
#41 = SURFACE_STYLE_USAGE ( .BOTH. , #212 ) ;
#42 = ORIENTED_EDGE ( 'NONE', *, *, #197, .T. ) ;
#43 = STYLED_ITEM ( 'NONE', ( #130 ), #9 ) ;
#44 = EDGE_LOOP ( 'NONE', ( #193, #129, #218, #164 ) ) ;
#45 = CARTESIAN_POINT ( 'NONE',  ( 0.000000000000000000, 30.00000000000000000, 0.000000000000000000 ) ) ;
#46 = ORIENTED_EDGE ( 'NONE', *, *, #188, .F. ) ;
#47 = SURFACE_STYLE_USAGE ( .BOTH. , #229 ) ;
#48 = ORIENTED_EDGE ( 'NONE', *, *, #92, .F. ) ;
#49 = FILL_AREA_STYLE_COLOUR ( '', #240 ) ;
#50 = AXIS2_PLACEMENT_3D ( 'NONE', #195, #174, #23 ) ;
#51 = CIRCLE ( 'NONE', #184, 10.00000000000000000 ) ;
#52 = CARTESIAN_POINT ( 'NONE',  ( 0.000000000000000000, 0.5000000000000000000, 0.000000000000000000 ) ) ;
#53 = PLANE ( 'NONE',  #232 ) ;
#54 = AXIS2_PLACEMENT_3D ( 'NONE', #19, #190, #141 ) ;
#55 = FILL_AREA_STYLE ('',( #49 ) ) ;
#56 = SURFACE_STYLE_FILL_AREA ( #185 ) ;
#57 = CARTESIAN_POINT ( 'NONE',  ( 10.00000000000000000, 89.00000000000000000, 1.224646799147353256E-15 ) ) ;
#58 = MANIFOLD_SOLID_BREP ( 'Revolve - Cutting Edge', #132 ) ;
#59 = TOROIDAL_SURFACE ( 'NONE', #351, 9.500000000000000000, 0.5000000000000002220 ) ;
#60 = AXIS2_PLACEMENT_3D ( 'NONE', #249, #288, #254 ) ;
#61 = MANIFOLD_SOLID_BREP ( 'Revolve - Tool Body (Straight Shanked)', #369 ) ;
#62 = DIRECTION ( 'NONE',  ( -1.576935716305902603E-16, 1.000000000000000000, -0.000000000000000000 ) ) ;
#63 = PRESENTATION_LAYER_ASSIGNMENT (  '', '', ( #8 ) ) ;
#64 = CARTESIAN_POINT ( 'NONE',  ( 0.000000000000000000, 0.5000000000000000000, 0.000000000000000000 ) ) ;
#65 =( GEOMETRIC_REPRESENTATION_CONTEXT ( 3 ) GLOBAL_UNCERTAINTY_ASSIGNED_CONTEXT ( ( #353 ) ) GLOBAL_UNIT_ASSIGNED_CONTEXT ( ( #318, #256, #259 ) ) REPRESENTATION_CONTEXT ( 'NONE', 'WORKASPACE' ) );
#66 =( LENGTH_UNIT ( ) NAMED_UNIT ( * ) SI_UNIT ( .MILLI., .METRE. ) );
#67 = CARTESIAN_POINT ( 'NONE',  ( 1.194030629168669469E-15, 0.000000000000000000, 9.500000000000000000 ) ) ;
#68 = EDGE_CURVE ( 'NONE', #268, #333, #51, .T. ) ;
#69 = CARTESIAN_POINT ( 'NONE',  ( 0.000000000000000000, 0.000000000000000000, 0.000000000000000000 ) ) ;
#70 = VERTEX_POINT ( 'NONE', #57 ) ;
#71 = ADVANCED_FACE ( 'NONE', ( #354 ), #146, .T. ) ;
#72 = AXIS2_PLACEMENT_3D ( 'NONE', #356, #329, #98 ) ;
#73 = DIRECTION ( 'NONE',  ( 0.000000000000000000, 0.000000000000000000, -1.000000000000000000 ) ) ;
#74 = VERTEX_POINT ( 'NONE', #35 ) ;
#75 = EDGE_LOOP ( 'NONE', ( #223, #187 ) ) ;
#76 =( LENGTH_UNIT ( ) NAMED_UNIT ( * ) SI_UNIT ( .MILLI., .METRE. ) );
#77 = VERTEX_POINT ( 'NONE', #255 ) ;
#78 = ORIENTED_EDGE ( 'NONE', *, *, #27, .F. ) ;
#79 = DIRECTION ( 'NONE',  ( -1.224646799147353454E-16, 0.000000000000000000, -1.000000000000000000 ) ) ;
#80 =( NAMED_UNIT ( * ) SI_UNIT ( $, .STERADIAN. ) SOLID_ANGLE_UNIT ( ) );
#81 = ADVANCED_FACE ( 'NONE', ( #29 ), #152, .T. ) ;
#82 = MECHANICAL_DESIGN_GEOMETRIC_PRESENTATION_REPRESENTATION (  '', ( #303 ), #345 ) ;
#83 = STYLED_ITEM ( 'NONE', ( #366 ), #347 ) ;
#84 = CARTESIAN_POINT ( 'NONE',  ( -1.714505518806293652E-15, 89.00000000000000000, 0.000000000000000000 ) ) ;
#85 = SURFACE_SIDE_STYLE ('',( #282 ) ) ;
#86 = PRESENTATION_STYLE_ASSIGNMENT (( #204 ) ) ;
#87 = AXIS2_PLACEMENT_3D ( 'NONE', #326, #238, #161 ) ;
#88 = UNCERTAINTY_MEASURE_WITH_UNIT (LENGTH_MEASURE( 1.000000000000000082E-05 ), #309, 'distance_accuracy_value', 'NONE');
#89 =( GEOMETRIC_REPRESENTATION_CONTEXT ( 3 ) GLOBAL_UNCERTAINTY_ASSIGNED_CONTEXT ( ( #257 ) ) GLOBAL_UNIT_ASSIGNED_CONTEXT ( ( #136, #194, #80 ) ) REPRESENTATION_CONTEXT ( 'NONE', 'WORKASPACE' ) );
#90 = ADVANCED_FACE ( 'NONE', ( #295 ), #6, .T. ) ;
#91 = CIRCLE ( 'NONE', #50, 0.5000000000000004441 ) ;
#92 = EDGE_CURVE ( 'NONE', #306, #21, #283, .T. ) ;
#93 = DIRECTION ( 'NONE',  ( -0.000000000000000000, -1.000000000000000000, -0.000000000000000000 ) ) ;
#94 = FACE_OUTER_BOUND ( 'NONE', #248, .T. ) ;
#95 = ADVANCED_FACE ( 'NONE', ( #94 ), #327, .T. ) ;
#96 = DIRECTION ( 'NONE',  ( 0.000000000000000000, 0.000000000000000000, -1.000000000000000000 ) ) ;
#97 = AXIS2_PLACEMENT_3D ( 'NONE', #109, #344, #237 ) ;
#98 = DIRECTION ( 'NONE',  ( -1.000000000000000000, 0.000000000000000000, 0.000000000000000000 ) ) ;
#99 = ORIENTED_EDGE ( 'NONE', *, *, #343, .F. ) ;
#100 = DIRECTION ( 'NONE',  ( 0.000000000000000000, 0.000000000000000000, -1.000000000000000000 ) ) ;
#101 =( NAMED_UNIT ( * ) PLANE_ANGLE_UNIT ( ) SI_UNIT ( $, .RADIAN. ) );
#102 =( GEOMETRIC_REPRESENTATION_CONTEXT ( 3 ) GLOBAL_UNCERTAINTY_ASSIGNED_CONTEXT ( ( #5 ) ) GLOBAL_UNIT_ASSIGNED_CONTEXT ( ( #66, #39, #123 ) ) REPRESENTATION_CONTEXT ( 'NONE', 'WORKASPACE' ) );
#103 = COLOUR_RGB ( '',1.000000000000000000, 0.000000000000000000, 0.000000000000000000 ) ;
#104 = CARTESIAN_POINT ( 'NONE',  ( 1.163414459189985485E-15, 0.5000000000000000000, 9.500000000000000000 ) ) ;
#105 = CIRCLE ( 'NONE', #317, 0.5000000000000004441 ) ;
#106 = VERTEX_POINT ( 'NONE', #7 ) ;
#107 = DIRECTION ( 'NONE',  ( 1.000000000000000000, 0.000000000000000000, 0.000000000000000000 ) ) ;
#108 = DIRECTION ( 'NONE',  ( -1.576935716305902603E-16, 1.000000000000000000, 0.000000000000000000 ) ) ;
#109 = CARTESIAN_POINT ( 'NONE',  ( 10.00000000000000000, 89.00000000000000000, 0.000000000000000000 ) ) ;
#110 = CARTESIAN_POINT ( 'NONE',  ( -1.714505518806293652E-15, 89.00000000000000000, 0.000000000000000000 ) ) ;
#111 = SURFACE_STYLE_FILL_AREA ( #55 ) ;
#112 = CARTESIAN_POINT ( 'NONE',  ( 0.000000000000000000, 0.000000000000000000, 0.000000000000000000 ) ) ;
#113 = SURFACE_STYLE_FILL_AREA ( #181 ) ;
#114 = PRESENTATION_LAYER_ASSIGNMENT (  '', '', ( #43 ) ) ;
#115 = AXIS2_PLACEMENT_3D ( 'NONE', #118, #62, #235 ) ;
#116 = PRODUCT_CONTEXT ( 'NONE', #298, 'mechanical' ) ;
#117 = PRODUCT_DEFINITION_CONTEXT ( 'detailed design', #342, 'design' ) ;
#118 = CARTESIAN_POINT ( 'NONE',  ( -1.714505518806293849E-15, 89.00000000000000000, 0.000000000000000000 ) ) ;
#119 = EDGE_CURVE ( 'NONE', #333, #192, #157, .T. ) ;
#120 = SURFACE_SIDE_STYLE ('',( #3 ) ) ;
#121 =( LENGTH_UNIT ( ) NAMED_UNIT ( * ) SI_UNIT ( .MILLI., .METRE. ) );
#122 = PRESENTATION_LAYER_ASSIGNMENT (  '', '', ( #360 ) ) ;
#123 =( NAMED_UNIT ( * ) SI_UNIT ( $, .STERADIAN. ) SOLID_ANGLE_UNIT ( ) );
#124 = PRODUCT_DEFINITION_SHAPE ( 'NONE', 'NONE',  #363 ) ;
#125 = SURFACE_STYLE_FILL_AREA ( #359 ) ;
#126 = AXIS2_PLACEMENT_3D ( 'NONE', #64, #271, #100 ) ;
#127 = EDGE_LOOP ( 'NONE', ( #339, #364, #308, #99 ) ) ;
#128 = ORIENTED_EDGE ( 'NONE', *, *, #325, .T. ) ;
#129 = ORIENTED_EDGE ( 'NONE', *, *, #31, .T. ) ;
#130 = PRESENTATION_STYLE_ASSIGNMENT (( #362 ) ) ;
#131 =( NAMED_UNIT ( * ) PLANE_ANGLE_UNIT ( ) SI_UNIT ( $, .RADIAN. ) );
#132 = CLOSED_SHELL ( 'NONE', ( #95, #140, #260, #9, #81, #347 ) ) ;
#133 = EDGE_LOOP ( 'NONE', ( #336, #128, #263, #162 ) ) ;
#134 = AXIS2_PLACEMENT_3D ( 'NONE', #69, #93, #96 ) ;
#135 = ORIENTED_EDGE ( 'NONE', *, *, #68, .T. ) ;
#136 =( LENGTH_UNIT ( ) NAMED_UNIT ( * ) SI_UNIT ( .MILLI., .METRE. ) );
#137 = DIRECTION ( 'NONE',  ( 0.000000000000000000, 0.000000000000000000, 1.000000000000000000 ) ) ;
#138 = FACE_OUTER_BOUND ( 'NONE', #75, .T. ) ;
#139 = FACE_OUTER_BOUND ( 'NONE', #18, .T. ) ;
#140 = ADVANCED_FACE ( 'NONE', ( #262 ), #59, .T. ) ;
#141 = DIRECTION ( 'NONE',  ( 0.000000000000000000, 0.000000000000000000, -1.000000000000000000 ) ) ;
#142 = EDGE_CURVE ( 'NONE', #77, #192, #292, .T. ) ;
#143 = CARTESIAN_POINT ( 'NONE',  ( 1.224646799147353256E-15, 30.00000000000000000, 10.00000000000000000 ) ) ;
#144 = CIRCLE ( 'NONE', #319, 9.999999999999992895 ) ;
#145 = MECHANICAL_DESIGN_GEOMETRIC_PRESENTATION_REPRESENTATION (  '', ( #83 ), #264 ) ;
#146 = CYLINDRICAL_SURFACE ( 'NONE', #115, 9.999999999999998224 ) ;
#147 = COLOUR_RGB ( '',1.000000000000000000, 0.000000000000000000, 0.000000000000000000 ) ;
#148 = EDGE_CURVE ( 'NONE', #192, #21, #105, .T. ) ;
#149 = UNCERTAINTY_MEASURE_WITH_UNIT (LENGTH_MEASURE( 1.000000000000000082E-05 ), #121, 'distance_accuracy_value', 'NONE');
#150 = AXIS2_PLACEMENT_3D ( 'NONE', #22, #108, #314 ) ;
#151 = FILL_AREA_STYLE ('',( #230 ) ) ;
#152 = CYLINDRICAL_SURFACE ( 'NONE', #87, 10.00000000000000000 ) ;
#153 = DIRECTION ( 'NONE',  ( -0.000000000000000000, -1.000000000000000000, -0.000000000000000000 ) ) ;
#154 = VECTOR ( 'NONE', #40, 1000.000000000000000 ) ;
#155 = MECHANICAL_DESIGN_GEOMETRIC_PRESENTATION_REPRESENTATION (  '', ( #360 ), #89 ) ;
#156 = DIRECTION ( 'NONE',  ( 0.000000000000000000, 0.000000000000000000, -1.000000000000000000 ) ) ;
#157 = LINE ( 'NONE', #297, #154 ) ;
#158 = ORIENTED_EDGE ( 'NONE', *, *, #24, .T. ) ;
#159 = CIRCLE ( 'NONE', #171, 9.500000000000000000 ) ;
#160 = EDGE_CURVE ( 'NONE', #333, #268, #1, .T. ) ;
#161 = DIRECTION ( 'NONE',  ( 0.000000000000000000, 0.000000000000000000, -1.000000000000000000 ) ) ;
#162 = ORIENTED_EDGE ( 'NONE', *, *, #24, .F. ) ;
#163 = DIRECTION ( 'NONE',  ( -1.000000000000000000, 0.000000000000000000, 0.000000000000000000 ) ) ;
#164 = ORIENTED_EDGE ( 'NONE', *, *, #200, .F. ) ;
#165 = CARTESIAN_POINT ( 'NONE',  ( 0.000000000000000000, 0.000000000000000000, -9.500000000000000000 ) ) ;
#166 = APPLICATION_PROTOCOL_DEFINITION ( 'draft international standard', 'automotive_design', 1998, #298 ) ;
#167 = CARTESIAN_POINT ( 'NONE',  ( -10.00000000000000000, 89.00000000000000000, 0.000000000000000000 ) ) ;
#168 =( LENGTH_UNIT ( ) NAMED_UNIT ( * ) SI_UNIT ( .MILLI., .METRE. ) );
#169 = CARTESIAN_POINT ( 'NONE',  ( 0.000000000000000000, 0.000000000000000000, 0.000000000000000000 ) ) ;
#170 = MECHANICAL_DESIGN_GEOMETRIC_PRESENTATION_REPRESENTATION (  '', ( #43 ), #202 ) ;
#171 = AXIS2_PLACEMENT_3D ( 'NONE', #112, #180, #349 ) ;
#172 = DIRECTION ( 'NONE',  ( -0.000000000000000000, -1.000000000000000000, -0.000000000000000000 ) ) ;
#173 = EDGE_LOOP ( 'NONE', ( #337, #241, #42, #189 ) ) ;
#174 = DIRECTION ( 'NONE',  ( -1.000000000000000000, 0.000000000000000000, 0.000000000000000000 ) ) ;
#175 = CARTESIAN_POINT ( 'NONE',  ( 0.000000000000000000, 0.5000000000000000000, 0.000000000000000000 ) ) ;
#176 = FILL_AREA_STYLE_COLOUR ( '', #38 ) ;
#177 = SURFACE_SIDE_STYLE ('',( #113 ) ) ;
#178 = AXIS2_PLACEMENT_3D ( 'NONE', #169, #137, #107 ) ;
#179 = PRODUCT_RELATED_PRODUCT_CATEGORY ( 'part', '', ( #300 ) ) ;
#180 = DIRECTION ( 'NONE',  ( -0.000000000000000000, -1.000000000000000000, -0.000000000000000000 ) ) ;
#181 = FILL_AREA_STYLE ('',( #261 ) ) ;
#182 = AXIS2_PLACEMENT_3D ( 'NONE', #361, #213, #331 ) ;
#183 = UNCERTAINTY_MEASURE_WITH_UNIT (LENGTH_MEASURE( 1.000000000000000082E-05 ), #291, 'distance_accuracy_value', 'NONE');
#184 = AXIS2_PLACEMENT_3D ( 'NONE', #28, #205, #289 ) ;
#185 = FILL_AREA_STYLE ('',( #330 ) ) ;
#186 = FILL_AREA_STYLE_COLOUR ( '', #103 ) ;
#187 = ORIENTED_EDGE ( 'NONE', *, *, #343, .T. ) ;
#188 = EDGE_CURVE ( 'NONE', #106, #74, #144, .T. ) ;
#189 = ORIENTED_EDGE ( 'NONE', *, *, #325, .F. ) ;
#190 = DIRECTION ( 'NONE',  ( 0.000000000000000000, -1.000000000000000000, -0.000000000000000000 ) ) ;
#191 = ORIENTED_EDGE ( 'NONE', *, *, #142, .F. ) ;
#192 = VERTEX_POINT ( 'NONE', #267 ) ;
#193 = ORIENTED_EDGE ( 'NONE', *, *, #207, .T. ) ;
#194 =( NAMED_UNIT ( * ) PLANE_ANGLE_UNIT ( ) SI_UNIT ( $, .RADIAN. ) );
#195 = CARTESIAN_POINT ( 'NONE',  ( 0.000000000000000000, 0.5000000000000000000, -9.500000000000000000 ) ) ;
#196 = DIRECTION ( 'NONE',  ( -1.576935716305902603E-16, 1.000000000000000000, -0.000000000000000000 ) ) ;
#197 = EDGE_CURVE ( 'NONE', #268, #77, #14, .T. ) ;
#198 = AXIS2_PLACEMENT_3D ( 'NONE', #84, #25, #340 ) ;
#199 = SURFACE_STYLE_USAGE ( .BOTH. , #281 ) ;
#200 = EDGE_CURVE ( 'NONE', #74, #15, #277, .T. ) ;
#201 = SURFACE_STYLE_USAGE ( .BOTH. , #85 ) ;
#202 =( GEOMETRIC_REPRESENTATION_CONTEXT ( 3 ) GLOBAL_UNCERTAINTY_ASSIGNED_CONTEXT ( ( #324 ) ) GLOBAL_UNIT_ASSIGNED_CONTEXT ( ( #168, #101, #272 ) ) REPRESENTATION_CONTEXT ( 'NONE', 'WORKASPACE' ) );
#203 =( NAMED_UNIT ( * ) SI_UNIT ( $, .STERADIAN. ) SOLID_ANGLE_UNIT ( ) );
#204 = SURFACE_STYLE_USAGE ( .BOTH. , #120 ) ;
#205 = DIRECTION ( 'NONE',  ( -0.000000000000000000, -1.000000000000000000, -0.000000000000000000 ) ) ;
#206 = MECHANICAL_DESIGN_GEOMETRIC_PRESENTATION_REPRESENTATION (  '', ( #4 ), #65 ) ;
#207 = EDGE_CURVE ( 'NONE', #74, #106, #245, .T. ) ;
#208 = AXIS2_PLACEMENT_3D ( 'NONE', #45, #172, #73 ) ;
#209 = SURFACE_STYLE_USAGE ( .BOTH. , #12 ) ;
#210 = FILL_AREA_STYLE ('',( #265 ) ) ;
#211 =( GEOMETRIC_REPRESENTATION_CONTEXT ( 3 ) GLOBAL_UNCERTAINTY_ASSIGNED_CONTEXT ( ( #149 ) ) GLOBAL_UNIT_ASSIGNED_CONTEXT ( ( #121, #30, #316 ) ) REPRESENTATION_CONTEXT ( 'NONE', 'WORKASPACE' ) );
#212 = SURFACE_SIDE_STYLE ('',( #125 ) ) ;
#213 = DIRECTION ( 'NONE',  ( -0.000000000000000000, -1.000000000000000000, -0.000000000000000000 ) ) ;
#214 = FACE_OUTER_BOUND ( 'NONE', #133, .T. ) ;
#215 = DIRECTION ( 'NONE',  ( 0.000000000000000000, 0.000000000000000000, -1.000000000000000000 ) ) ;
#216 = ORIENTED_EDGE ( 'NONE', *, *, #148, .T. ) ;
#217 = MECHANICAL_DESIGN_GEOMETRIC_PRESENTATION_REPRESENTATION (  '', ( #8 ), #102 ) ;
#218 = ORIENTED_EDGE ( 'NONE', *, *, #323, .F. ) ;
#219 = PRESENTATION_LAYER_ASSIGNMENT (  '', '', ( #83 ) ) ;
#220 = ORIENTED_EDGE ( 'NONE', *, *, #160, .F. ) ;
#221 =( NAMED_UNIT ( * ) SI_UNIT ( $, .STERADIAN. ) SOLID_ANGLE_UNIT ( ) );
#222 = DIRECTION ( 'NONE',  ( -0.000000000000000000, -1.000000000000000000, -0.000000000000000000 ) ) ;
#223 = ORIENTED_EDGE ( 'NONE', *, *, #323, .T. ) ;
#224 = MECHANICAL_DESIGN_GEOMETRIC_PRESENTATION_REPRESENTATION (  '', ( #294 ), #244 ) ;
#225 =( NAMED_UNIT ( * ) PLANE_ANGLE_UNIT ( ) SI_UNIT ( $, .RADIAN. ) );
#226 = VECTOR ( 'NONE', #307, 1000.000000000000000 ) ;
#227 = DIRECTION ( 'NONE',  ( 0.000000000000000000, 1.000000000000000000, 0.000000000000000000 ) ) ;
#228 = CARTESIAN_POINT ( 'NONE',  ( 9.999999999999996447, 89.00000000000000000, 1.224646799147353059E-15 ) ) ;
#229 = SURFACE_SIDE_STYLE ('',( #111 ) ) ;
#230 = FILL_AREA_STYLE_COLOUR ( '', #328 ) ;
#231 = TOROIDAL_SURFACE ( 'NONE', #182, 9.500000000000000000, 0.5000000000000002220 ) ;
#232 = AXIS2_PLACEMENT_3D ( 'NONE', #253, #227, #270 ) ;
#233 = UNCERTAINTY_MEASURE_WITH_UNIT (LENGTH_MEASURE( 1.000000000000000082E-05 ), #275, 'distance_accuracy_value', 'NONE');
#234 = ADVANCED_FACE ( 'NONE', ( #138 ), #348, .F. ) ;
#235 = DIRECTION ( 'NONE',  ( -1.000000000000000000, 0.000000000000000000, 0.000000000000000000 ) ) ;
#236 = STYLED_ITEM ( 'NONE', ( #320 ), #81 ) ;
#237 = DIRECTION ( 'NONE',  ( 1.000000000000000000, 1.576935716305902603E-16, 0.000000000000000000 ) ) ;
#238 = DIRECTION ( 'NONE',  ( -0.000000000000000000, -1.000000000000000000, -0.000000000000000000 ) ) ;
#239 = PLANE ( 'NONE',  #54 ) ;
#240 = COLOUR_RGB ( '',1.000000000000000000, 0.000000000000000000, 0.000000000000000000 ) ;
#241 = ORIENTED_EDGE ( 'NONE', *, *, #160, .T. ) ;
#242 = SURFACE_STYLE_FILL_AREA ( #13 ) ;
#243 = EDGE_LOOP ( 'NONE', ( #278, #216, #48, #78 ) ) ;
#244 =( GEOMETRIC_REPRESENTATION_CONTEXT ( 3 ) GLOBAL_UNCERTAINTY_ASSIGNED_CONTEXT ( ( #183 ) ) GLOBAL_UNIT_ASSIGNED_CONTEXT ( ( #291, #287, #203 ) ) REPRESENTATION_CONTEXT ( 'NONE', 'WORKASPACE' ) );
#245 = CIRCLE ( 'NONE', #60, 9.999999999999992895 ) ;
#246 = ORIENTED_EDGE ( 'NONE', *, *, #92, .T. ) ;
#247 = DIRECTION ( 'NONE',  ( -0.000000000000000000, -1.000000000000000000, -0.000000000000000000 ) ) ;
#248 = EDGE_LOOP ( 'NONE', ( #135, #16, #191, #10 ) ) ;
#249 = CARTESIAN_POINT ( 'NONE',  ( 7.589415207398531038E-15, 30.00000000000000000, 0.000000000000000000 ) ) ;
#250 = CARTESIAN_POINT ( 'NONE',  ( -10.00000000000000355, 89.00000000000000000, 0.000000000000000000 ) ) ;
#251 =( NAMED_UNIT ( * ) SI_UNIT ( $, .STERADIAN. ) SOLID_ANGLE_UNIT ( ) );
#252 = CARTESIAN_POINT ( 'NONE',  ( 0.000000000000000000, 30.00000000000000000, -10.00000000000000000 ) ) ;
#253 = CARTESIAN_POINT ( 'NONE',  ( 0.000000000000000000, 30.00000000000000000, 0.000000000000000000 ) ) ;
#254 = DIRECTION ( 'NONE',  ( -1.000000000000000000, 0.000000000000000000, 0.000000000000000000 ) ) ;
#255 = CARTESIAN_POINT ( 'NONE',  ( 0.000000000000000000, 0.5000000000000000000, -10.00000000000000000 ) ) ;
#256 =( NAMED_UNIT ( * ) PLANE_ANGLE_UNIT ( ) SI_UNIT ( $, .RADIAN. ) );
#257 = UNCERTAINTY_MEASURE_WITH_UNIT (LENGTH_MEASURE( 1.000000000000000082E-05 ), #136, 'distance_accuracy_value', 'NONE');
#258 = VECTOR ( 'NONE', #20, 1000.000000000000000 ) ;
#259 =( NAMED_UNIT ( * ) SI_UNIT ( $, .STERADIAN. ) SOLID_ANGLE_UNIT ( ) );
#260 = ADVANCED_FACE ( 'NONE', ( #357 ), #239, .T. ) ;
#261 = FILL_AREA_STYLE_COLOUR ( '', #312 ) ;
#262 = FACE_OUTER_BOUND ( 'NONE', #243, .T. ) ;
#263 = ORIENTED_EDGE ( 'NONE', *, *, #27, .T. ) ;
#264 =( GEOMETRIC_REPRESENTATION_CONTEXT ( 3 ) GLOBAL_UNCERTAINTY_ASSIGNED_CONTEXT ( ( #88 ) ) GLOBAL_UNIT_ASSIGNED_CONTEXT ( ( #309, #131, #280 ) ) REPRESENTATION_CONTEXT ( 'NONE', 'WORKASPACE' ) );
#265 = FILL_AREA_STYLE_COLOUR ( '', #147 ) ;
#266 = FILL_AREA_STYLE_COLOUR ( '', #274 ) ;
#267 = CARTESIAN_POINT ( 'NONE',  ( 1.224646799147353256E-15, 0.5000000000000000000, 10.00000000000000000 ) ) ;
#268 = VERTEX_POINT ( 'NONE', #252 ) ;
#269 = DIRECTION ( 'NONE',  ( -1.000000000000000000, 0.000000000000000000, 0.000000000000000000 ) ) ;
#270 = DIRECTION ( 'NONE',  ( 0.000000000000000000, -0.000000000000000000, 1.000000000000000000 ) ) ;
#271 = DIRECTION ( 'NONE',  ( -0.000000000000000000, -1.000000000000000000, -0.000000000000000000 ) ) ;
#272 =( NAMED_UNIT ( * ) SI_UNIT ( $, .STERADIAN. ) SOLID_ANGLE_UNIT ( ) );
#273 = PRESENTATION_STYLE_ASSIGNMENT (( #199 ) ) ;
#274 = COLOUR_RGB ( '',1.000000000000000000, 0.000000000000000000, 0.000000000000000000 ) ;
#275 =( LENGTH_UNIT ( ) NAMED_UNIT ( * ) SI_UNIT ( .MILLI., .METRE. ) );
#276 = PRESENTATION_LAYER_ASSIGNMENT (  '', '', ( #236 ) ) ;
#277 = LINE ( 'NONE', #167, #258 ) ;
#278 = ORIENTED_EDGE ( 'NONE', *, *, #142, .T. ) ;
#279 = PLANE ( 'NONE',  #150 ) ;
#280 =( NAMED_UNIT ( * ) SI_UNIT ( $, .STERADIAN. ) SOLID_ANGLE_UNIT ( ) );
#281 = SURFACE_SIDE_STYLE ('',( #56 ) ) ;
#282 = SURFACE_STYLE_FILL_AREA ( #2 ) ;
#283 = CIRCLE ( 'NONE', #134, 9.500000000000000000 ) ;
#284 = ADVANCED_BREP_SHAPE_REPRESENTATION ( '59474', ( #58, #61, #178 ), #355 ) ;
#285 = AXIS2_PLACEMENT_3D ( 'NONE', #37, #153, #156 ) ;
#286 = DIRECTION ( 'NONE',  ( -1.576935716305902603E-16, 1.000000000000000000, -0.000000000000000000 ) ) ;
#287 =( NAMED_UNIT ( * ) PLANE_ANGLE_UNIT ( ) SI_UNIT ( $, .RADIAN. ) );
#288 = DIRECTION ( 'NONE',  ( -1.576935716305902603E-16, 1.000000000000000000, -0.000000000000000000 ) ) ;
#289 = DIRECTION ( 'NONE',  ( 0.000000000000000000, 0.000000000000000000, -1.000000000000000000 ) ) ;
#290 = PRESENTATION_LAYER_ASSIGNMENT (  '', '', ( #294 ) ) ;
#291 =( LENGTH_UNIT ( ) NAMED_UNIT ( * ) SI_UNIT ( .MILLI., .METRE. ) );
#292 = CIRCLE ( 'NONE', #126, 10.00000000000000000 ) ;
#293 = PRODUCT_DEFINITION_FORMATION_WITH_SPECIFIED_SOURCE ( 'ANY', '', #300, .NOT_KNOWN. ) ;
#294 = STYLED_ITEM ( 'NONE', ( #352 ), #58 ) ;
#295 = FACE_OUTER_BOUND ( 'NONE', #44, .T. ) ;
#296 = AXIS2_PLACEMENT_3D ( 'NONE', #110, #196, #269 ) ;
#297 = CARTESIAN_POINT ( 'NONE',  ( 1.224646799147353256E-15, 0.000000000000000000, 10.00000000000000000 ) ) ;
#298 = APPLICATION_CONTEXT ( 'automotive_design' ) ;
#299 = SURFACE_STYLE_FILL_AREA ( #210 ) ;
#300 = PRODUCT ( '59474', '59474', '', ( #116 ) ) ;
#301 = EDGE_LOOP ( 'NONE', ( #367, #220 ) ) ;
#302 = EDGE_LOOP ( 'NONE', ( #246, #158 ) ) ;
#303 = STYLED_ITEM ( 'NONE', ( #358 ), #140 ) ;
#304 = CIRCLE ( 'NONE', #33, 10.00000000000000000 ) ;
#305 = DIRECTION ( 'NONE',  ( -1.576935716305902603E-16, 1.000000000000000000, -0.000000000000000000 ) ) ;
#306 = VERTEX_POINT ( 'NONE', #165 ) ;
#307 = DIRECTION ( 'NONE',  ( -0.000000000000000000, -1.000000000000000000, -0.000000000000000000 ) ) ;
#308 = ORIENTED_EDGE ( 'NONE', *, *, #200, .T. ) ;
#309 =( LENGTH_UNIT ( ) NAMED_UNIT ( * ) SI_UNIT ( .MILLI., .METRE. ) );
#310 = ORIENTED_EDGE ( 'NONE', *, *, #207, .F. ) ;
#311 = CARTESIAN_POINT ( 'NONE',  ( 7.589415207398531038E-15, 30.00000000000000000, 0.000000000000000000 ) ) ;
#312 = COLOUR_RGB ( '',1.000000000000000000, 0.000000000000000000, 0.000000000000000000 ) ;
#313 = FACE_OUTER_BOUND ( 'NONE', #301, .T. ) ;
#314 = DIRECTION ( 'NONE',  ( -1.000000000000000000, -1.576935716305902603E-16, 0.000000000000000000 ) ) ;
#315 =( NAMED_UNIT ( * ) PLANE_ANGLE_UNIT ( ) SI_UNIT ( $, .RADIAN. ) );
#316 =( NAMED_UNIT ( * ) SI_UNIT ( $, .STERADIAN. ) SOLID_ANGLE_UNIT ( ) );
#317 = AXIS2_PLACEMENT_3D ( 'NONE', #104, #335, #79 ) ;
#318 =( LENGTH_UNIT ( ) NAMED_UNIT ( * ) SI_UNIT ( .MILLI., .METRE. ) );
#319 = AXIS2_PLACEMENT_3D ( 'NONE', #311, #305, #163 ) ;
#320 = PRESENTATION_STYLE_ASSIGNMENT (( #321 ) ) ;
#321 = SURFACE_STYLE_USAGE ( .BOTH. , #177 ) ;
#322 = APPLICATION_PROTOCOL_DEFINITION ( 'draft international standard', 'automotive_design', 1998, #342 ) ;
#323 = EDGE_CURVE ( 'NONE', #15, #70, #346, .T. ) ;
#324 = UNCERTAINTY_MEASURE_WITH_UNIT (LENGTH_MEASURE( 1.000000000000000082E-05 ), #168, 'distance_accuracy_value', 'NONE');
#325 = EDGE_CURVE ( 'NONE', #192, #77, #304, .T. ) ;
#326 = CARTESIAN_POINT ( 'NONE',  ( 0.000000000000000000, 0.000000000000000000, 0.000000000000000000 ) ) ;
#327 = CYLINDRICAL_SURFACE ( 'NONE', #285, 10.00000000000000000 ) ;
#328 = COLOUR_RGB ( '',0.7921568627450980005, 0.8196078431372548767, 0.9333333333333333481 ) ;
#329 = DIRECTION ( 'NONE',  ( -1.576935716305902603E-16, 1.000000000000000000, -0.000000000000000000 ) ) ;
#330 = FILL_AREA_STYLE_COLOUR ( '', #11 ) ;
#331 = DIRECTION ( 'NONE',  ( 0.000000000000000000, 0.000000000000000000, -1.000000000000000000 ) ) ;
#332 = PRESENTATION_STYLE_ASSIGNMENT (( #209 ) ) ;
#333 = VERTEX_POINT ( 'NONE', #143 ) ;
#334 = ADVANCED_FACE ( 'NONE', ( #139 ), #279, .F. ) ;
#335 = DIRECTION ( 'NONE',  ( 1.000000000000000000, 0.000000000000000000, -1.224646799147353207E-16 ) ) ;
#336 = ORIENTED_EDGE ( 'NONE', *, *, #148, .F. ) ;
#337 = ORIENTED_EDGE ( 'NONE', *, *, #119, .F. ) ;
#338 = CIRCLE ( 'NONE', #296, 10.00000000000000178 ) ;
#339 = ORIENTED_EDGE ( 'NONE', *, *, #31, .F. ) ;
#340 = DIRECTION ( 'NONE',  ( -1.000000000000000000, 0.000000000000000000, 0.000000000000000000 ) ) ;
#341 = SURFACE_SIDE_STYLE ('',( #242 ) ) ;
#342 = APPLICATION_CONTEXT ( 'automotive_design' ) ;
#343 = EDGE_CURVE ( 'NONE', #70, #15, #338, .T. ) ;
#344 = DIRECTION ( 'NONE',  ( 1.576935716305902603E-16, -1.000000000000000000, 0.000000000000000000 ) ) ;
#345 =( GEOMETRIC_REPRESENTATION_CONTEXT ( 3 ) GLOBAL_UNCERTAINTY_ASSIGNED_CONTEXT ( ( #34 ) ) GLOBAL_UNIT_ASSIGNED_CONTEXT ( ( #76, #225, #251 ) ) REPRESENTATION_CONTEXT ( 'NONE', 'WORKASPACE' ) );
#346 = CIRCLE ( 'NONE', #198, 10.00000000000000178 ) ;
#347 = ADVANCED_FACE ( 'NONE', ( #313 ), #53, .T. ) ;
#348 = PLANE ( 'NONE',  #97 ) ;
#349 = DIRECTION ( 'NONE',  ( 0.000000000000000000, 0.000000000000000000, -1.000000000000000000 ) ) ;
#350 = VECTOR ( 'NONE', #286, 1000.000000000000000 ) ;
#351 = AXIS2_PLACEMENT_3D ( 'NONE', #175, #222, #215 ) ;
#352 = PRESENTATION_STYLE_ASSIGNMENT (( #201 ) ) ;
#353 = UNCERTAINTY_MEASURE_WITH_UNIT (LENGTH_MEASURE( 1.000000000000000082E-05 ), #318, 'distance_accuracy_value', 'NONE');
#354 = FACE_OUTER_BOUND ( 'NONE', #127, .T. ) ;
#355 =( GEOMETRIC_REPRESENTATION_CONTEXT ( 3 ) GLOBAL_UNCERTAINTY_ASSIGNED_CONTEXT ( ( #233 ) ) GLOBAL_UNIT_ASSIGNED_CONTEXT ( ( #275, #315, #221 ) ) REPRESENTATION_CONTEXT ( 'NONE', 'WORKASPACE' ) );
#356 = CARTESIAN_POINT ( 'NONE',  ( -1.714505518806293849E-15, 89.00000000000000000, 0.000000000000000000 ) ) ;
#357 = FACE_OUTER_BOUND ( 'NONE', #302, .T. ) ;
#358 = PRESENTATION_STYLE_ASSIGNMENT (( #41 ) ) ;
#359 = FILL_AREA_STYLE ('',( #186 ) ) ;
#360 = STYLED_ITEM ( 'NONE', ( #273 ), #260 ) ;
#361 = CARTESIAN_POINT ( 'NONE',  ( 0.000000000000000000, 0.5000000000000000000, 0.000000000000000000 ) ) ;
#362 = SURFACE_STYLE_USAGE ( .BOTH. , #341 ) ;
#363 = PRODUCT_DEFINITION ( 'UNKNOWN', '', #293, #117 ) ;
#364 = ORIENTED_EDGE ( 'NONE', *, *, #188, .T. ) ;
#365 = CARTESIAN_POINT ( 'NONE',  ( 0.000000000000000000, 0.000000000000000000, -10.00000000000000000 ) ) ;
#366 = PRESENTATION_STYLE_ASSIGNMENT (( #47 ) ) ;
#367 = ORIENTED_EDGE ( 'NONE', *, *, #68, .F. ) ;
#368 = DIRECTION ( 'NONE',  ( 0.000000000000000000, 0.000000000000000000, -1.000000000000000000 ) ) ;
#369 = CLOSED_SHELL ( 'NONE', ( #90, #334, #71, #234 ) ) ;
#370 = LINE ( 'NONE', #228, #350 ) ;
ENDSEC;
END-ISO-10303-21;
