ISO-10303-21;
HEADER;
FILE_DESCRIPTION (( 'STEP AP214' ),
    '1' );
FILE_NAME ('Micro_AEMM-060-2.STEP',
    '2022-03-15T14:27:21',
    ( '' ),
    ( '' ),
    'SwSTEP 2.0',
    'SolidWorks 2022',
    '' );
FILE_SCHEMA (( 'AUTOMOTIVE_DESIGN' ));
ENDSEC;

DATA;
#1 = DIRECTION ( 'NONE',  ( -1.224646799147353207E-16, -0.000000000000000000, -1.000000000000000000 ) ) ;
#2 = VERTEX_POINT ( 'NONE', #277 ) ;
#3 = CIRCLE ( 'NONE', #164, 0.1179918899999999882 ) ;
#4 = DIRECTION ( 'NONE',  ( -1.000000000000000000, 0.000000000000000000, 1.224646799147353454E-16 ) ) ;
#5 = ORIENTED_EDGE ( 'NONE', *, *, #48, .F. ) ;
#6 = PRODUCT_DEFINITION ( 'UNKNOWN', '', #272, #45 ) ;
#7 = ORIENTED_EDGE ( 'NONE', *, *, #202, .T. ) ;
#8 = ORIENTED_EDGE ( 'NONE', *, *, #70, .F. ) ;
#9 = CARTESIAN_POINT ( 'NONE',  ( 0.000000000000000000, 0.000000000000000000, 2.244094000000000033 ) ) ;
#10 = ORIENTED_EDGE ( 'NONE', *, *, #104, .F. ) ;
#11 = VECTOR ( 'NONE', #37, 39.37007874015748854 ) ;
#12 = CARTESIAN_POINT ( 'NONE',  ( 0.000000000000000000, 0.000000000000000000, 2.244094000000000033 ) ) ;
#13 = CARTESIAN_POINT ( 'NONE',  ( -0.1181100000000000066, 0.000000000000000000, 2.244094000000000033 ) ) ;
#14 = EDGE_CURVE ( 'NONE', #71, #195, #183, .T. ) ;
#15 = FILL_AREA_STYLE ('',( #151 ) ) ;
#16 =( GEOMETRIC_REPRESENTATION_CONTEXT ( 3 ) GLOBAL_UNCERTAINTY_ASSIGNED_CONTEXT ( ( #249 ) ) GLOBAL_UNIT_ASSIGNED_CONTEXT ( ( #76, #208, #166 ) ) REPRESENTATION_CONTEXT ( 'NONE', 'WORKASPACE' ) );
#17 = CARTESIAN_POINT ( 'NONE',  ( 0.000000000000000000, 0.000000000000000000, 2.229093999999999465 ) ) ;
#18 =( NAMED_UNIT ( * ) PLANE_ANGLE_UNIT ( ) SI_UNIT ( $, .RADIAN. ) );
#19 = AXIS2_PLACEMENT_3D ( 'NONE', #23, #1, #4 ) ;
#20 = MECHANICAL_DESIGN_GEOMETRIC_PRESENTATION_REPRESENTATION (  '', ( #132 ), #27 ) ;
#21 = LENGTH_MEASURE_WITH_UNIT ( LENGTH_MEASURE( 0.02539999999999999897 ), #89 );
#22 = FACE_OUTER_BOUND ( 'NONE', #99, .T. ) ;
#23 = CARTESIAN_POINT ( 'NONE',  ( 1.769594913022618037E-33, 0.000000000000000000, 1.444983904138465938E-17 ) ) ;
#24 = CARTESIAN_POINT ( 'NONE',  ( 0.000000000000000000, 0.000000000000000000, 0.000000000000000000 ) ) ;
#25 = CARTESIAN_POINT ( 'NONE',  ( 0.1179918900000000853, 0.000000000000000000, 0.6299209999999999532 ) ) ;
#26 = ORIENTED_EDGE ( 'NONE', *, *, #70, .T. ) ;
#27 =( GEOMETRIC_REPRESENTATION_CONTEXT ( 3 ) GLOBAL_UNCERTAINTY_ASSIGNED_CONTEXT ( ( #72 ) ) GLOBAL_UNIT_ASSIGNED_CONTEXT ( ( #225, #186, #69 ) ) REPRESENTATION_CONTEXT ( 'NONE', 'WORKASPACE' ) );
#28 = DIRECTION ( 'NONE',  ( -1.224646799147353207E-16, -0.000000000000000000, -1.000000000000000000 ) ) ;
#29 = EDGE_LOOP ( 'NONE', ( #177, #75, #119, #212 ) ) ;
#30 = ORIENTED_EDGE ( 'NONE', *, *, #243, .F. ) ;
#31 = ORIENTED_EDGE ( 'NONE', *, *, #138, .T. ) ;
#32 = ADVANCED_FACE ( 'NONE', ( #95 ), #161, .T. ) ;
#33 = DIRECTION ( 'NONE',  ( -1.000000000000000000, 0.000000000000000000, 0.000000000000000000 ) ) ;
#34 = ORIENTED_EDGE ( 'NONE', *, *, #165, .F. ) ;
#35 = DIRECTION ( 'NONE',  ( 1.000000000000000000, 0.000000000000000000, 0.000000000000000000 ) ) ;
#36 = AXIS2_PLACEMENT_3D ( 'NONE', #198, #148, #35 ) ;
#37 = DIRECTION ( 'NONE',  ( 0.7071067811865358044, 8.659560562354788645E-17, -0.7071067811865590080 ) ) ;
#38 = DIRECTION ( 'NONE',  ( -1.224646799147353207E-16, -0.000000000000000000, -1.000000000000000000 ) ) ;
#39 = EDGE_CURVE ( 'NONE', #57, #123, #289, .T. ) ;
#40 = DIRECTION ( 'NONE',  ( 1.000000000000000000, 0.000000000000000000, -0.000000000000000000 ) ) ;
#41 =( GEOMETRIC_REPRESENTATION_CONTEXT ( 3 ) GLOBAL_UNCERTAINTY_ASSIGNED_CONTEXT ( ( #139 ) ) GLOBAL_UNIT_ASSIGNED_CONTEXT ( ( #221, #18, #108 ) ) REPRESENTATION_CONTEXT ( 'NONE', 'WORKASPACE' ) );
#42 = DIMENSIONAL_EXPONENTS ( 1.000000000000000000, 0.000000000000000000, 0.000000000000000000, 0.000000000000000000, 0.000000000000000000, 0.000000000000000000, 0.000000000000000000 ) ;
#43 = APPLICATION_CONTEXT ( 'automotive_design' ) ;
#44 = DIRECTION ( 'NONE',  ( -1.000000000000000000, 0.000000000000000000, 0.000000000000000000 ) ) ;
#45 = PRODUCT_DEFINITION_CONTEXT ( 'detailed design', #43, 'design' ) ;
#46 = LENGTH_MEASURE_WITH_UNIT ( LENGTH_MEASURE( 0.02539999999999999897 ), #205 );
#47 = DIRECTION ( 'NONE',  ( 1.000000000000000000, 0.000000000000000000, -0.000000000000000000 ) ) ;
#48 = EDGE_CURVE ( 'NONE', #78, #124, #55, .T. ) ;
#49 = CARTESIAN_POINT ( 'NONE',  ( -0.1031100000000002570, 0.000000000000000000, 2.244094000000000033 ) ) ;
#50 = ORIENTED_EDGE ( 'NONE', *, *, #104, .T. ) ;
#51 = DIRECTION ( 'NONE',  ( 0.000000000000000000, 0.000000000000000000, 1.000000000000000000 ) ) ;
#52 = LINE ( 'NONE', #49, #233 ) ;
#53 = DIRECTION ( 'NONE',  ( -1.224646799147353207E-16, -0.000000000000000000, -1.000000000000000000 ) ) ;
#54 = ORIENTED_EDGE ( 'NONE', *, *, #202, .F. ) ;
#55 = CIRCLE ( 'NONE', #157, 0.1179918899999999882 ) ;
#56 = CARTESIAN_POINT ( 'NONE',  ( 0.1179918899999999882, 1.444983904138465938E-17, -1.444983904138465938E-17 ) ) ;
#57 = VERTEX_POINT ( 'NONE', #194 ) ;
#58 = EDGE_CURVE ( 'NONE', #2, #57, #52, .T. ) ;
#59 = CARTESIAN_POINT ( 'NONE',  ( 0.1181100000000000066, 1.446430334472939084E-17, 2.229093999999999465 ) ) ;
#60 = ORIENTED_EDGE ( 'NONE', *, *, #211, .F. ) ;
#61 = ADVANCED_FACE ( 'NONE', ( #140 ), #256, .T. ) ;
#62 = DIRECTION ( 'NONE',  ( -1.000000000000000000, 0.000000000000000000, 1.224646799147353454E-16 ) ) ;
#63 = AXIS2_PLACEMENT_3D ( 'NONE', #154, #248, #44 ) ;
#64 = DIRECTION ( 'NONE',  ( 1.224646799147353207E-16, 0.000000000000000000, 1.000000000000000000 ) ) ;
#65 = DIRECTION ( 'NONE',  ( -1.224646799147353207E-16, -0.000000000000000000, -1.000000000000000000 ) ) ;
#66 = SURFACE_STYLE_USAGE ( .BOTH. , #269 ) ;
#67 = CYLINDRICAL_SURFACE ( 'NONE', #210, 0.1181100000000000066 ) ;
#68 = CONICAL_SURFACE ( 'NONE', #90, 0.1179918899999999882, 0.1745329251994339192 ) ;
#69 =( NAMED_UNIT ( * ) SI_UNIT ( $, .STERADIAN. ) SOLID_ANGLE_UNIT ( ) );
#70 = EDGE_CURVE ( 'NONE', #124, #230, #229, .T. ) ;
#71 = VERTEX_POINT ( 'NONE', #79 ) ;
#72 = UNCERTAINTY_MEASURE_WITH_UNIT (LENGTH_MEASURE( 1.000000000000000082E-05 ), #225, 'distance_accuracy_value', 'NONE');
#73 = AXIS2_PLACEMENT_3D ( 'NONE', #9, #241, #86 ) ;
#74 = DIRECTION ( 'NONE',  ( -1.000000000000000000, 0.000000000000000000, 1.224646799147353454E-16 ) ) ;
#75 = ORIENTED_EDGE ( 'NONE', *, *, #153, .T. ) ;
#76 =( CONVERSION_BASED_UNIT ( 'INCH', #257 ) LENGTH_UNIT ( ) NAMED_UNIT ( #42 ) );
#77 = EDGE_LOOP ( 'NONE', ( #147, #31, #60, #30 ) ) ;
#78 = VERTEX_POINT ( 'NONE', #191 ) ;
#79 = CARTESIAN_POINT ( 'NONE',  ( -0.1179918899999999882, 0.000000000000000000, 2.889967808276931875E-17 ) ) ;
#80 = ORIENTED_EDGE ( 'NONE', *, *, #235, .F. ) ;
#81 = LINE ( 'NONE', #13, #179 ) ;
#82 = FACE_OUTER_BOUND ( 'NONE', #239, .T. ) ;
#83 = AXIS2_PLACEMENT_3D ( 'NONE', #188, #28, #74 ) ;
#84 = FACE_OUTER_BOUND ( 'NONE', #29, .T. ) ;
#85 = AXIS2_PLACEMENT_3D ( 'NONE', #220, #286, #33 ) ;
#86 = DIRECTION ( 'NONE',  ( -1.000000000000000000, 0.000000000000000000, 0.000000000000000000 ) ) ;
#87 = EDGE_CURVE ( 'NONE', #124, #195, #260, .T. ) ;
#88 = DIRECTION ( 'NONE',  ( 0.000000000000000000, 0.000000000000000000, 1.000000000000000000 ) ) ;
#89 =( LENGTH_UNIT ( ) NAMED_UNIT ( * ) SI_UNIT ( $, .METRE. ) );
#90 = AXIS2_PLACEMENT_3D ( 'NONE', #125, #64, #213 ) ;
#91 = SURFACE_STYLE_USAGE ( .BOTH. , #297 ) ;
#92 = CARTESIAN_POINT ( 'NONE',  ( 0.000000000000000000, 0.000000000000000000, 2.244094000000000033 ) ) ;
#93 = DIRECTION ( 'NONE',  ( -1.224646799147353207E-16, -0.000000000000000000, -1.000000000000000000 ) ) ;
#94 =( LENGTH_UNIT ( ) NAMED_UNIT ( * ) SI_UNIT ( $, .METRE. ) );
#95 = FACE_OUTER_BOUND ( 'NONE', #121, .T. ) ;
#96 = DIRECTION ( 'NONE',  ( 1.000000000000000000, 0.000000000000000000, 0.000000000000000000 ) ) ;
#97 = EDGE_LOOP ( 'NONE', ( #155, #142 ) ) ;
#98 = VERTEX_POINT ( 'NONE', #143 ) ;
#99 = EDGE_LOOP ( 'NONE', ( #222, #7, #162, #168 ) ) ;
#100 = LINE ( 'NONE', #196, #278 ) ;
#101 = ORIENTED_EDGE ( 'NONE', *, *, #48, .T. ) ;
#102 = CARTESIAN_POINT ( 'NONE',  ( 7.722510477716240475E-17, 0.000000000000000000, 0.6305908350957151187 ) ) ;
#103 = DIRECTION ( 'NONE',  ( -1.224646799147353207E-16, -0.000000000000000000, -1.000000000000000000 ) ) ;
#104 = EDGE_CURVE ( 'NONE', #78, #71, #145, .T. ) ;
#105 = SURFACE_STYLE_FILL_AREA ( #15 ) ;
#106 = STYLED_ITEM ( 'NONE', ( #185 ), #236 ) ;
#107 = CARTESIAN_POINT ( 'NONE',  ( 7.714307363656999460E-17, 0.000000000000000000, 0.6299209999999999532 ) ) ;
#108 =( NAMED_UNIT ( * ) SI_UNIT ( $, .STERADIAN. ) SOLID_ANGLE_UNIT ( ) );
#109 = PRESENTATION_LAYER_ASSIGNMENT (  '', '', ( #132 ) ) ;
#110 = EDGE_CURVE ( 'NONE', #230, #98, #126, .T. ) ;
#111 = CARTESIAN_POINT ( 'NONE',  ( -0.1179918899999999049, 1.444983904138465938E-17, 0.6299209999999999532 ) ) ;
#112 = EDGE_CURVE ( 'NONE', #124, #78, #3, .T. ) ;
#113 = PRESENTATION_STYLE_ASSIGNMENT (( #66 ) ) ;
#114 = FACE_OUTER_BOUND ( 'NONE', #190, .T. ) ;
#115 = ORIENTED_EDGE ( 'NONE', *, *, #87, .T. ) ;
#116 = VECTOR ( 'NONE', #281, 39.37007874015748143 ) ;
#117 = COLOUR_RGB ( '',0.7921568627450980005, 0.8196078431372548767, 0.9333333333333333481 ) ;
#118 = EDGE_LOOP ( 'NONE', ( #214, #34, #192, #54 ) ) ;
#119 = ORIENTED_EDGE ( 'NONE', *, *, #39, .F. ) ;
#120 = APPLICATION_PROTOCOL_DEFINITION ( 'draft international standard', 'automotive_design', 1998, #43 ) ;
#121 = EDGE_LOOP ( 'NONE', ( #101, #115, #172, #10 ) ) ;
#122 = ORIENTED_EDGE ( 'NONE', *, *, #112, .T. ) ;
#123 = VERTEX_POINT ( 'NONE', #59 ) ;
#124 = VERTEX_POINT ( 'NONE', #288 ) ;
#125 = CARTESIAN_POINT ( 'NONE',  ( 7.714307363656999460E-17, 0.000000000000000000, 0.6299209999999999532 ) ) ;
#126 = CIRCLE ( 'NONE', #296, 0.1181100000000000066 ) ;
#127 = CARTESIAN_POINT ( 'NONE',  ( 0.1031100000000002570, 1.262733314600838667E-17, 2.244094000000000033 ) ) ;
#128 = DIRECTION ( 'NONE',  ( 1.000000000000000000, 0.000000000000000000, 0.000000000000000000 ) ) ;
#129 = FACE_OUTER_BOUND ( 'NONE', #175, .T. ) ;
#130 = VECTOR ( 'NONE', #53, 39.37007874015748143 ) ;
#131 = DIRECTION ( 'NONE',  ( 1.000000000000000000, 0.000000000000000000, 0.000000000000000000 ) ) ;
#132 = STYLED_ITEM ( 'NONE', ( #113 ), #254 ) ;
#133 = DIRECTION ( 'NONE',  ( -1.000000000000000000, 0.000000000000000000, 0.000000000000000000 ) ) ;
#134 = DIRECTION ( 'NONE',  ( -0.1736481776669312194, 2.126576849575783625E-17, 0.9848077530122080203 ) ) ;
#135 = AXIS2_PLACEMENT_3D ( 'NONE', #17, #180, #201 ) ;
#136 = DIMENSIONAL_EXPONENTS ( 1.000000000000000000, 0.000000000000000000, 0.000000000000000000, 0.000000000000000000, 0.000000000000000000, 0.000000000000000000, 0.000000000000000000 ) ;
#137 = ADVANCED_FACE ( 'NONE', ( #146 ), #184, .T. ) ;
#138 = EDGE_CURVE ( 'NONE', #123, #230, #100, .T. ) ;
#139 = UNCERTAINTY_MEASURE_WITH_UNIT (LENGTH_MEASURE( 1.000000000000000082E-05 ), #221, 'distance_accuracy_value', 'NONE');
#140 = FACE_OUTER_BOUND ( 'NONE', #280, .T. ) ;
#141 = CARTESIAN_POINT ( 'NONE',  ( 7.714307363656999460E-17, 0.000000000000000000, 0.6299209999999999532 ) ) ;
#142 = ORIENTED_EDGE ( 'NONE', *, *, #235, .T. ) ;
#143 = CARTESIAN_POINT ( 'NONE',  ( -0.1181099999999999234, 0.000000000000000000, 0.6305908350957151187 ) ) ;
#144 = ORIENTED_EDGE ( 'NONE', *, *, #110, .T. ) ;
#145 = LINE ( 'NONE', #231, #282 ) ;
#146 = FACE_OUTER_BOUND ( 'NONE', #118, .T. ) ;
#147 = ORIENTED_EDGE ( 'NONE', *, *, #39, .T. ) ;
#148 = DIRECTION ( 'NONE',  ( 0.000000000000000000, 0.000000000000000000, 1.000000000000000000 ) ) ;
#149 = CIRCLE ( 'NONE', #290, 0.1031100000000002570 ) ;
#150 = DIRECTION ( 'NONE',  ( -0.000000000000000000, -0.000000000000000000, -1.000000000000000000 ) ) ;
#151 = FILL_AREA_STYLE_COLOUR ( '', #117 ) ;
#152 = DIRECTION ( 'NONE',  ( 1.000000000000000000, 0.000000000000000000, 0.000000000000000000 ) ) ;
#153 = EDGE_CURVE ( 'NONE', #228, #123, #182, .T. ) ;
#154 = CARTESIAN_POINT ( 'NONE',  ( 0.000000000000000000, 0.000000000000000000, 2.244094000000000033 ) ) ;
#155 = ORIENTED_EDGE ( 'NONE', *, *, #14, .T. ) ;
#156 = DIRECTION ( 'NONE',  ( -0.000000000000000000, -0.000000000000000000, -1.000000000000000000 ) ) ;
#157 = AXIS2_PLACEMENT_3D ( 'NONE', #209, #93, #258 ) ;
#158 = ADVANCED_FACE ( 'NONE', ( #84 ), #159, .T. ) ;
#159 = CONICAL_SURFACE ( 'NONE', #85, 0.1031100000000002570, 0.7853981633974318477 ) ;
#160 = FACE_OUTER_BOUND ( 'NONE', #77, .T. ) ;
#161 = CYLINDRICAL_SURFACE ( 'NONE', #83, 0.1179918899999999882 ) ;
#162 = ORIENTED_EDGE ( 'NONE', *, *, #243, .T. ) ;
#163 = CIRCLE ( 'NONE', #135, 0.1181100000000000066 ) ;
#164 = AXIS2_PLACEMENT_3D ( 'NONE', #107, #65, #293 ) ;
#165 = EDGE_CURVE ( 'NONE', #2, #228, #299, .T. ) ;
#166 =( NAMED_UNIT ( * ) SI_UNIT ( $, .STERADIAN. ) SOLID_ANGLE_UNIT ( ) );
#167 = CARTESIAN_POINT ( 'NONE',  ( 0.000000000000000000, 0.000000000000000000, 2.229093999999999465 ) ) ;
#168 = ORIENTED_EDGE ( 'NONE', *, *, #110, .F. ) ;
#169 = ORIENTED_EDGE ( 'NONE', *, *, #211, .T. ) ;
#170 = ORIENTED_EDGE ( 'NONE', *, *, #206, .T. ) ;
#171 = DIRECTION ( 'NONE',  ( 1.000000000000000000, 0.000000000000000000, 0.000000000000000000 ) ) ;
#172 = ORIENTED_EDGE ( 'NONE', *, *, #14, .F. ) ;
#173 = AXIS2_PLACEMENT_3D ( 'NONE', #294, #298, #47 ) ;
#174 = DIRECTION ( 'NONE',  ( -0.7071067811865358044, 0.000000000000000000, -0.7071067811865590080 ) ) ;
#175 = EDGE_LOOP ( 'NONE', ( #232, #187, #26, #144 ) ) ;
#176 = CYLINDRICAL_SURFACE ( 'NONE', #63, 0.1181100000000000066 ) ;
#177 = ORIENTED_EDGE ( 'NONE', *, *, #206, .F. ) ;
#178 = DIRECTION ( 'NONE',  ( -0.000000000000000000, -0.000000000000000000, -1.000000000000000000 ) ) ;
#179 = VECTOR ( 'NONE', #150, 39.37007874015748143 ) ;
#180 = DIRECTION ( 'NONE',  ( 0.000000000000000000, 0.000000000000000000, -1.000000000000000000 ) ) ;
#181 = CARTESIAN_POINT ( 'NONE',  ( 0.1181100000000000899, 1.446430334472940009E-17, 0.6305908350957151187 ) ) ;
#182 = LINE ( 'NONE', #127, #11 ) ;
#183 = CIRCLE ( 'NONE', #19, 0.1179918899999999882 ) ;
#184 = CONICAL_SURFACE ( 'NONE', #73, 0.1031100000000002570, 0.7853981633974318477 ) ;
#185 = PRESENTATION_STYLE_ASSIGNMENT (( #91 ) ) ;
#186 =( NAMED_UNIT ( * ) PLANE_ANGLE_UNIT ( ) SI_UNIT ( $, .RADIAN. ) );
#187 = ORIENTED_EDGE ( 'NONE', *, *, #112, .F. ) ;
#188 = CARTESIAN_POINT ( 'NONE',  ( 0.000000000000000000, 0.000000000000000000, 0.000000000000000000 ) ) ;
#189 = ADVANCED_FACE ( 'NONE', ( #200 ), #199, .F. ) ;
#190 = EDGE_LOOP ( 'NONE', ( #262, #170 ) ) ;
#191 = CARTESIAN_POINT ( 'NONE',  ( -0.1179918899999999049, 1.445707119305702357E-17, 0.6299209999999999532 ) ) ;
#192 = ORIENTED_EDGE ( 'NONE', *, *, #58, .T. ) ;
#193 = PRODUCT_RELATED_PRODUCT_CATEGORY ( 'part', '', ( #284 ) ) ;
#194 = CARTESIAN_POINT ( 'NONE',  ( -0.1181100000000000066, 0.000000000000000000, 2.229093999999999465 ) ) ;
#195 = VERTEX_POINT ( 'NONE', #218 ) ;
#196 = CARTESIAN_POINT ( 'NONE',  ( 0.1181100000000000066, 1.446430334472939084E-17, 2.244094000000000033 ) ) ;
#197 = ORIENTED_EDGE ( 'NONE', *, *, #87, .F. ) ;
#198 = CARTESIAN_POINT ( 'NONE',  ( 0.000000000000000000, 0.000000000000000000, 2.244094000000000033 ) ) ;
#199 = PLANE ( 'NONE',  #251 ) ;
#200 = FACE_OUTER_BOUND ( 'NONE', #97, .T. ) ;
#201 = DIRECTION ( 'NONE',  ( 1.000000000000000000, 0.000000000000000000, 0.000000000000000000 ) ) ;
#202 = EDGE_CURVE ( 'NONE', #123, #57, #163, .T. ) ;
#203 = CIRCLE ( 'NONE', #295, 0.1181100000000000066 ) ;
#204 = SURFACE_STYLE_FILL_AREA ( #223 ) ;
#205 =( LENGTH_UNIT ( ) NAMED_UNIT ( * ) SI_UNIT ( $, .METRE. ) );
#206 = EDGE_CURVE ( 'NONE', #228, #2, #149, .T. ) ;
#207 = AXIS2_PLACEMENT_3D ( 'NONE', #24, #51, #261 ) ;
#208 =( NAMED_UNIT ( * ) PLANE_ANGLE_UNIT ( ) SI_UNIT ( $, .RADIAN. ) );
#209 = CARTESIAN_POINT ( 'NONE',  ( 7.714307363656999460E-17, 0.000000000000000000, 0.6299209999999999532 ) ) ;
#210 = AXIS2_PLACEMENT_3D ( 'NONE', #92, #156, #133 ) ;
#211 = EDGE_CURVE ( 'NONE', #98, #230, #203, .T. ) ;
#212 = ORIENTED_EDGE ( 'NONE', *, *, #58, .F. ) ;
#213 = DIRECTION ( 'NONE',  ( 1.000000000000000000, 0.000000000000000000, 0.000000000000000000 ) ) ;
#214 = ORIENTED_EDGE ( 'NONE', *, *, #153, .F. ) ;
#215 = APPLICATION_CONTEXT ( 'automotive_design' ) ;
#216 = AXIS2_PLACEMENT_3D ( 'NONE', #167, #279, #171 ) ;
#217 = PRESENTATION_LAYER_ASSIGNMENT (  '', '', ( #106 ) ) ;
#218 = CARTESIAN_POINT ( 'NONE',  ( 0.1179918899999999882, 1.444983904138465938E-17, 0.000000000000000000 ) ) ;
#219 = CARTESIAN_POINT ( 'NONE',  ( 0.000000000000000000, 0.000000000000000000, 0.000000000000000000 ) ) ;
#220 = CARTESIAN_POINT ( 'NONE',  ( 0.000000000000000000, 0.000000000000000000, 2.244094000000000033 ) ) ;
#221 =( CONVERSION_BASED_UNIT ( 'INCH', #21 ) LENGTH_UNIT ( ) NAMED_UNIT ( #287 ) );
#222 = ORIENTED_EDGE ( 'NONE', *, *, #138, .F. ) ;
#223 = FILL_AREA_STYLE ('',( #250 ) ) ;
#224 = ADVANCED_FACE ( 'NONE', ( #82 ), #266, .T. ) ;
#225 =( CONVERSION_BASED_UNIT ( 'INCH', #46 ) LENGTH_UNIT ( ) NAMED_UNIT ( #136 ) );
#226 = SHAPE_DEFINITION_REPRESENTATION ( #240, #236 ) ;
#227 = DIRECTION ( 'NONE',  ( 1.224646799147353207E-16, 0.000000000000000000, 1.000000000000000000 ) ) ;
#228 = VERTEX_POINT ( 'NONE', #268 ) ;
#229 = LINE ( 'NONE', #25, #116 ) ;
#230 = VERTEX_POINT ( 'NONE', #181 ) ;
#231 = CARTESIAN_POINT ( 'NONE',  ( -0.1179918899999999882, 0.000000000000000000, 1.444983904138465938E-17 ) ) ;
#232 = ORIENTED_EDGE ( 'NONE', *, *, #276, .F. ) ;
#233 = VECTOR ( 'NONE', #174, 39.37007874015748854 ) ;
#234 = VECTOR ( 'NONE', #134, 39.37007874015747433 ) ;
#235 = EDGE_CURVE ( 'NONE', #195, #71, #264, .T. ) ;
#236 = ADVANCED_BREP_SHAPE_REPRESENTATION ( 'Micro_AEMM-060-2', ( #254, #207 ), #41 ) ;
#237 = PRODUCT_CONTEXT ( 'NONE', #215, 'mechanical' ) ;
#238 = CARTESIAN_POINT ( 'NONE',  ( 1.769594913022618037E-33, 0.000000000000000000, 1.444983904138465938E-17 ) ) ;
#239 = EDGE_LOOP ( 'NONE', ( #197, #122, #50, #80 ) ) ;
#240 = PRODUCT_DEFINITION_SHAPE ( 'NONE', 'NONE',  #6 ) ;
#241 = DIRECTION ( 'NONE',  ( 0.000000000000000000, 0.000000000000000000, -1.000000000000000000 ) ) ;
#242 = AXIS2_PLACEMENT_3D ( 'NONE', #219, #38, #291 ) ;
#243 = EDGE_CURVE ( 'NONE', #57, #98, #81, .T. ) ;
#244 = CARTESIAN_POINT ( 'NONE',  ( 0.000000000000000000, 0.000000000000000000, 0.000000000000000000 ) ) ;
#245 = DIRECTION ( 'NONE',  ( -1.224646799147353207E-16, -0.000000000000000000, -1.000000000000000000 ) ) ;
#246 = DIRECTION ( 'NONE',  ( 0.000000000000000000, 0.000000000000000000, 1.000000000000000000 ) ) ;
#247 = ADVANCED_FACE ( 'NONE', ( #129 ), #68, .T. ) ;
#248 = DIRECTION ( 'NONE',  ( -0.000000000000000000, -0.000000000000000000, -1.000000000000000000 ) ) ;
#249 = UNCERTAINTY_MEASURE_WITH_UNIT (LENGTH_MEASURE( 1.000000000000000082E-05 ), #76, 'distance_accuracy_value', 'NONE');
#250 = FILL_AREA_STYLE_COLOUR ( '', #283 ) ;
#251 = AXIS2_PLACEMENT_3D ( 'NONE', #244, #246, #40 ) ;
#252 = LINE ( 'NONE', #111, #234 ) ;
#253 = PLANE ( 'NONE',  #173 ) ;
#254 = MANIFOLD_SOLID_BREP ( 'Cut-Revolve1', #255 ) ;
#255 = CLOSED_SHELL ( 'NONE', ( #32, #61, #158, #270, #292, #273, #137, #247, #224, #189 ) ) ;
#256 = CONICAL_SURFACE ( 'NONE', #263, 0.1179918899999999882, 0.1745329251994339192 ) ;
#257 = LENGTH_MEASURE_WITH_UNIT ( LENGTH_MEASURE( 0.02539999999999999897 ), #94 );
#258 = DIRECTION ( 'NONE',  ( -1.000000000000000000, 0.000000000000000000, 0.000000000000000000 ) ) ;
#259 = ORIENTED_EDGE ( 'NONE', *, *, #276, .T. ) ;
#260 = LINE ( 'NONE', #56, #130 ) ;
#261 = DIRECTION ( 'NONE',  ( 1.000000000000000000, 0.000000000000000000, 0.000000000000000000 ) ) ;
#262 = ORIENTED_EDGE ( 'NONE', *, *, #165, .T. ) ;
#263 = AXIS2_PLACEMENT_3D ( 'NONE', #141, #227, #96 ) ;
#264 = CIRCLE ( 'NONE', #267, 0.1179918899999999882 ) ;
#265 = CARTESIAN_POINT ( 'NONE',  ( 7.722510477716240475E-17, 0.000000000000000000, 0.6305908350957151187 ) ) ;
#266 = CYLINDRICAL_SURFACE ( 'NONE', #242, 0.1179918899999999882 ) ;
#267 = AXIS2_PLACEMENT_3D ( 'NONE', #238, #285, #62 ) ;
#268 = CARTESIAN_POINT ( 'NONE',  ( 0.1031100000000002570, 1.354581824536888722E-17, 2.244094000000000033 ) ) ;
#269 = SURFACE_SIDE_STYLE ('',( #105 ) ) ;
#270 = ADVANCED_FACE ( 'NONE', ( #160 ), #176, .T. ) ;
#271 = DIRECTION ( 'NONE',  ( -1.224646799147353207E-16, -0.000000000000000000, -1.000000000000000000 ) ) ;
#272 = PRODUCT_DEFINITION_FORMATION_WITH_SPECIFIED_SOURCE ( 'ANY', '', #284, .NOT_KNOWN. ) ;
#273 = ADVANCED_FACE ( 'NONE', ( #114 ), #253, .T. ) ;
#274 = APPLICATION_PROTOCOL_DEFINITION ( 'draft international standard', 'automotive_design', 1998, #215 ) ;
#275 = MECHANICAL_DESIGN_GEOMETRIC_PRESENTATION_REPRESENTATION (  '', ( #106 ), #16 ) ;
#276 = EDGE_CURVE ( 'NONE', #78, #98, #252, .T. ) ;
#277 = CARTESIAN_POINT ( 'NONE',  ( -0.1031100000000002570, 0.000000000000000000, 2.244094000000000033 ) ) ;
#278 = VECTOR ( 'NONE', #178, 39.37007874015748143 ) ;
#279 = DIRECTION ( 'NONE',  ( 0.000000000000000000, 0.000000000000000000, -1.000000000000000000 ) ) ;
#280 = EDGE_LOOP ( 'NONE', ( #5, #259, #169, #8 ) ) ;
#281 = DIRECTION ( 'NONE',  ( 0.1736481776669314137, 0.000000000000000000, 0.9848077530122077983 ) ) ;
#282 = VECTOR ( 'NONE', #103, 39.37007874015748143 ) ;
#283 = COLOUR_RGB ( '',0.7921568627450980005, 0.8196078431372548767, 0.9333333333333333481 ) ;
#284 = PRODUCT ( 'Micro_AEMM-060-2', 'Micro_AEMM-060-2', '', ( #237 ) ) ;
#285 = DIRECTION ( 'NONE',  ( -1.224646799147353207E-16, -0.000000000000000000, -1.000000000000000000 ) ) ;
#286 = DIRECTION ( 'NONE',  ( 0.000000000000000000, 0.000000000000000000, -1.000000000000000000 ) ) ;
#287 = DIMENSIONAL_EXPONENTS ( 1.000000000000000000, 0.000000000000000000, 0.000000000000000000, 0.000000000000000000, 0.000000000000000000, 0.000000000000000000, 0.000000000000000000 ) ;
#288 = CARTESIAN_POINT ( 'NONE',  ( 0.1179918900000000853, 0.000000000000000000, 0.6299209999999999532 ) ) ;
#289 = CIRCLE ( 'NONE', #216, 0.1181100000000000066 ) ;
#290 = AXIS2_PLACEMENT_3D ( 'NONE', #12, #88, #131 ) ;
#291 = DIRECTION ( 'NONE',  ( -1.000000000000000000, 0.000000000000000000, 1.224646799147353454E-16 ) ) ;
#292 = ADVANCED_FACE ( 'NONE', ( #22 ), #67, .T. ) ;
#293 = DIRECTION ( 'NONE',  ( -1.000000000000000000, 0.000000000000000000, 0.000000000000000000 ) ) ;
#294 = CARTESIAN_POINT ( 'NONE',  ( 0.000000000000000000, 0.000000000000000000, 2.244094000000000033 ) ) ;
#295 = AXIS2_PLACEMENT_3D ( 'NONE', #102, #271, #128 ) ;
#296 = AXIS2_PLACEMENT_3D ( 'NONE', #265, #245, #152 ) ;
#297 = SURFACE_SIDE_STYLE ('',( #204 ) ) ;
#298 = DIRECTION ( 'NONE',  ( 0.000000000000000000, 0.000000000000000000, 1.000000000000000000 ) ) ;
#299 = CIRCLE ( 'NONE', #36, 0.1031100000000002570 ) ;
ENDSEC;
END-ISO-10303-21;
