ISO-10303-21;
HEADER;
FILE_DESCRIPTION (( 'STEP AP214' ),
    '1' );
FILE_NAME ('49421.STEP',
    '2023-06-30T22:03:17',
    ( '' ),
    ( '' ),
    'SwSTEP 2.0',
    'SolidWorks 2023',
    '' );
FILE_SCHEMA (( 'AUTOMOTIVE_DESIGN' ));
ENDSEC;

DATA;
#1 = DIRECTION ( 'NONE',  ( -0.000000000000000000, -1.000000000000000000, -0.000000000000000000 ) ) ;
#2 = ORIENTED_EDGE ( 'NONE', *, *, #265, .F. ) ;
#3 = VECTOR ( 'NONE', #110, 39.37007874015748143 ) ;
#4 = PRODUCT_DEFINITION_FORMATION_WITH_SPECIFIED_SOURCE ( 'ANY', '', #221, .NOT_KNOWN. ) ;
#5 = PRESENTATION_STYLE_ASSIGNMENT (( #66 ) ) ;
#6 = APPLICATION_CONTEXT ( 'automotive_design' ) ;
#7 = LENGTH_MEASURE_WITH_UNIT ( LENGTH_MEASURE( 0.02539999999999999897 ), #118 );
#8 = PRESENTATION_STYLE_ASSIGNMENT (( #68 ) ) ;
#9 = DIRECTION ( 'NONE',  ( 0.000000000000000000, 0.000000000000000000, -1.000000000000000000 ) ) ;
#10 =( GEOMETRIC_REPRESENTATION_CONTEXT ( 3 ) GLOBAL_UNCERTAINTY_ASSIGNED_CONTEXT ( ( #238 ) ) GLOBAL_UNIT_ASSIGNED_CONTEXT ( ( #120, #36, #319 ) ) REPRESENTATION_CONTEXT ( 'NONE', 'WORKASPACE' ) );
#11 = COLOUR_RGB ( '',1.000000000000000000, 0.000000000000000000, 0.000000000000000000 ) ;
#12 = ORIENTED_EDGE ( 'NONE', *, *, #20, .F. ) ;
#13 =( NAMED_UNIT ( * ) PLANE_ANGLE_UNIT ( ) SI_UNIT ( $, .RADIAN. ) );
#14 = VERTEX_POINT ( 'NONE', #140 ) ;
#15 = PRODUCT_CONTEXT ( 'NONE', #204, 'mechanical' ) ;
#16 = SURFACE_SIDE_STYLE ('',( #210 ) ) ;
#17 = VERTEX_POINT ( 'NONE', #257 ) ;
#18 = DIRECTION ( 'NONE',  ( -1.000000000000000000, 0.000000000000000000, 0.000000000000000000 ) ) ;
#19 = ORIENTED_EDGE ( 'NONE', *, *, #197, .F. ) ;
#20 = EDGE_CURVE ( 'NONE', #295, #360, #100, .T. ) ;
#21 = PRESENTATION_STYLE_ASSIGNMENT (( #99 ) ) ;
#22 = ORIENTED_EDGE ( 'NONE', *, *, #20, .T. ) ;
#23 = CARTESIAN_POINT ( 'NONE',  ( -1.224646799147353207E-16, 5.000000000000000000, 0.000000000000000000 ) ) ;
#24 = DIRECTION ( 'NONE',  ( 0.000000000000000000, 0.000000000000000000, -1.000000000000000000 ) ) ;
#25 = DIMENSIONAL_EXPONENTS ( 1.000000000000000000, 0.000000000000000000, 0.000000000000000000, 0.000000000000000000, 0.000000000000000000, 0.000000000000000000, 0.000000000000000000 ) ;
#26 = STYLED_ITEM ( 'NONE', ( #21 ), #103 ) ;
#27 = AXIS2_PLACEMENT_3D ( 'NONE', #45, #49, #124 ) ;
#28 = AXIS2_PLACEMENT_3D ( 'NONE', #47, #240, #152 ) ;
#29 = LENGTH_MEASURE_WITH_UNIT ( LENGTH_MEASURE( 0.02539999999999999897 ), #276 );
#30 = CARTESIAN_POINT ( 'NONE',  ( -1.224646799147353207E-16, 5.000000000000000000, 0.000000000000000000 ) ) ;
#31 = CARTESIAN_POINT ( 'NONE',  ( 0.3749999999999997780, 2.250000000000000444, 4.592425496802571754E-17 ) ) ;
#32 = AXIS2_PLACEMENT_3D ( 'NONE', #65, #149, #199 ) ;
#33 = FILL_AREA_STYLE_COLOUR ( '', #175 ) ;
#34 = DIRECTION ( 'NONE',  ( -0.000000000000000000, -1.000000000000000000, -0.000000000000000000 ) ) ;
#35 = FACE_OUTER_BOUND ( 'NONE', #164, .T. ) ;
#36 =( NAMED_UNIT ( * ) PLANE_ANGLE_UNIT ( ) SI_UNIT ( $, .RADIAN. ) );
#37 = AXIS2_PLACEMENT_3D ( 'NONE', #218, #109, #194 ) ;
#38 = PRESENTATION_LAYER_ASSIGNMENT (  '', '', ( #243 ) ) ;
#39 =( CONVERSION_BASED_UNIT ( 'INCH', #291 ) LENGTH_UNIT ( ) NAMED_UNIT ( #334 ) );
#40 = CARTESIAN_POINT ( 'NONE',  ( -4.592425496802575451E-17, 0.3750000000000000555, 0.000000000000000000 ) ) ;
#41 = UNCERTAINTY_MEASURE_WITH_UNIT (LENGTH_MEASURE( 1.000000000000000082E-05 ), #39, 'distance_accuracy_value', 'NONE');
#42 = PRESENTATION_LAYER_ASSIGNMENT (  '', '', ( #231 ) ) ;
#43 = VECTOR ( 'NONE', #141, 39.37007874015748143 ) ;
#44 = EDGE_LOOP ( 'NONE', ( #55, #162 ) ) ;
#45 = CARTESIAN_POINT ( 'NONE',  ( 0.000000000000000000, 0.000000000000000000, 0.000000000000000000 ) ) ;
#46 = ORIENTED_EDGE ( 'NONE', *, *, #132, .F. ) ;
#47 = CARTESIAN_POINT ( 'NONE',  ( 0.000000000000000000, 0.000000000000000000, 0.000000000000000000 ) ) ;
#48 = ADVANCED_FACE ( 'NONE', ( #253 ), #292, .T. ) ;
#49 = DIRECTION ( 'NONE',  ( -0.000000000000000000, -1.000000000000000000, -0.000000000000000000 ) ) ;
#50 =( NAMED_UNIT ( * ) SI_UNIT ( $, .STERADIAN. ) SOLID_ANGLE_UNIT ( ) );
#51 = MECHANICAL_DESIGN_GEOMETRIC_PRESENTATION_REPRESENTATION (  '', ( #263 ), #327 ) ;
#52 = ORIENTED_EDGE ( 'NONE', *, *, #347, .T. ) ;
#53 = DIRECTION ( 'NONE',  ( -1.224646799147353207E-16, 1.000000000000000000, 0.000000000000000000 ) ) ;
#54 = DIMENSIONAL_EXPONENTS ( 1.000000000000000000, 0.000000000000000000, 0.000000000000000000, 0.000000000000000000, 0.000000000000000000, 0.000000000000000000, 0.000000000000000000 ) ;
#55 = ORIENTED_EDGE ( 'NONE', *, *, #247, .F. ) ;
#56 =( CONVERSION_BASED_UNIT ( 'INCH', #29 ) LENGTH_UNIT ( ) NAMED_UNIT ( #187 ) );
#57 = CARTESIAN_POINT ( 'NONE',  ( -0.3749999999999999445, 0.3750000000000001110, 4.592425496802572986E-17 ) ) ;
#58 =( LENGTH_UNIT ( ) NAMED_UNIT ( * ) SI_UNIT ( $, .METRE. ) );
#59 = AXIS2_PLACEMENT_3D ( 'NONE', #40, #262, #172 ) ;
#60 = CARTESIAN_POINT ( 'NONE',  ( 4.592425496802572370E-17, 0.000000000000000000, 0.3749999999999998335 ) ) ;
#61 = FILL_AREA_STYLE ('',( #311 ) ) ;
#62 = MECHANICAL_DESIGN_GEOMETRIC_PRESENTATION_REPRESENTATION (  '', ( #26 ), #63 ) ;
#63 =( GEOMETRIC_REPRESENTATION_CONTEXT ( 3 ) GLOBAL_UNCERTAINTY_ASSIGNED_CONTEXT ( ( #207 ) ) GLOBAL_UNIT_ASSIGNED_CONTEXT ( ( #242, #102, #155 ) ) REPRESENTATION_CONTEXT ( 'NONE', 'WORKASPACE' ) );
#64 = CYLINDRICAL_SURFACE ( 'NONE', #27, 0.3749999999999998335 ) ;
#65 = CARTESIAN_POINT ( 'NONE',  ( 0.000000000000000000, 2.250000000000000000, 0.000000000000000000 ) ) ;
#66 = SURFACE_STYLE_USAGE ( .BOTH. , #305 ) ;
#67 = PRODUCT_DEFINITION ( 'UNKNOWN', '', #4, #370 ) ;
#68 = SURFACE_STYLE_USAGE ( .BOTH. , #91 ) ;
#69 = PRESENTATION_STYLE_ASSIGNMENT (( #105 ) ) ;
#70 = ORIENTED_EDGE ( 'NONE', *, *, #247, .T. ) ;
#71 =( GEOMETRIC_REPRESENTATION_CONTEXT ( 3 ) GLOBAL_UNCERTAINTY_ASSIGNED_CONTEXT ( ( #264 ) ) GLOBAL_UNIT_ASSIGNED_CONTEXT ( ( #179, #190, #50 ) ) REPRESENTATION_CONTEXT ( 'NONE', 'WORKASPACE' ) );
#72 = MECHANICAL_DESIGN_GEOMETRIC_PRESENTATION_REPRESENTATION (  '', ( #171 ), #196 ) ;
#73 = EDGE_CURVE ( 'NONE', #14, #295, #215, .T. ) ;
#74 = AXIS2_PLACEMENT_3D ( 'NONE', #310, #34, #205 ) ;
#75 = ORIENTED_EDGE ( 'NONE', *, *, #233, .T. ) ;
#76 =( LENGTH_UNIT ( ) NAMED_UNIT ( * ) SI_UNIT ( $, .METRE. ) );
#77 = ORIENTED_EDGE ( 'NONE', *, *, #325, .T. ) ;
#78 = DIRECTION ( 'NONE',  ( 0.000000000000000000, 0.000000000000000000, -1.000000000000000000 ) ) ;
#79 = DIRECTION ( 'NONE',  ( -1.224646799147353207E-16, 1.000000000000000000, -0.000000000000000000 ) ) ;
#80 = LINE ( 'NONE', #139, #3 ) ;
#81 = FILL_AREA_STYLE ('',( #373 ) ) ;
#82 = DIRECTION ( 'NONE',  ( -1.224646799147353207E-16, 1.000000000000000000, -0.000000000000000000 ) ) ;
#83 = AXIS2_PLACEMENT_3D ( 'NONE', #30, #170, #227 ) ;
#84 = DIRECTION ( 'NONE',  ( -1.000000000000000000, 0.000000000000000000, 0.000000000000000000 ) ) ;
#85 = DIRECTION ( 'NONE',  ( 1.224646799147353207E-16, -0.000000000000000000, 1.000000000000000000 ) ) ;
#86 = SURFACE_STYLE_USAGE ( .BOTH. , #145 ) ;
#87 = EDGE_CURVE ( 'NONE', #295, #188, #296, .T. ) ;
#88 =( CONVERSION_BASED_UNIT ( 'INCH', #90 ) LENGTH_UNIT ( ) NAMED_UNIT ( #25 ) );
#89 = COLOUR_RGB ( '',0.7921568627450980005, 0.8196078431372548767, 0.9333333333333333481 ) ;
#90 = LENGTH_MEASURE_WITH_UNIT ( LENGTH_MEASURE( 0.02539999999999999897 ), #312 );
#91 = SURFACE_SIDE_STYLE ('',( #122 ) ) ;
#92 = CLOSED_SHELL ( 'NONE', ( #300, #316, #313, #103, #48 ) ) ;
#93 = SURFACE_STYLE_FILL_AREA ( #184 ) ;
#94 = VERTEX_POINT ( 'NONE', #345 ) ;
#95 = UNCERTAINTY_MEASURE_WITH_UNIT (LENGTH_MEASURE( 1.000000000000000082E-05 ), #56, 'distance_accuracy_value', 'NONE');
#96 = EDGE_CURVE ( 'NONE', #246, #188, #174, .T. ) ;
#97 = EDGE_LOOP ( 'NONE', ( #356, #277, #191, #332 ) ) ;
#98 = AXIS2_PLACEMENT_3D ( 'NONE', #198, #337, #78 ) ;
#99 = SURFACE_STYLE_USAGE ( .BOTH. , #177 ) ;
#100 = CIRCLE ( 'NONE', #229, 0.3749999999999999445 ) ;
#101 = ORIENTED_EDGE ( 'NONE', *, *, #87, .T. ) ;
#102 =( NAMED_UNIT ( * ) PLANE_ANGLE_UNIT ( ) SI_UNIT ( $, .RADIAN. ) );
#103 = ADVANCED_FACE ( 'NONE', ( #293 ), #126, .T. ) ;
#104 = VERTEX_POINT ( 'NONE', #236 ) ;
#105 = SURFACE_STYLE_USAGE ( .BOTH. , #355 ) ;
#106 = EDGE_LOOP ( 'NONE', ( #12, #101, #349, #301 ) ) ;
#107 = CIRCLE ( 'NONE', #123, 0.3749999999999998890 ) ;
#108 = AXIS2_PLACEMENT_3D ( 'NONE', #306, #163, #84 ) ;
#109 = DIRECTION ( 'NONE',  ( 1.224646799147353207E-16, -1.000000000000000000, 0.000000000000000000 ) ) ;
#110 = DIRECTION ( 'NONE',  ( -1.224646799147353207E-16, 1.000000000000000000, -0.000000000000000000 ) ) ;
#111 = MANIFOLD_SOLID_BREP ( 'Revolve - Tool Body (Straight Shanked)', #148 ) ;
#112 = CARTESIAN_POINT ( 'NONE',  ( -4.592425496802575451E-17, 0.3750000000000000555, 0.000000000000000000 ) ) ;
#113 = FILL_AREA_STYLE ('',( #225 ) ) ;
#114 = PRESENTATION_LAYER_ASSIGNMENT (  '', '', ( #263 ) ) ;
#115 = MANIFOLD_SOLID_BREP ( 'Revolve - Cutting Edge', #92 ) ;
#116 = DIRECTION ( 'NONE',  ( 1.000000000000000000, 0.000000000000000000, -1.224646799147353207E-16 ) ) ;
#117 = ADVANCED_FACE ( 'NONE', ( #333 ), #358, .F. ) ;
#118 =( LENGTH_UNIT ( ) NAMED_UNIT ( * ) SI_UNIT ( $, .METRE. ) );
#119 =( NAMED_UNIT ( * ) PLANE_ANGLE_UNIT ( ) SI_UNIT ( $, .RADIAN. ) );
#120 =( CONVERSION_BASED_UNIT ( 'INCH', #203 ) LENGTH_UNIT ( ) NAMED_UNIT ( #303 ) );
#121 = STYLED_ITEM ( 'NONE', ( #128 ), #115 ) ;
#122 = SURFACE_STYLE_FILL_AREA ( #61 ) ;
#123 = AXIS2_PLACEMENT_3D ( 'NONE', #169, #251, #369 ) ;
#124 = DIRECTION ( 'NONE',  ( 0.000000000000000000, 0.000000000000000000, -1.000000000000000000 ) ) ;
#125 = CIRCLE ( 'NONE', #153, 0.3749999999999998890 ) ;
#126 = CYLINDRICAL_SURFACE ( 'NONE', #28, 0.3749999999999998335 ) ;
#127 = DIRECTION ( 'NONE',  ( -1.224646799147353207E-16, 1.000000000000000000, -0.000000000000000000 ) ) ;
#128 = PRESENTATION_STYLE_ASSIGNMENT (( #161 ) ) ;
#129 = ORIENTED_EDGE ( 'NONE', *, *, #87, .F. ) ;
#130 = AXIS2_PLACEMENT_3D ( 'NONE', #192, #82, #371 ) ;
#131 = DIRECTION ( 'NONE',  ( 0.000000000000000000, 0.000000000000000000, -1.000000000000000000 ) ) ;
#132 = EDGE_CURVE ( 'NONE', #104, #14, #107, .T. ) ;
#133 = FILL_AREA_STYLE_COLOUR ( '', #359 ) ;
#134 = FACE_OUTER_BOUND ( 'NONE', #44, .T. ) ;
#135 =( GEOMETRIC_REPRESENTATION_CONTEXT ( 3 ) GLOBAL_UNCERTAINTY_ASSIGNED_CONTEXT ( ( #320 ) ) GLOBAL_UNIT_ASSIGNED_CONTEXT ( ( #88, #119, #315 ) ) REPRESENTATION_CONTEXT ( 'NONE', 'WORKASPACE' ) );
#136 =( NAMED_UNIT ( * ) PLANE_ANGLE_UNIT ( ) SI_UNIT ( $, .RADIAN. ) );
#137 = ADVANCED_FACE ( 'NONE', ( #195 ), #138, .T. ) ;
#138 = CYLINDRICAL_SURFACE ( 'NONE', #83, 0.3749999999999996669 ) ;
#139 = CARTESIAN_POINT ( 'NONE',  ( -0.3749999999999998335, 5.000000000000000000, 0.000000000000000000 ) ) ;
#140 = CARTESIAN_POINT ( 'NONE',  ( 4.592425496802572986E-17, 0.3750000000000001110, 0.3749999999999998890 ) ) ;
#141 = DIRECTION ( 'NONE',  ( -0.000000000000000000, -1.000000000000000000, -0.000000000000000000 ) ) ;
#142 = FILL_AREA_STYLE ('',( #33 ) ) ;
#143 = CARTESIAN_POINT ( 'NONE',  ( 0.000000000000000000, 0.3750000000000001110, 0.000000000000000000 ) ) ;
#144 = ORIENTED_EDGE ( 'NONE', *, *, #288, .F. ) ;
#145 = SURFACE_SIDE_STYLE ('',( #173 ) ) ;
#146 = STYLED_ITEM ( 'NONE', ( #69 ), #111 ) ;
#147 = VECTOR ( 'NONE', #127, 39.37007874015748143 ) ;
#148 = CLOSED_SHELL ( 'NONE', ( #206, #220, #137, #117 ) ) ;
#149 = DIRECTION ( 'NONE',  ( 0.000000000000000000, 1.000000000000000000, 0.000000000000000000 ) ) ;
#150 =( NAMED_UNIT ( * ) SI_UNIT ( $, .STERADIAN. ) SOLID_ANGLE_UNIT ( ) );
#151 = EDGE_CURVE ( 'NONE', #17, #246, #261, .T. ) ;
#152 = DIRECTION ( 'NONE',  ( 0.000000000000000000, 0.000000000000000000, -1.000000000000000000 ) ) ;
#153 = AXIS2_PLACEMENT_3D ( 'NONE', #23, #287, #255 ) ;
#154 = AXIS2_PLACEMENT_3D ( 'NONE', #280, #79, #254 ) ;
#155 =( NAMED_UNIT ( * ) SI_UNIT ( $, .STERADIAN. ) SOLID_ANGLE_UNIT ( ) );
#156 = ORIENTED_EDGE ( 'NONE', *, *, #288, .T. ) ;
#157 = EDGE_LOOP ( 'NONE', ( #75, #77 ) ) ;
#158 = APPLICATION_PROTOCOL_DEFINITION ( 'draft international standard', 'automotive_design', 1998, #204 ) ;
#159 = LENGTH_MEASURE_WITH_UNIT ( LENGTH_MEASURE( 0.02539999999999999897 ), #76 );
#160 = ORIENTED_EDGE ( 'NONE', *, *, #96, .T. ) ;
#161 = SURFACE_STYLE_USAGE ( .BOTH. , #16 ) ;
#162 = ORIENTED_EDGE ( 'NONE', *, *, #275, .F. ) ;
#163 = DIRECTION ( 'NONE',  ( -1.224646799147353207E-16, 1.000000000000000000, -0.000000000000000000 ) ) ;
#164 = EDGE_LOOP ( 'NONE', ( #330, #156, #46, #211, #299 ) ) ;
#165 = CARTESIAN_POINT ( 'NONE',  ( 0.000000000000000000, 0.3750000000000001110, -0.3749999999999998890 ) ) ;
#166 = CARTESIAN_POINT ( 'NONE',  ( -0.3749999999999993339, 2.250000000000000444, 0.000000000000000000 ) ) ;
#167 = CIRCLE ( 'NONE', #201, 0.3749999999999998890 ) ;
#168 = COLOUR_RGB ( '',1.000000000000000000, 0.000000000000000000, 0.000000000000000000 ) ;
#169 = CARTESIAN_POINT ( 'NONE',  ( 0.000000000000000000, 0.3750000000000001110, 0.000000000000000000 ) ) ;
#170 = DIRECTION ( 'NONE',  ( -1.224646799147353207E-16, 1.000000000000000000, -0.000000000000000000 ) ) ;
#171 = STYLED_ITEM ( 'NONE', ( #8 ), #313 ) ;
#172 = DIRECTION ( 'NONE',  ( 1.000000000000000000, 0.000000000000000000, 0.000000000000000000 ) ) ;
#173 = SURFACE_STYLE_FILL_AREA ( #142 ) ;
#174 = LINE ( 'NONE', #235, #326 ) ;
#175 = COLOUR_RGB ( '',1.000000000000000000, 0.000000000000000000, 0.000000000000000000 ) ;
#176 = DIRECTION ( 'NONE',  ( -1.000000000000000000, 0.000000000000000000, 0.000000000000000000 ) ) ;
#177 = SURFACE_SIDE_STYLE ('',( #186 ) ) ;
#178 =( LENGTH_UNIT ( ) NAMED_UNIT ( * ) SI_UNIT ( $, .METRE. ) );
#179 =( CONVERSION_BASED_UNIT ( 'INCH', #159 ) LENGTH_UNIT ( ) NAMED_UNIT ( #54 ) );
#180 = COLOUR_RGB ( '',1.000000000000000000, 0.000000000000000000, 0.000000000000000000 ) ;
#181 = UNCERTAINTY_MEASURE_WITH_UNIT (LENGTH_MEASURE( 1.000000000000000082E-05 ), #258, 'distance_accuracy_value', 'NONE');
#182 = PRESENTATION_LAYER_ASSIGNMENT (  '', '', ( #171 ) ) ;
#183 = COLOUR_RGB ( '',1.000000000000000000, 0.000000000000000000, 0.000000000000000000 ) ;
#184 = FILL_AREA_STYLE ('',( #329 ) ) ;
#185 =( NAMED_UNIT ( * ) SI_UNIT ( $, .STERADIAN. ) SOLID_ANGLE_UNIT ( ) );
#186 = SURFACE_STYLE_FILL_AREA ( #213 ) ;
#187 = DIMENSIONAL_EXPONENTS ( 1.000000000000000000, 0.000000000000000000, 0.000000000000000000, 0.000000000000000000, 0.000000000000000000, 0.000000000000000000, 0.000000000000000000 ) ;
#188 = VERTEX_POINT ( 'NONE', #165 ) ;
#189 = DIRECTION ( 'NONE',  ( 0.000000000000000000, 0.000000000000000000, 1.000000000000000000 ) ) ;
#190 =( NAMED_UNIT ( * ) PLANE_ANGLE_UNIT ( ) SI_UNIT ( $, .RADIAN. ) );
#191 = ORIENTED_EDGE ( 'NONE', *, *, #197, .T. ) ;
#192 = CARTESIAN_POINT ( 'NONE',  ( -1.224646799147353207E-16, 5.000000000000000000, 0.000000000000000000 ) ) ;
#193 =( NAMED_UNIT ( * ) SI_UNIT ( $, .STERADIAN. ) SOLID_ANGLE_UNIT ( ) );
#194 = DIRECTION ( 'NONE',  ( 1.000000000000000000, 1.224646799147353207E-16, 0.000000000000000000 ) ) ;
#195 = FACE_OUTER_BOUND ( 'NONE', #97, .T. ) ;
#196 =( GEOMETRIC_REPRESENTATION_CONTEXT ( 3 ) GLOBAL_UNCERTAINTY_ASSIGNED_CONTEXT ( ( #41 ) ) GLOBAL_UNIT_ASSIGNED_CONTEXT ( ( #39, #260, #150 ) ) REPRESENTATION_CONTEXT ( 'NONE', 'WORKASPACE' ) );
#197 = EDGE_CURVE ( 'NONE', #286, #94, #80, .T. ) ;
#198 = CARTESIAN_POINT ( 'NONE',  ( 0.000000000000000000, 2.250000000000000000, 0.000000000000000000 ) ) ;
#199 = DIRECTION ( 'NONE',  ( 0.000000000000000000, -0.000000000000000000, 1.000000000000000000 ) ) ;
#200 = PRESENTATION_LAYER_ASSIGNMENT (  '', '', ( #146 ) ) ;
#201 = AXIS2_PLACEMENT_3D ( 'NONE', #328, #244, #216 ) ;
#202 = CIRCLE ( 'NONE', #290, 0.3749999999999997780 ) ;
#203 = LENGTH_MEASURE_WITH_UNIT ( LENGTH_MEASURE( 0.02539999999999999897 ), #58 );
#204 = APPLICATION_CONTEXT ( 'automotive_design' ) ;
#205 = DIRECTION ( 'NONE',  ( 0.000000000000000000, 0.000000000000000000, -1.000000000000000000 ) ) ;
#206 = ADVANCED_FACE ( 'NONE', ( #279 ), #342, .T. ) ;
#207 = UNCERTAINTY_MEASURE_WITH_UNIT (LENGTH_MEASURE( 1.000000000000000082E-05 ), #242, 'distance_accuracy_value', 'NONE');
#208 = SPHERICAL_SURFACE ( 'NONE', #343, 0.3749999999999999445 ) ;
#209 = PRODUCT_RELATED_PRODUCT_CATEGORY ( 'part', '', ( #221 ) ) ;
#210 = SURFACE_STYLE_FILL_AREA ( #352 ) ;
#211 = ORIENTED_EDGE ( 'NONE', *, *, #336, .F. ) ;
#212 = CARTESIAN_POINT ( 'NONE',  ( -2.296212748401288342E-17, 6.829619984160658046E-17, 0.000000000000000000 ) ) ;
#213 = FILL_AREA_STYLE ('',( #222 ) ) ;
#214 = ORIENTED_EDGE ( 'NONE', *, *, #73, .F. ) ;
#215 = CIRCLE ( 'NONE', #74, 0.3749999999999998890 ) ;
#216 = DIRECTION ( 'NONE',  ( 0.000000000000000000, 0.000000000000000000, -1.000000000000000000 ) ) ;
#217 =( NAMED_UNIT ( * ) SI_UNIT ( $, .STERADIAN. ) SOLID_ANGLE_UNIT ( ) );
#218 = CARTESIAN_POINT ( 'NONE',  ( 0.3749999999999997780, 5.000000000000000000, 0.000000000000000000 ) ) ;
#219 = ORIENTED_EDGE ( 'NONE', *, *, #73, .T. ) ;
#220 = ADVANCED_FACE ( 'NONE', ( #134 ), #228, .F. ) ;
#221 = PRODUCT ( '49421', '49421', '', ( #15 ) ) ;
#222 = FILL_AREA_STYLE_COLOUR ( '', #11 ) ;
#223 = ORIENTED_EDGE ( 'NONE', *, *, #233, .F. ) ;
#224 = MECHANICAL_DESIGN_GEOMETRIC_PRESENTATION_REPRESENTATION (  '', ( #146 ), #71 ) ;
#225 = FILL_AREA_STYLE_COLOUR ( '', #183 ) ;
#226 = SURFACE_STYLE_USAGE ( .BOTH. , #250 ) ;
#227 = DIRECTION ( 'NONE',  ( -1.000000000000000000, 0.000000000000000000, 0.000000000000000000 ) ) ;
#228 = PLANE ( 'NONE',  #344 ) ;
#229 = AXIS2_PLACEMENT_3D ( 'NONE', #112, #85, #116 ) ;
#230 = ORIENTED_EDGE ( 'NONE', *, *, #350, .F. ) ;
#231 = STYLED_ITEM ( 'NONE', ( #5 ), #300 ) ;
#232 = DIRECTION ( 'NONE',  ( 1.000000000000000000, 0.000000000000000000, 0.000000000000000000 ) ) ;
#233 = EDGE_CURVE ( 'NONE', #94, #323, #125, .T. ) ;
#234 = DIRECTION ( 'NONE',  ( 1.000000000000000000, 0.000000000000000000, 0.000000000000000000 ) ) ;
#235 = CARTESIAN_POINT ( 'NONE',  ( 0.000000000000000000, 0.000000000000000000, -0.3749999999999998335 ) ) ;
#236 = CARTESIAN_POINT ( 'NONE',  ( 0.3749999999999998890, 0.3750000000000001110, 0.000000000000000000 ) ) ;
#237 = EDGE_LOOP ( 'NONE', ( #219, #22, #230, #248 ) ) ;
#238 = UNCERTAINTY_MEASURE_WITH_UNIT (LENGTH_MEASURE( 1.000000000000000082E-05 ), #120, 'distance_accuracy_value', 'NONE');
#239 = LINE ( 'NONE', #298, #147 ) ;
#240 = DIRECTION ( 'NONE',  ( -0.000000000000000000, -1.000000000000000000, -0.000000000000000000 ) ) ;
#241 = DIRECTION ( 'NONE',  ( -1.224646799147353207E-16, 1.000000000000000000, -0.000000000000000000 ) ) ;
#242 =( CONVERSION_BASED_UNIT ( 'INCH', #245 ) LENGTH_UNIT ( ) NAMED_UNIT ( #368 ) );
#243 = STYLED_ITEM ( 'NONE', ( #281 ), #48 ) ;
#244 = DIRECTION ( 'NONE',  ( -0.000000000000000000, -1.000000000000000000, -0.000000000000000000 ) ) ;
#245 = LENGTH_MEASURE_WITH_UNIT ( LENGTH_MEASURE( 0.02539999999999999897 ), #271 );
#246 = VERTEX_POINT ( 'NONE', #309 ) ;
#247 = EDGE_CURVE ( 'NONE', #286, #259, #366, .T. ) ;
#248 = ORIENTED_EDGE ( 'NONE', *, *, #132, .T. ) ;
#249 = CARTESIAN_POINT ( 'NONE',  ( 0.000000000000000000, 2.250000000000000000, 0.000000000000000000 ) ) ;
#250 = SURFACE_SIDE_STYLE ('',( #339 ) ) ;
#251 = DIRECTION ( 'NONE',  ( -0.000000000000000000, -1.000000000000000000, -0.000000000000000000 ) ) ;
#252 = PRESENTATION_LAYER_ASSIGNMENT (  '', '', ( #26 ) ) ;
#253 = FACE_OUTER_BOUND ( 'NONE', #106, .T. ) ;
#254 = DIRECTION ( 'NONE',  ( -1.000000000000000000, 0.000000000000000000, 0.000000000000000000 ) ) ;
#255 = DIRECTION ( 'NONE',  ( -1.000000000000000000, 0.000000000000000000, 0.000000000000000000 ) ) ;
#256 = SURFACE_STYLE_FILL_AREA ( #113 ) ;
#257 = CARTESIAN_POINT ( 'NONE',  ( 4.592425496802571754E-17, 2.250000000000000000, 0.3749999999999997780 ) ) ;
#258 =( CONVERSION_BASED_UNIT ( 'INCH', #7 ) LENGTH_UNIT ( ) NAMED_UNIT ( #362 ) );
#259 = VERTEX_POINT ( 'NONE', #31 ) ;
#260 =( NAMED_UNIT ( * ) PLANE_ANGLE_UNIT ( ) SI_UNIT ( $, .RADIAN. ) );
#261 = CIRCLE ( 'NONE', #98, 0.3749999999999997780 ) ;
#262 = DIRECTION ( 'NONE',  ( 0.000000000000000000, 0.000000000000000000, 1.000000000000000000 ) ) ;
#263 = STYLED_ITEM ( 'NONE', ( #267 ), #316 ) ;
#264 = UNCERTAINTY_MEASURE_WITH_UNIT (LENGTH_MEASURE( 1.000000000000000082E-05 ), #179, 'distance_accuracy_value', 'NONE');
#265 = EDGE_CURVE ( 'NONE', #246, #17, #202, .T. ) ;
#266 = DIRECTION ( 'NONE',  ( 0.000000000000000000, 0.000000000000000000, 1.000000000000000000 ) ) ;
#267 = PRESENTATION_STYLE_ASSIGNMENT (( #86 ) ) ;
#268 = MECHANICAL_DESIGN_GEOMETRIC_PRESENTATION_REPRESENTATION (  '', ( #121 ), #367 ) ;
#269 =( GEOMETRIC_REPRESENTATION_CONTEXT ( 3 ) GLOBAL_UNCERTAINTY_ASSIGNED_CONTEXT ( ( #282 ) ) GLOBAL_UNIT_ASSIGNED_CONTEXT ( ( #324, #322, #217 ) ) REPRESENTATION_CONTEXT ( 'NONE', 'WORKASPACE' ) );
#270 = CIRCLE ( 'NONE', #108, 0.3749999999999995559 ) ;
#271 =( LENGTH_UNIT ( ) NAMED_UNIT ( * ) SI_UNIT ( $, .METRE. ) );
#272 = CARTESIAN_POINT ( 'NONE',  ( -1.224646799147353207E-16, 5.000000000000000000, 0.000000000000000000 ) ) ;
#273 = CARTESIAN_POINT ( 'NONE',  ( 0.000000000000000000, 0.000000000000000000, 0.000000000000000000 ) ) ;
#274 = EDGE_LOOP ( 'NONE', ( #144, #353, #160, #129, #214 ) ) ;
#275 = EDGE_CURVE ( 'NONE', #259, #286, #270, .T. ) ;
#276 =( LENGTH_UNIT ( ) NAMED_UNIT ( * ) SI_UNIT ( $, .METRE. ) );
#277 = ORIENTED_EDGE ( 'NONE', *, *, #275, .T. ) ;
#278 = DIMENSIONAL_EXPONENTS ( 1.000000000000000000, 0.000000000000000000, 0.000000000000000000, 0.000000000000000000, 0.000000000000000000, 0.000000000000000000, 0.000000000000000000 ) ;
#279 = FACE_OUTER_BOUND ( 'NONE', #364, .T. ) ;
#280 = CARTESIAN_POINT ( 'NONE',  ( 2.143131898507867804E-16, 2.250000000000000444, 0.000000000000000000 ) ) ;
#281 = PRESENTATION_STYLE_ASSIGNMENT (( #226 ) ) ;
#282 = UNCERTAINTY_MEASURE_WITH_UNIT (LENGTH_MEASURE( 1.000000000000000082E-05 ), #324, 'distance_accuracy_value', 'NONE');
#283 = CIRCLE ( 'NONE', #302, 0.3749999999999998890 ) ;
#284 = DIRECTION ( 'NONE',  ( -0.000000000000000000, -1.000000000000000000, -0.000000000000000000 ) ) ;
#285 = FACE_OUTER_BOUND ( 'NONE', #237, .T. ) ;
#286 = VERTEX_POINT ( 'NONE', #166 ) ;
#287 = DIRECTION ( 'NONE',  ( -1.224646799147353207E-16, 1.000000000000000000, -0.000000000000000000 ) ) ;
#288 = EDGE_CURVE ( 'NONE', #17, #14, #365, .T. ) ;
#289 = PLANE ( 'NONE',  #32 ) ;
#290 = AXIS2_PLACEMENT_3D ( 'NONE', #249, #284, #24 ) ;
#291 = LENGTH_MEASURE_WITH_UNIT ( LENGTH_MEASURE( 0.02539999999999999897 ), #346 );
#292 = SPHERICAL_SURFACE ( 'NONE', #59, 0.3749999999999999445 ) ;
#293 = FACE_OUTER_BOUND ( 'NONE', #274, .T. ) ;
#294 = AXIS2_PLACEMENT_3D ( 'NONE', #273, #189, #234 ) ;
#295 = VERTEX_POINT ( 'NONE', #57 ) ;
#296 = CIRCLE ( 'NONE', #307, 0.3749999999999998890 ) ;
#297 = EDGE_LOOP ( 'NONE', ( #2, #363 ) ) ;
#298 = CARTESIAN_POINT ( 'NONE',  ( 0.3749999999999995559, 5.000000000000000000, 4.592425496802570521E-17 ) ) ;
#299 = ORIENTED_EDGE ( 'NONE', *, *, #96, .F. ) ;
#300 = ADVANCED_FACE ( 'NONE', ( #285 ), #208, .T. ) ;
#301 = ORIENTED_EDGE ( 'NONE', *, *, #350, .T. ) ;
#302 = AXIS2_PLACEMENT_3D ( 'NONE', #272, #241, #18 ) ;
#303 = DIMENSIONAL_EXPONENTS ( 1.000000000000000000, 0.000000000000000000, 0.000000000000000000, 0.000000000000000000, 0.000000000000000000, 0.000000000000000000, 0.000000000000000000 ) ;
#304 = CARTESIAN_POINT ( 'NONE',  ( 2.143131898507868051E-16, 2.250000000000000000, 0.000000000000000000 ) ) ;
#305 = SURFACE_SIDE_STYLE ('',( #256 ) ) ;
#306 = CARTESIAN_POINT ( 'NONE',  ( 2.143131898507867804E-16, 2.250000000000000444, 0.000000000000000000 ) ) ;
#307 = AXIS2_PLACEMENT_3D ( 'NONE', #143, #1, #9 ) ;
#308 = MECHANICAL_DESIGN_GEOMETRIC_PRESENTATION_REPRESENTATION (  '', ( #243 ), #10 ) ;
#309 = CARTESIAN_POINT ( 'NONE',  ( 0.000000000000000000, 2.250000000000000000, -0.3749999999999997780 ) ) ;
#310 = CARTESIAN_POINT ( 'NONE',  ( 0.000000000000000000, 0.3750000000000001110, 0.000000000000000000 ) ) ;
#311 = FILL_AREA_STYLE_COLOUR ( '', #180 ) ;
#312 =( LENGTH_UNIT ( ) NAMED_UNIT ( * ) SI_UNIT ( $, .METRE. ) );
#313 = ADVANCED_FACE ( 'NONE', ( #372 ), #289, .T. ) ;
#314 = PRESENTATION_LAYER_ASSIGNMENT (  '', '', ( #121 ) ) ;
#315 =( NAMED_UNIT ( * ) SI_UNIT ( $, .STERADIAN. ) SOLID_ANGLE_UNIT ( ) );
#316 = ADVANCED_FACE ( 'NONE', ( #35 ), #64, .T. ) ;
#317 = ADVANCED_BREP_SHAPE_REPRESENTATION ( '49421', ( #115, #111, #294 ), #269 ) ;
#318 = CARTESIAN_POINT ( 'NONE',  ( -4.592425496802575451E-17, 0.3750000000000000555, 0.000000000000000000 ) ) ;
#319 =( NAMED_UNIT ( * ) SI_UNIT ( $, .STERADIAN. ) SOLID_ANGLE_UNIT ( ) );
#320 = UNCERTAINTY_MEASURE_WITH_UNIT (LENGTH_MEASURE( 1.000000000000000082E-05 ), #88, 'distance_accuracy_value', 'NONE');
#321 = SHAPE_DEFINITION_REPRESENTATION ( #331, #317 ) ;
#322 =( NAMED_UNIT ( * ) PLANE_ANGLE_UNIT ( ) SI_UNIT ( $, .RADIAN. ) );
#323 = VERTEX_POINT ( 'NONE', #354 ) ;
#324 =( CONVERSION_BASED_UNIT ( 'INCH', #357 ) LENGTH_UNIT ( ) NAMED_UNIT ( #278 ) );
#325 = EDGE_CURVE ( 'NONE', #323, #94, #283, .T. ) ;
#326 = VECTOR ( 'NONE', #361, 39.37007874015748143 ) ;
#327 =( GEOMETRIC_REPRESENTATION_CONTEXT ( 3 ) GLOBAL_UNCERTAINTY_ASSIGNED_CONTEXT ( ( #181 ) ) GLOBAL_UNIT_ASSIGNED_CONTEXT ( ( #258, #13, #185 ) ) REPRESENTATION_CONTEXT ( 'NONE', 'WORKASPACE' ) );
#328 = CARTESIAN_POINT ( 'NONE',  ( 0.000000000000000000, 0.3750000000000001110, 0.000000000000000000 ) ) ;
#329 = FILL_AREA_STYLE_COLOUR ( '', #89 ) ;
#330 = ORIENTED_EDGE ( 'NONE', *, *, #265, .T. ) ;
#331 = PRODUCT_DEFINITION_SHAPE ( 'NONE', 'NONE',  #67 ) ;
#332 = ORIENTED_EDGE ( 'NONE', *, *, #325, .F. ) ;
#333 = FACE_OUTER_BOUND ( 'NONE', #157, .T. ) ;
#334 = DIMENSIONAL_EXPONENTS ( 1.000000000000000000, 0.000000000000000000, 0.000000000000000000, 0.000000000000000000, 0.000000000000000000, 0.000000000000000000, 0.000000000000000000 ) ;
#335 = MECHANICAL_DESIGN_GEOMETRIC_PRESENTATION_REPRESENTATION (  '', ( #231 ), #135 ) ;
#336 = EDGE_CURVE ( 'NONE', #188, #104, #167, .T. ) ;
#337 = DIRECTION ( 'NONE',  ( -0.000000000000000000, -1.000000000000000000, -0.000000000000000000 ) ) ;
#338 = DIRECTION ( 'NONE',  ( -1.000000000000000000, -1.224646799147353207E-16, 0.000000000000000000 ) ) ;
#339 = SURFACE_STYLE_FILL_AREA ( #81 ) ;
#340 = AXIS2_PLACEMENT_3D ( 'NONE', #351, #131, #176 ) ;
#341 = CIRCLE ( 'NONE', #340, 0.3749999999999999445 ) ;
#342 = CYLINDRICAL_SURFACE ( 'NONE', #130, 0.3749999999999996669 ) ;
#343 = AXIS2_PLACEMENT_3D ( 'NONE', #318, #266, #232 ) ;
#344 = AXIS2_PLACEMENT_3D ( 'NONE', #304, #53, #338 ) ;
#345 = CARTESIAN_POINT ( 'NONE',  ( -0.3750000000000000555, 5.000000000000000000, 0.000000000000000000 ) ) ;
#346 =( LENGTH_UNIT ( ) NAMED_UNIT ( * ) SI_UNIT ( $, .METRE. ) );
#347 = EDGE_CURVE ( 'NONE', #259, #323, #239, .T. ) ;
#348 = APPLICATION_PROTOCOL_DEFINITION ( 'draft international standard', 'automotive_design', 1998, #6 ) ;
#349 = ORIENTED_EDGE ( 'NONE', *, *, #336, .T. ) ;
#350 = EDGE_CURVE ( 'NONE', #104, #360, #341, .T. ) ;
#351 = CARTESIAN_POINT ( 'NONE',  ( -4.592425496802575451E-17, 0.3750000000000000555, 0.000000000000000000 ) ) ;
#352 = FILL_AREA_STYLE ('',( #133 ) ) ;
#353 = ORIENTED_EDGE ( 'NONE', *, *, #151, .T. ) ;
#354 = CARTESIAN_POINT ( 'NONE',  ( 0.3749999999999997780, 5.000000000000000000, 4.592425496802571754E-17 ) ) ;
#355 = SURFACE_SIDE_STYLE ('',( #93 ) ) ;
#356 = ORIENTED_EDGE ( 'NONE', *, *, #347, .F. ) ;
#357 = LENGTH_MEASURE_WITH_UNIT ( LENGTH_MEASURE( 0.02539999999999999897 ), #178 );
#358 = PLANE ( 'NONE',  #37 ) ;
#359 = COLOUR_RGB ( '',0.7921568627450980005, 0.8196078431372548767, 0.9333333333333333481 ) ;
#360 = VERTEX_POINT ( 'NONE', #212 ) ;
#361 = DIRECTION ( 'NONE',  ( -0.000000000000000000, -1.000000000000000000, -0.000000000000000000 ) ) ;
#362 = DIMENSIONAL_EXPONENTS ( 1.000000000000000000, 0.000000000000000000, 0.000000000000000000, 0.000000000000000000, 0.000000000000000000, 0.000000000000000000, 0.000000000000000000 ) ;
#363 = ORIENTED_EDGE ( 'NONE', *, *, #151, .F. ) ;
#364 = EDGE_LOOP ( 'NONE', ( #70, #52, #223, #19 ) ) ;
#365 = LINE ( 'NONE', #60, #43 ) ;
#366 = CIRCLE ( 'NONE', #154, 0.3749999999999995559 ) ;
#367 =( GEOMETRIC_REPRESENTATION_CONTEXT ( 3 ) GLOBAL_UNCERTAINTY_ASSIGNED_CONTEXT ( ( #95 ) ) GLOBAL_UNIT_ASSIGNED_CONTEXT ( ( #56, #136, #193 ) ) REPRESENTATION_CONTEXT ( 'NONE', 'WORKASPACE' ) );
#368 = DIMENSIONAL_EXPONENTS ( 1.000000000000000000, 0.000000000000000000, 0.000000000000000000, 0.000000000000000000, 0.000000000000000000, 0.000000000000000000, 0.000000000000000000 ) ;
#369 = DIRECTION ( 'NONE',  ( 0.000000000000000000, 0.000000000000000000, -1.000000000000000000 ) ) ;
#370 = PRODUCT_DEFINITION_CONTEXT ( 'detailed design', #6, 'design' ) ;
#371 = DIRECTION ( 'NONE',  ( -1.000000000000000000, 0.000000000000000000, 0.000000000000000000 ) ) ;
#372 = FACE_OUTER_BOUND ( 'NONE', #297, .T. ) ;
#373 = FILL_AREA_STYLE_COLOUR ( '', #168 ) ;
ENDSEC;
END-ISO-10303-21;
