ISO-10303-21;
HEADER;
FILE_DESCRIPTION (( 'STEP AP214' ),
    '1' );
FILE_NAME ('06120.STEP',
    '2023-07-05T16:00:38',
    ( '' ),
    ( '' ),
    'SwSTEP 2.0',
    'SolidWorks 2023',
    '' );
FILE_SCHEMA (( 'AUTOMOTIVE_DESIGN' ));
ENDSEC;

DATA;
#1 = DIRECTION ( 'NONE',  ( 0.000000000000000000, 0.7071067811865463515, 0.7071067811865486830 ) ) ;
#2 = FILL_AREA_STYLE_COLOUR ( '', #104 ) ;
#3 = PRESENTATION_LAYER_ASSIGNMENT (  '', '', ( #217 ) ) ;
#4 = DIMENSIONAL_EXPONENTS ( 1.000000000000000000, 0.000000000000000000, 0.000000000000000000, 0.000000000000000000, 0.000000000000000000, 0.000000000000000000, 0.000000000000000000 ) ;
#5 = FILL_AREA_STYLE ('',( #2 ) ) ;
#6 = AXIS2_PLACEMENT_3D ( 'NONE', #56, #165, #35 ) ;
#7 = DIRECTION ( 'NONE',  ( 0.000000000000000000, 1.000000000000000000, 0.000000000000000000 ) ) ;
#8 = PRESENTATION_STYLE_ASSIGNMENT (( #31 ) ) ;
#9 = FACE_OUTER_BOUND ( 'NONE', #141, .T. ) ;
#10 = UNCERTAINTY_MEASURE_WITH_UNIT (LENGTH_MEASURE( 1.000000000000000082E-05 ), #196, 'distance_accuracy_value', 'NONE');
#11 = FILL_AREA_STYLE ('',( #235 ) ) ;
#12 = DIRECTION ( 'NONE',  ( 0.000000000000000000, 0.000000000000000000, -1.000000000000000000 ) ) ;
#13 = CLOSED_SHELL ( 'NONE', ( #110, #239, #194 ) ) ;
#14 = SHAPE_DEFINITION_REPRESENTATION ( #29, #265 ) ;
#15 =( GEOMETRIC_REPRESENTATION_CONTEXT ( 3 ) GLOBAL_UNCERTAINTY_ASSIGNED_CONTEXT ( ( #158 ) ) GLOBAL_UNIT_ASSIGNED_CONTEXT ( ( #162, #200, #164 ) ) REPRESENTATION_CONTEXT ( 'NONE', 'WORKASPACE' ) );
#16 = CARTESIAN_POINT ( 'NONE',  ( -0.09374999999999975020, 2.000000000000000000, 0.000000000000000000 ) ) ;
#17 = CONICAL_SURFACE ( 'NONE', #86, 39.37007874015760933, 0.7853981633974499443 ) ;
#18 = EDGE_LOOP ( 'NONE', ( #204, #98 ) ) ;
#19 = VERTEX_POINT ( 'NONE', #63 ) ;
#20 = VERTEX_POINT ( 'NONE', #146 ) ;
#21 = APPLICATION_CONTEXT ( 'automotive_design' ) ;
#22 =( LENGTH_UNIT ( ) NAMED_UNIT ( * ) SI_UNIT ( $, .METRE. ) );
#23 =( GEOMETRIC_REPRESENTATION_CONTEXT ( 3 ) GLOBAL_UNCERTAINTY_ASSIGNED_CONTEXT ( ( #178 ) ) GLOBAL_UNIT_ASSIGNED_CONTEXT ( ( #163, #97, #123 ) ) REPRESENTATION_CONTEXT ( 'NONE', 'WORKASPACE' ) );
#24 = AXIS2_PLACEMENT_3D ( 'NONE', #52, #127, #252 ) ;
#25 = DIRECTION ( 'NONE',  ( -1.148938068423855903E-16, 1.000000000000000000, -0.000000000000000000 ) ) ;
#26 =( GEOMETRIC_REPRESENTATION_CONTEXT ( 3 ) GLOBAL_UNCERTAINTY_ASSIGNED_CONTEXT ( ( #232 ) ) GLOBAL_UNIT_ASSIGNED_CONTEXT ( ( #189, #173, #208 ) ) REPRESENTATION_CONTEXT ( 'NONE', 'WORKASPACE' ) );
#27 = DIMENSIONAL_EXPONENTS ( 1.000000000000000000, 0.000000000000000000, 0.000000000000000000, 0.000000000000000000, 0.000000000000000000, 0.000000000000000000, 0.000000000000000000 ) ;
#28 = CARTESIAN_POINT ( 'NONE',  ( 1.224646799147353700E-16, 2.000000000000000000, 0.000000000000000000 ) ) ;
#29 = PRODUCT_DEFINITION_SHAPE ( 'NONE', 'NONE',  #256 ) ;
#30 = AXIS2_PLACEMENT_3D ( 'NONE', #55, #138, #219 ) ;
#31 = SURFACE_STYLE_USAGE ( .BOTH. , #115 ) ;
#32 = CARTESIAN_POINT ( 'NONE',  ( 0.000000000000000000, 0.09374999999999968081, 0.09374999999999998612 ) ) ;
#33 = DIRECTION ( 'NONE',  ( 1.148938068423855903E-16, -1.000000000000000000, 0.000000000000000000 ) ) ;
#34 = CARTESIAN_POINT ( 'NONE',  ( 0.000000000000000000, 0.000000000000000000, 0.000000000000000000 ) ) ;
#35 = DIRECTION ( 'NONE',  ( 1.000000000000000000, 0.000000000000000000, 0.000000000000000000 ) ) ;
#36 = FACE_OUTER_BOUND ( 'NONE', #166, .T. ) ;
#37 = DIRECTION ( 'NONE',  ( 0.000000000000000000, -0.000000000000000000, 1.000000000000000000 ) ) ;
#38 = AXIS2_PLACEMENT_3D ( 'NONE', #88, #152, #170 ) ;
#39 = DIRECTION ( 'NONE',  ( -1.148938068423855903E-16, 1.000000000000000000, -0.000000000000000000 ) ) ;
#40 = EDGE_CURVE ( 'NONE', #102, #124, #122, .T. ) ;
#41 = ORIENTED_EDGE ( 'NONE', *, *, #153, .F. ) ;
#42 = ORIENTED_EDGE ( 'NONE', *, *, #117, .F. ) ;
#43 = STYLED_ITEM ( 'NONE', ( #47 ), #58 ) ;
#44 = ADVANCED_FACE ( 'NONE', ( #9 ), #190, .T. ) ;
#45 = CARTESIAN_POINT ( 'NONE',  ( 3.414809992080329023E-16, 0.09374999999999968081, 0.000000000000000000 ) ) ;
#46 = CARTESIAN_POINT ( 'NONE',  ( -0.09374999999999962530, 2.000000000000000000, 0.000000000000000000 ) ) ;
#47 = PRESENTATION_STYLE_ASSIGNMENT (( #73 ) ) ;
#48 = DIMENSIONAL_EXPONENTS ( 1.000000000000000000, 0.000000000000000000, 0.000000000000000000, 0.000000000000000000, 0.000000000000000000, 0.000000000000000000, 0.000000000000000000 ) ;
#49 = CIRCLE ( 'NONE', #154, 0.09374999999999965306 ) ;
#50 =( NAMED_UNIT ( * ) PLANE_ANGLE_UNIT ( ) SI_UNIT ( $, .RADIAN. ) );
#51 =( NAMED_UNIT ( * ) PLANE_ANGLE_UNIT ( ) SI_UNIT ( $, .RADIAN. ) );
#52 = CARTESIAN_POINT ( 'NONE',  ( 1.224646799147353700E-16, 2.000000000000000000, 0.000000000000000000 ) ) ;
#53 = UNCERTAINTY_MEASURE_WITH_UNIT (LENGTH_MEASURE( 1.000000000000000082E-05 ), #253, 'distance_accuracy_value', 'NONE');
#54 = AXIS2_PLACEMENT_3D ( 'NONE', #220, #118, #236 ) ;
#55 = CARTESIAN_POINT ( 'NONE',  ( 3.414809992080329023E-16, 0.09374999999999979183, 0.000000000000000000 ) ) ;
#56 = CARTESIAN_POINT ( 'NONE',  ( 0.000000000000000000, 0.000000000000000000, 0.000000000000000000 ) ) ;
#57 = SURFACE_SIDE_STYLE ('',( #238 ) ) ;
#58 = MANIFOLD_SOLID_BREP ( 'Revolve - Cutting Edge', #13 ) ;
#59 = CARTESIAN_POINT ( 'NONE',  ( 0.09374999999999987510, 2.000000000000000000, 1.148106374200640627E-17 ) ) ;
#60 = ORIENTED_EDGE ( 'NONE', *, *, #40, .T. ) ;
#61 = ORIENTED_EDGE ( 'NONE', *, *, #92, .T. ) ;
#62 = AXIS2_PLACEMENT_3D ( 'NONE', #171, #33, #137 ) ;
#63 = CARTESIAN_POINT ( 'NONE',  ( 0.09374999999999998612, 0.09374999999999980571, 1.148106374200641398E-17 ) ) ;
#64 = ORIENTED_EDGE ( 'NONE', *, *, #250, .F. ) ;
#65 = FACE_OUTER_BOUND ( 'NONE', #121, .T. ) ;
#66 = MECHANICAL_DESIGN_GEOMETRIC_PRESENTATION_REPRESENTATION (  '', ( #206 ), #26 ) ;
#67 = MANIFOLD_SOLID_BREP ( 'Revolve - Tool Body (Pointed)', #148 ) ;
#68 = VECTOR ( 'NONE', #229, 39.37007874015748143 ) ;
#69 = SURFACE_STYLE_USAGE ( .BOTH. , #177 ) ;
#70 = DIMENSIONAL_EXPONENTS ( 1.000000000000000000, 0.000000000000000000, 0.000000000000000000, 0.000000000000000000, 0.000000000000000000, 0.000000000000000000, 0.000000000000000000 ) ;
#71 = FILL_AREA_STYLE_COLOUR ( '', #169 ) ;
#72 = SURFACE_STYLE_FILL_AREA ( #11 ) ;
#73 = SURFACE_STYLE_USAGE ( .BOTH. , #149 ) ;
#74 = CARTESIAN_POINT ( 'NONE',  ( 0.000000000000000000, 39.37007874015748143, 0.000000000000000000 ) ) ;
#75 = CARTESIAN_POINT ( 'NONE',  ( 0.000000000000000000, 0.000000000000000000, 0.000000000000000000 ) ) ;
#76 = LINE ( 'NONE', #59, #246 ) ;
#77 = MECHANICAL_DESIGN_GEOMETRIC_PRESENTATION_REPRESENTATION (  '', ( #43 ), #185 ) ;
#78 = AXIS2_PLACEMENT_3D ( 'NONE', #198, #257, #12 ) ;
#79 = PRESENTATION_LAYER_ASSIGNMENT (  '', '', ( #89 ) ) ;
#80 = EDGE_CURVE ( 'NONE', #20, #202, #207, .T. ) ;
#81 = CIRCLE ( 'NONE', #167, 0.09374999999999987510 ) ;
#82 = PRESENTATION_LAYER_ASSIGNMENT (  '', '', ( #43 ) ) ;
#83 = EDGE_LOOP ( 'NONE', ( #263, #245, #168 ) ) ;
#84 = CONICAL_SURFACE ( 'NONE', #54, 39.37007874015760933, 0.7853981633974499443 ) ;
#85 = ORIENTED_EDGE ( 'NONE', *, *, #250, .T. ) ;
#86 = AXIS2_PLACEMENT_3D ( 'NONE', #74, #7, #113 ) ;
#87 = PLANE ( 'NONE',  #62 ) ;
#88 = CARTESIAN_POINT ( 'NONE',  ( 0.000000000000000000, 0.09374999999999968081, 0.000000000000000000 ) ) ;
#89 = STYLED_ITEM ( 'NONE', ( #192 ), #239 ) ;
#90 = ADVANCED_FACE ( 'NONE', ( #65 ), #228, .F. ) ;
#91 = PRODUCT_DEFINITION_CONTEXT ( 'detailed design', #126, 'design' ) ;
#92 = EDGE_CURVE ( 'NONE', #226, #102, #248, .T. ) ;
#93 =( LENGTH_UNIT ( ) NAMED_UNIT ( * ) SI_UNIT ( $, .METRE. ) );
#94 = DIRECTION ( 'NONE',  ( -1.000000000000000000, 0.000000000000000000, 0.000000000000000000 ) ) ;
#95 = LINE ( 'NONE', #75, #262 ) ;
#96 =( LENGTH_UNIT ( ) NAMED_UNIT ( * ) SI_UNIT ( $, .METRE. ) );
#97 =( NAMED_UNIT ( * ) PLANE_ANGLE_UNIT ( ) SI_UNIT ( $, .RADIAN. ) );
#98 = ORIENTED_EDGE ( 'NONE', *, *, #80, .F. ) ;
#99 = DIRECTION ( 'NONE',  ( -1.148938068423855903E-16, 1.000000000000000000, -0.000000000000000000 ) ) ;
#100 = EDGE_CURVE ( 'NONE', #19, #226, #49, .T. ) ;
#101 = VERTEX_POINT ( 'NONE', #34 ) ;
#102 = VERTEX_POINT ( 'NONE', #16 ) ;
#103 = CARTESIAN_POINT ( 'NONE',  ( 0.000000000000000000, 0.09374999999999968081, 0.000000000000000000 ) ) ;
#104 = COLOUR_RGB ( '',0.7921568627450980005, 0.8196078431372548767, 0.9333333333333333481 ) ;
#105 = ORIENTED_EDGE ( 'NONE', *, *, #117, .T. ) ;
#106 =( NAMED_UNIT ( * ) SI_UNIT ( $, .STERADIAN. ) SOLID_ANGLE_UNIT ( ) );
#107 = FILL_AREA_STYLE ('',( #71 ) ) ;
#108 = AXIS2_PLACEMENT_3D ( 'NONE', #28, #172, #94 ) ;
#109 = DIRECTION ( 'NONE',  ( -1.148938068423855903E-16, 1.000000000000000000, -0.000000000000000000 ) ) ;
#110 = ADVANCED_FACE ( 'NONE', ( #36 ), #84, .T. ) ;
#111 = MECHANICAL_DESIGN_GEOMETRIC_PRESENTATION_REPRESENTATION (  '', ( #89 ), #112 ) ;
#112 =( GEOMETRIC_REPRESENTATION_CONTEXT ( 3 ) GLOBAL_UNCERTAINTY_ASSIGNED_CONTEXT ( ( #218 ) ) GLOBAL_UNIT_ASSIGNED_CONTEXT ( ( #156, #51, #106 ) ) REPRESENTATION_CONTEXT ( 'NONE', 'WORKASPACE' ) );
#113 = DIRECTION ( 'NONE',  ( 0.000000000000000000, 0.000000000000000000, 1.000000000000000000 ) ) ;
#114 = FACE_OUTER_BOUND ( 'NONE', #125, .T. ) ;
#115 = SURFACE_SIDE_STYLE ('',( #195 ) ) ;
#116 = CARTESIAN_POINT ( 'NONE',  ( 0.09374999999999998612, 2.000000000000000000, 1.148106374200641398E-17 ) ) ;
#117 = EDGE_CURVE ( 'NONE', #226, #19, #213, .T. ) ;
#118 = DIRECTION ( 'NONE',  ( 0.000000000000000000, 1.000000000000000000, 0.000000000000000000 ) ) ;
#119 = FILL_AREA_STYLE_COLOUR ( '', #227 ) ;
#120 =( GEOMETRIC_REPRESENTATION_CONTEXT ( 3 ) GLOBAL_UNCERTAINTY_ASSIGNED_CONTEXT ( ( #53 ) ) GLOBAL_UNIT_ASSIGNED_CONTEXT ( ( #253, #197, #234 ) ) REPRESENTATION_CONTEXT ( 'NONE', 'WORKASPACE' ) );
#121 = EDGE_LOOP ( 'NONE', ( #42, #244 ) ) ;
#122 = CIRCLE ( 'NONE', #174, 0.09374999999999987510 ) ;
#123 =( NAMED_UNIT ( * ) SI_UNIT ( $, .STERADIAN. ) SOLID_ANGLE_UNIT ( ) );
#124 = VERTEX_POINT ( 'NONE', #116 ) ;
#125 = EDGE_LOOP ( 'NONE', ( #64, #224, #61, #184 ) ) ;
#126 = APPLICATION_CONTEXT ( 'automotive_design' ) ;
#127 = DIRECTION ( 'NONE',  ( -1.148938068423855903E-16, 1.000000000000000000, -0.000000000000000000 ) ) ;
#128 = DIMENSIONAL_EXPONENTS ( 1.000000000000000000, 0.000000000000000000, 0.000000000000000000, 0.000000000000000000, 0.000000000000000000, 0.000000000000000000, 0.000000000000000000 ) ;
#129 = DIRECTION ( 'NONE',  ( -1.148938068423855903E-16, 1.000000000000000000, 0.000000000000000000 ) ) ;
#130 = CARTESIAN_POINT ( 'NONE',  ( 3.414809992080329023E-16, 0.09374999999999979183, 0.000000000000000000 ) ) ;
#131 = DIMENSIONAL_EXPONENTS ( 1.000000000000000000, 0.000000000000000000, 0.000000000000000000, 0.000000000000000000, 0.000000000000000000, 0.000000000000000000, 0.000000000000000000 ) ;
#132 =( LENGTH_UNIT ( ) NAMED_UNIT ( * ) SI_UNIT ( $, .METRE. ) );
#133 = PRESENTATION_LAYER_ASSIGNMENT (  '', '', ( #144 ) ) ;
#134 = PRODUCT ( '06120', '06120', '', ( #264 ) ) ;
#135 = SURFACE_STYLE_USAGE ( .BOTH. , #251 ) ;
#136 = LENGTH_MEASURE_WITH_UNIT ( LENGTH_MEASURE( 0.02539999999999999897 ), #93 );
#137 = DIRECTION ( 'NONE',  ( 1.000000000000000000, 1.148938068423855903E-16, 0.000000000000000000 ) ) ;
#138 = DIRECTION ( 'NONE',  ( -1.148938068423855903E-16, 1.000000000000000000, -0.000000000000000000 ) ) ;
#139 = APPLICATION_PROTOCOL_DEFINITION ( 'draft international standard', 'automotive_design', 1998, #21 ) ;
#140 = LENGTH_MEASURE_WITH_UNIT ( LENGTH_MEASURE( 0.02539999999999999897 ), #96 );
#141 = EDGE_LOOP ( 'NONE', ( #105, #85, #223, #247 ) ) ;
#142 = APPLICATION_PROTOCOL_DEFINITION ( 'draft international standard', 'automotive_design', 1998, #126 ) ;
#143 = COLOUR_RGB ( '',1.000000000000000000, 0.000000000000000000, 0.000000000000000000 ) ;
#144 = STYLED_ITEM ( 'NONE', ( #260 ), #110 ) ;
#145 = COLOUR_RGB ( '',1.000000000000000000, 0.000000000000000000, 0.000000000000000000 ) ;
#146 = CARTESIAN_POINT ( 'NONE',  ( 1.148106374200643555E-17, 0.09374999999999968081, -0.09374999999999998612 ) ) ;
#147 = PRODUCT_DEFINITION_FORMATION_WITH_SPECIFIED_SOURCE ( 'ANY', '', #134, .NOT_KNOWN. ) ;
#148 = CLOSED_SHELL ( 'NONE', ( #44, #90, #231, #181 ) ) ;
#149 = SURFACE_SIDE_STYLE ('',( #233 ) ) ;
#150 = EDGE_CURVE ( 'NONE', #202, #20, #193, .T. ) ;
#151 = CARTESIAN_POINT ( 'NONE',  ( -0.09374999999999930611, 0.09374999999999976408, 0.000000000000000000 ) ) ;
#152 = DIRECTION ( 'NONE',  ( -0.000000000000000000, -1.000000000000000000, -0.000000000000000000 ) ) ;
#153 = EDGE_CURVE ( 'NONE', #101, #202, #95, .T. ) ;
#154 = AXIS2_PLACEMENT_3D ( 'NONE', #130, #25, #259 ) ;
#155 = MECHANICAL_DESIGN_GEOMETRIC_PRESENTATION_REPRESENTATION (  '', ( #144 ), #15 ) ;
#156 =( CONVERSION_BASED_UNIT ( 'INCH', #215 ) LENGTH_UNIT ( ) NAMED_UNIT ( #128 ) );
#157 = FACE_OUTER_BOUND ( 'NONE', #18, .T. ) ;
#158 = UNCERTAINTY_MEASURE_WITH_UNIT (LENGTH_MEASURE( 1.000000000000000082E-05 ), #162, 'distance_accuracy_value', 'NONE');
#159 = AXIS2_PLACEMENT_3D ( 'NONE', #45, #129, #211 ) ;
#160 = PLANE ( 'NONE',  #258 ) ;
#161 = LINE ( 'NONE', #175, #68 ) ;
#162 =( CONVERSION_BASED_UNIT ( 'INCH', #140 ) LENGTH_UNIT ( ) NAMED_UNIT ( #4 ) );
#163 =( CONVERSION_BASED_UNIT ( 'INCH', #222 ) LENGTH_UNIT ( ) NAMED_UNIT ( #48 ) );
#164 =( NAMED_UNIT ( * ) SI_UNIT ( $, .STERADIAN. ) SOLID_ANGLE_UNIT ( ) );
#165 = DIRECTION ( 'NONE',  ( 0.000000000000000000, 0.000000000000000000, 1.000000000000000000 ) ) ;
#166 = EDGE_LOOP ( 'NONE', ( #41, #205, #225 ) ) ;
#167 = AXIS2_PLACEMENT_3D ( 'NONE', #241, #99, #182 ) ;
#168 = ORIENTED_EDGE ( 'NONE', *, *, #150, .T. ) ;
#169 = COLOUR_RGB ( '',0.7921568627450980005, 0.8196078431372548767, 0.9333333333333333481 ) ;
#170 = DIRECTION ( 'NONE',  ( 0.000000000000000000, 0.000000000000000000, -1.000000000000000000 ) ) ;
#171 = CARTESIAN_POINT ( 'NONE',  ( 0.09374999999999998612, 2.000000000000000000, 0.000000000000000000 ) ) ;
#172 = DIRECTION ( 'NONE',  ( -1.148938068423855903E-16, 1.000000000000000000, -0.000000000000000000 ) ) ;
#173 =( NAMED_UNIT ( * ) PLANE_ANGLE_UNIT ( ) SI_UNIT ( $, .RADIAN. ) );
#174 = AXIS2_PLACEMENT_3D ( 'NONE', #186, #109, #212 ) ;
#175 = CARTESIAN_POINT ( 'NONE',  ( 0.000000000000000000, 0.000000000000000000, 0.000000000000000000 ) ) ;
#176 = FILL_AREA_STYLE ('',( #209 ) ) ;
#177 = SURFACE_SIDE_STYLE ('',( #214 ) ) ;
#178 = UNCERTAINTY_MEASURE_WITH_UNIT (LENGTH_MEASURE( 1.000000000000000082E-05 ), #163, 'distance_accuracy_value', 'NONE');
#179 = CYLINDRICAL_SURFACE ( 'NONE', #24, 0.09374999999999975020 ) ;
#180 = MECHANICAL_DESIGN_GEOMETRIC_PRESENTATION_REPRESENTATION (  '', ( #217 ), #120 ) ;
#181 = ADVANCED_FACE ( 'NONE', ( #237 ), #87, .F. ) ;
#182 = DIRECTION ( 'NONE',  ( -1.000000000000000000, 0.000000000000000000, 0.000000000000000000 ) ) ;
#183 = ORIENTED_EDGE ( 'NONE', *, *, #243, .T. ) ;
#184 = ORIENTED_EDGE ( 'NONE', *, *, #243, .F. ) ;
#185 =( GEOMETRIC_REPRESENTATION_CONTEXT ( 3 ) GLOBAL_UNCERTAINTY_ASSIGNED_CONTEXT ( ( #10 ) ) GLOBAL_UNIT_ASSIGNED_CONTEXT ( ( #196, #50, #191 ) ) REPRESENTATION_CONTEXT ( 'NONE', 'WORKASPACE' ) );
#186 = CARTESIAN_POINT ( 'NONE',  ( 1.224646799147353700E-16, 2.000000000000000000, 0.000000000000000000 ) ) ;
#187 = EDGE_CURVE ( 'NONE', #101, #20, #161, .T. ) ;
#188 =( LENGTH_UNIT ( ) NAMED_UNIT ( * ) SI_UNIT ( $, .METRE. ) );
#189 =( CONVERSION_BASED_UNIT ( 'INCH', #254 ) LENGTH_UNIT ( ) NAMED_UNIT ( #27 ) );
#190 = CYLINDRICAL_SURFACE ( 'NONE', #108, 0.09374999999999975020 ) ;
#191 =( NAMED_UNIT ( * ) SI_UNIT ( $, .STERADIAN. ) SOLID_ANGLE_UNIT ( ) );
#192 = PRESENTATION_STYLE_ASSIGNMENT (( #135 ) ) ;
#193 = CIRCLE ( 'NONE', #78, 0.09374999999999998612 ) ;
#194 = ADVANCED_FACE ( 'NONE', ( #216 ), #17, .T. ) ;
#195 = SURFACE_STYLE_FILL_AREA ( #176 ) ;
#196 =( CONVERSION_BASED_UNIT ( 'INCH', #249 ) LENGTH_UNIT ( ) NAMED_UNIT ( #70 ) );
#197 =( NAMED_UNIT ( * ) PLANE_ANGLE_UNIT ( ) SI_UNIT ( $, .RADIAN. ) );
#198 = CARTESIAN_POINT ( 'NONE',  ( 0.000000000000000000, 0.09374999999999968081, 0.000000000000000000 ) ) ;
#199 = SURFACE_STYLE_USAGE ( .BOTH. , #57 ) ;
#200 =( NAMED_UNIT ( * ) PLANE_ANGLE_UNIT ( ) SI_UNIT ( $, .RADIAN. ) );
#201 =( LENGTH_UNIT ( ) NAMED_UNIT ( * ) SI_UNIT ( $, .METRE. ) );
#202 = VERTEX_POINT ( 'NONE', #32 ) ;
#203 = DIRECTION ( 'NONE',  ( 0.000000000000000000, 1.000000000000000000, 0.000000000000000000 ) ) ;
#204 = ORIENTED_EDGE ( 'NONE', *, *, #150, .F. ) ;
#205 = ORIENTED_EDGE ( 'NONE', *, *, #187, .T. ) ;
#206 = STYLED_ITEM ( 'NONE', ( #230 ), #67 ) ;
#207 = CIRCLE ( 'NONE', #38, 0.09374999999999998612 ) ;
#208 =( NAMED_UNIT ( * ) SI_UNIT ( $, .STERADIAN. ) SOLID_ANGLE_UNIT ( ) );
#209 = FILL_AREA_STYLE_COLOUR ( '', #145 ) ;
#210 = DIRECTION ( 'NONE',  ( -1.148938068423855903E-16, 1.000000000000000000, -0.000000000000000000 ) ) ;
#211 = DIRECTION ( 'NONE',  ( -1.000000000000000000, -1.148938068423855903E-16, 0.000000000000000000 ) ) ;
#212 = DIRECTION ( 'NONE',  ( -1.000000000000000000, 0.000000000000000000, 0.000000000000000000 ) ) ;
#213 = CIRCLE ( 'NONE', #30, 0.09374999999999965306 ) ;
#214 = SURFACE_STYLE_FILL_AREA ( #5 ) ;
#215 = LENGTH_MEASURE_WITH_UNIT ( LENGTH_MEASURE( 0.02539999999999999897 ), #22 );
#216 = FACE_OUTER_BOUND ( 'NONE', #83, .T. ) ;
#217 = STYLED_ITEM ( 'NONE', ( #8 ), #194 ) ;
#218 = UNCERTAINTY_MEASURE_WITH_UNIT (LENGTH_MEASURE( 1.000000000000000082E-05 ), #156, 'distance_accuracy_value', 'NONE');
#219 = DIRECTION ( 'NONE',  ( -1.000000000000000000, -1.821231995776182135E-16, 0.000000000000000000 ) ) ;
#220 = CARTESIAN_POINT ( 'NONE',  ( 0.000000000000000000, 39.37007874015748143, 0.000000000000000000 ) ) ;
#221 = FILL_AREA_STYLE ('',( #119 ) ) ;
#222 = LENGTH_MEASURE_WITH_UNIT ( LENGTH_MEASURE( 0.02539999999999999897 ), #201 );
#223 = ORIENTED_EDGE ( 'NONE', *, *, #40, .F. ) ;
#224 = ORIENTED_EDGE ( 'NONE', *, *, #100, .T. ) ;
#225 = ORIENTED_EDGE ( 'NONE', *, *, #80, .T. ) ;
#226 = VERTEX_POINT ( 'NONE', #151 ) ;
#227 = COLOUR_RGB ( '',1.000000000000000000, 0.000000000000000000, 0.000000000000000000 ) ;
#228 = PLANE ( 'NONE',  #159 ) ;
#229 = DIRECTION ( 'NONE',  ( 8.659560562354947649E-17, 0.7071067811865463515, -0.7071067811865486830 ) ) ;
#230 = PRESENTATION_STYLE_ASSIGNMENT (( #69 ) ) ;
#231 = ADVANCED_FACE ( 'NONE', ( #114 ), #179, .T. ) ;
#232 = UNCERTAINTY_MEASURE_WITH_UNIT (LENGTH_MEASURE( 1.000000000000000082E-05 ), #189, 'distance_accuracy_value', 'NONE');
#233 = SURFACE_STYLE_FILL_AREA ( #107 ) ;
#234 =( NAMED_UNIT ( * ) SI_UNIT ( $, .STERADIAN. ) SOLID_ANGLE_UNIT ( ) );
#235 = FILL_AREA_STYLE_COLOUR ( '', #143 ) ;
#236 = DIRECTION ( 'NONE',  ( 0.000000000000000000, 0.000000000000000000, 1.000000000000000000 ) ) ;
#237 = FACE_OUTER_BOUND ( 'NONE', #242, .T. ) ;
#238 = SURFACE_STYLE_FILL_AREA ( #221 ) ;
#239 = ADVANCED_FACE ( 'NONE', ( #157 ), #160, .T. ) ;
#240 = VECTOR ( 'NONE', #210, 39.37007874015748143 ) ;
#241 = CARTESIAN_POINT ( 'NONE',  ( 1.224646799147353700E-16, 2.000000000000000000, 0.000000000000000000 ) ) ;
#242 = EDGE_LOOP ( 'NONE', ( #60, #183 ) ) ;
#243 = EDGE_CURVE ( 'NONE', #124, #102, #81, .T. ) ;
#244 = ORIENTED_EDGE ( 'NONE', *, *, #100, .F. ) ;
#245 = ORIENTED_EDGE ( 'NONE', *, *, #153, .T. ) ;
#246 = VECTOR ( 'NONE', #39, 39.37007874015748143 ) ;
#247 = ORIENTED_EDGE ( 'NONE', *, *, #92, .F. ) ;
#248 = LINE ( 'NONE', #46, #240 ) ;
#249 = LENGTH_MEASURE_WITH_UNIT ( LENGTH_MEASURE( 0.02539999999999999897 ), #188 );
#250 = EDGE_CURVE ( 'NONE', #19, #124, #76, .T. ) ;
#251 = SURFACE_SIDE_STYLE ('',( #72 ) ) ;
#252 = DIRECTION ( 'NONE',  ( -1.000000000000000000, 0.000000000000000000, 0.000000000000000000 ) ) ;
#253 =( CONVERSION_BASED_UNIT ( 'INCH', #136 ) LENGTH_UNIT ( ) NAMED_UNIT ( #131 ) );
#254 = LENGTH_MEASURE_WITH_UNIT ( LENGTH_MEASURE( 0.02539999999999999897 ), #132 );
#255 = PRESENTATION_LAYER_ASSIGNMENT (  '', '', ( #206 ) ) ;
#256 = PRODUCT_DEFINITION ( 'UNKNOWN', '', #147, #91 ) ;
#257 = DIRECTION ( 'NONE',  ( -0.000000000000000000, -1.000000000000000000, -0.000000000000000000 ) ) ;
#258 = AXIS2_PLACEMENT_3D ( 'NONE', #103, #203, #37 ) ;
#259 = DIRECTION ( 'NONE',  ( -1.000000000000000000, -1.821231995776182135E-16, 0.000000000000000000 ) ) ;
#260 = PRESENTATION_STYLE_ASSIGNMENT (( #199 ) ) ;
#261 = PRODUCT_RELATED_PRODUCT_CATEGORY ( 'part', '', ( #134 ) ) ;
#262 = VECTOR ( 'NONE', #1, 39.37007874015748143 ) ;
#263 = ORIENTED_EDGE ( 'NONE', *, *, #187, .F. ) ;
#264 = PRODUCT_CONTEXT ( 'NONE', #21, 'mechanical' ) ;
#265 = ADVANCED_BREP_SHAPE_REPRESENTATION ( '06120', ( #58, #67, #6 ), #23 ) ;
ENDSEC;
END-ISO-10303-21;
