ISO-10303-21;
HEADER;
FILE_DESCRIPTION (( 'STEP AP214' ),
    '1' );
FILE_NAME ('59941.STEP',
    '2023-06-23T00:07:12',
    ( '' ),
    ( '' ),
    'SwSTEP 2.0',
    'SolidWorks 2023',
    '' );
FILE_SCHEMA (( 'AUTOMOTIVE_DESIGN' ));
ENDSEC;

DATA;
#1 = PRESENTATION_LAYER_ASSIGNMENT (  '', '', ( #129 ) ) ;
#2 = EDGE_CURVE ( 'NONE', #10, #87, #120, .T. ) ;
#3 = SURFACE_STYLE_USAGE ( .BOTH. , #291 ) ;
#4 = CARTESIAN_POINT ( 'NONE',  ( 0.000000000000000000, 0.7500000000000001110, -0.1250000000000000000 ) ) ;
#5 = CARTESIAN_POINT ( 'NONE',  ( 1.530808498934191509E-17, 0.7500000000000001110, 0.1250000000000000000 ) ) ;
#6 = SURFACE_STYLE_FILL_AREA ( #168 ) ;
#7 =( NAMED_UNIT ( * ) PLANE_ANGLE_UNIT ( ) SI_UNIT ( $, .RADIAN. ) );
#8 = FACE_OUTER_BOUND ( 'NONE', #181, .T. ) ;
#9 =( GEOMETRIC_REPRESENTATION_CONTEXT ( 3 ) GLOBAL_UNCERTAINTY_ASSIGNED_CONTEXT ( ( #289 ) ) GLOBAL_UNIT_ASSIGNED_CONTEXT ( ( #205, #40, #21 ) ) REPRESENTATION_CONTEXT ( 'NONE', 'WORKASPACE' ) );
#10 = VERTEX_POINT ( 'NONE', #270 ) ;
#11 =( GEOMETRIC_REPRESENTATION_CONTEXT ( 3 ) GLOBAL_UNCERTAINTY_ASSIGNED_CONTEXT ( ( #293 ) ) GLOBAL_UNIT_ASSIGNED_CONTEXT ( ( #111, #85, #68 ) ) REPRESENTATION_CONTEXT ( 'NONE', 'WORKASPACE' ) );
#12 = AXIS2_PLACEMENT_3D ( 'NONE', #207, #42, #182 ) ;
#13 = PLANE ( 'NONE',  #245 ) ;
#14 = CARTESIAN_POINT ( 'NONE',  ( 0.000000000000000000, 0.000000000000000000, 0.000000000000000000 ) ) ;
#15 = CYLINDRICAL_SURFACE ( 'NONE', #79, 0.1250000000000000278 ) ;
#16 = CIRCLE ( 'NONE', #237, 0.1250000000000000000 ) ;
#17 = LENGTH_MEASURE_WITH_UNIT ( LENGTH_MEASURE( 0.02539999999999999897 ), #271 );
#18 =( LENGTH_UNIT ( ) NAMED_UNIT ( * ) SI_UNIT ( $, .METRE. ) );
#19 = ORIENTED_EDGE ( 'NONE', *, *, #29, .T. ) ;
#20 = ORIENTED_EDGE ( 'NONE', *, *, #217, .F. ) ;
#21 =( NAMED_UNIT ( * ) SI_UNIT ( $, .STERADIAN. ) SOLID_ANGLE_UNIT ( ) );
#22 = SURFACE_STYLE_FILL_AREA ( #231 ) ;
#23 = VERTEX_POINT ( 'NONE', #277 ) ;
#24 =( GEOMETRIC_REPRESENTATION_CONTEXT ( 3 ) GLOBAL_UNCERTAINTY_ASSIGNED_CONTEXT ( ( #62 ) ) GLOBAL_UNIT_ASSIGNED_CONTEXT ( ( #216, #196, #257 ) ) REPRESENTATION_CONTEXT ( 'NONE', 'WORKASPACE' ) );
#25 = FILL_AREA_STYLE ('',( #234 ) ) ;
#26 = SHAPE_DEFINITION_REPRESENTATION ( #279, #251 ) ;
#27 = CYLINDRICAL_SURFACE ( 'NONE', #199, 0.1250000000000000000 ) ;
#28 = FACE_OUTER_BOUND ( 'NONE', #226, .T. ) ;
#29 = EDGE_CURVE ( 'NONE', #254, #115, #16, .T. ) ;
#30 =( GEOMETRIC_REPRESENTATION_CONTEXT ( 3 ) GLOBAL_UNCERTAINTY_ASSIGNED_CONTEXT ( ( #97 ) ) GLOBAL_UNIT_ASSIGNED_CONTEXT ( ( #258, #260, #48 ) ) REPRESENTATION_CONTEXT ( 'NONE', 'WORKASPACE' ) );
#31 = CARTESIAN_POINT ( 'NONE',  ( -6.123233995736766036E-17, 2.500000000000000000, 0.000000000000000000 ) ) ;
#32 =( NAMED_UNIT ( * ) PLANE_ANGLE_UNIT ( ) SI_UNIT ( $, .RADIAN. ) );
#33 = DIRECTION ( 'NONE',  ( 0.000000000000000000, 1.000000000000000000, 0.000000000000000000 ) ) ;
#34 = CARTESIAN_POINT ( 'NONE',  ( 7.651835625825800871E-35, 0.7500000000000001110, 0.000000000000000000 ) ) ;
#35 = ADVANCED_FACE ( 'NONE', ( #179 ), #247, .T. ) ;
#36 = SURFACE_STYLE_USAGE ( .BOTH. , #301 ) ;
#37 = DIRECTION ( 'NONE',  ( -3.498990854706722745E-17, 1.000000000000000000, -0.000000000000000000 ) ) ;
#38 = EDGE_LOOP ( 'NONE', ( #76, #185, #244, #267 ) ) ;
#39 = CARTESIAN_POINT ( 'NONE',  ( 0.000000000000000000, 0.000000000000000000, 0.000000000000000000 ) ) ;
#40 =( NAMED_UNIT ( * ) PLANE_ANGLE_UNIT ( ) SI_UNIT ( $, .RADIAN. ) );
#41 = CARTESIAN_POINT ( 'NONE',  ( -7.582401355855259480E-33, 0.7499999999999998890, 0.000000000000000000 ) ) ;
#42 = DIRECTION ( 'NONE',  ( -3.498990854706722745E-17, 1.000000000000000000, -0.000000000000000000 ) ) ;
#43 = APPLICATION_CONTEXT ( 'automotive_design' ) ;
#44 = DIRECTION ( 'NONE',  ( 0.000000000000000000, 0.000000000000000000, -1.000000000000000000 ) ) ;
#45 = EDGE_LOOP ( 'NONE', ( #177, #110 ) ) ;
#46 = FILL_AREA_STYLE ('',( #53 ) ) ;
#47 = CARTESIAN_POINT ( 'NONE',  ( 0.000000000000000000, 0.7500000000000001110, 0.000000000000000000 ) ) ;
#48 =( NAMED_UNIT ( * ) SI_UNIT ( $, .STERADIAN. ) SOLID_ANGLE_UNIT ( ) );
#49 = SURFACE_STYLE_FILL_AREA ( #294 ) ;
#50 = DIMENSIONAL_EXPONENTS ( 1.000000000000000000, 0.000000000000000000, 0.000000000000000000, 0.000000000000000000, 0.000000000000000000, 0.000000000000000000, 0.000000000000000000 ) ;
#51 = CARTESIAN_POINT ( 'NONE',  ( 0.1250000000000000000, 2.500000000000000000, 0.000000000000000000 ) ) ;
#52 = PRESENTATION_LAYER_ASSIGNMENT (  '', '', ( #107 ) ) ;
#53 = FILL_AREA_STYLE_COLOUR ( '', #304 ) ;
#54 = SURFACE_STYLE_USAGE ( .BOTH. , #243 ) ;
#55 = DIMENSIONAL_EXPONENTS ( 1.000000000000000000, 0.000000000000000000, 0.000000000000000000, 0.000000000000000000, 0.000000000000000000, 0.000000000000000000, 0.000000000000000000 ) ;
#56 = UNCERTAINTY_MEASURE_WITH_UNIT (LENGTH_MEASURE( 1.000000000000000082E-05 ), #201, 'distance_accuracy_value', 'NONE');
#57 = CARTESIAN_POINT ( 'NONE',  ( -0.1250000000000001388, 2.500000000000000000, 0.000000000000000000 ) ) ;
#58 = AXIS2_PLACEMENT_3D ( 'NONE', #136, #176, #206 ) ;
#59 = ADVANCED_FACE ( 'NONE', ( #308 ), #27, .T. ) ;
#60 = SURFACE_STYLE_FILL_AREA ( #25 ) ;
#61 = ORIENTED_EDGE ( 'NONE', *, *, #77, .F. ) ;
#62 = UNCERTAINTY_MEASURE_WITH_UNIT (LENGTH_MEASURE( 1.000000000000000082E-05 ), #216, 'distance_accuracy_value', 'NONE');
#63 = VECTOR ( 'NONE', #133, 39.37007874015748143 ) ;
#64 = PRODUCT_CONTEXT ( 'NONE', #43, 'mechanical' ) ;
#65 = DIRECTION ( 'NONE',  ( -0.000000000000000000, -1.000000000000000000, -0.000000000000000000 ) ) ;
#66 = ORIENTED_EDGE ( 'NONE', *, *, #217, .T. ) ;
#67 = LINE ( 'NONE', #132, #63 ) ;
#68 =( NAMED_UNIT ( * ) SI_UNIT ( $, .STERADIAN. ) SOLID_ANGLE_UNIT ( ) );
#69 = DIRECTION ( 'NONE',  ( -3.498990854706722745E-17, 1.000000000000000000, -0.000000000000000000 ) ) ;
#70 = CYLINDRICAL_SURFACE ( 'NONE', #236, 0.1250000000000000278 ) ;
#71 = DIRECTION ( 'NONE',  ( -1.000000000000000000, 0.000000000000000000, 0.000000000000000000 ) ) ;
#72 = STYLED_ITEM ( 'NONE', ( #204 ), #149 ) ;
#73 = CIRCLE ( 'NONE', #180, 0.1250000000000000000 ) ;
#74 = PRODUCT_DEFINITION_CONTEXT ( 'detailed design', #142, 'design' ) ;
#75 = PRESENTATION_STYLE_ASSIGNMENT (( #54 ) ) ;
#76 = ORIENTED_EDGE ( 'NONE', *, *, #116, .F. ) ;
#77 = EDGE_CURVE ( 'NONE', #262, #23, #242, .T. ) ;
#78 = FILL_AREA_STYLE_COLOUR ( '', #275 ) ;
#79 = AXIS2_PLACEMENT_3D ( 'NONE', #162, #37, #302 ) ;
#80 = CARTESIAN_POINT ( 'NONE',  ( 1.530808498934191509E-17, 0.000000000000000000, 0.1250000000000000000 ) ) ;
#81 = EDGE_CURVE ( 'NONE', #246, #115, #67, .T. ) ;
#82 =( GEOMETRIC_REPRESENTATION_CONTEXT ( 3 ) GLOBAL_UNCERTAINTY_ASSIGNED_CONTEXT ( ( #174 ) ) GLOBAL_UNIT_ASSIGNED_CONTEXT ( ( #191, #98, #284 ) ) REPRESENTATION_CONTEXT ( 'NONE', 'WORKASPACE' ) );
#83 = FACE_OUTER_BOUND ( 'NONE', #276, .T. ) ;
#84 = ORIENTED_EDGE ( 'NONE', *, *, #141, .F. ) ;
#85 =( NAMED_UNIT ( * ) PLANE_ANGLE_UNIT ( ) SI_UNIT ( $, .RADIAN. ) );
#86 = PRESENTATION_LAYER_ASSIGNMENT (  '', '', ( #252 ) ) ;
#87 = VERTEX_POINT ( 'NONE', #272 ) ;
#88 = MECHANICAL_DESIGN_GEOMETRIC_PRESENTATION_REPRESENTATION (  '', ( #107 ), #11 ) ;
#89 = STYLED_ITEM ( 'NONE', ( #75 ), #266 ) ;
#90 = ORIENTED_EDGE ( 'NONE', *, *, #155, .T. ) ;
#91 = DIRECTION ( 'NONE',  ( -0.000000000000000000, -1.000000000000000000, -0.000000000000000000 ) ) ;
#92 = EDGE_CURVE ( 'NONE', #87, #10, #259, .T. ) ;
#93 =( LENGTH_UNIT ( ) NAMED_UNIT ( * ) SI_UNIT ( $, .METRE. ) );
#94 = PRODUCT_DEFINITION_FORMATION_WITH_SPECIFIED_SOURCE ( 'ANY', '', #307, .NOT_KNOWN. ) ;
#95 = PRESENTATION_STYLE_ASSIGNMENT (( #146 ) ) ;
#96 = PRESENTATION_STYLE_ASSIGNMENT (( #119 ) ) ;
#97 = UNCERTAINTY_MEASURE_WITH_UNIT (LENGTH_MEASURE( 1.000000000000000082E-05 ), #258, 'distance_accuracy_value', 'NONE');
#98 =( NAMED_UNIT ( * ) PLANE_ANGLE_UNIT ( ) SI_UNIT ( $, .RADIAN. ) );
#99 = CARTESIAN_POINT ( 'NONE',  ( -6.123233995736766036E-17, 2.500000000000000000, 0.000000000000000000 ) ) ;
#100 = MECHANICAL_DESIGN_GEOMETRIC_PRESENTATION_REPRESENTATION (  '', ( #89 ), #222 ) ;
#101 = LENGTH_MEASURE_WITH_UNIT ( LENGTH_MEASURE( 0.02539999999999999897 ), #192 );
#102 = EDGE_LOOP ( 'NONE', ( #281, #264, #232, #230 ) ) ;
#103 = FACE_OUTER_BOUND ( 'NONE', #45, .T. ) ;
#104 = PRODUCT_RELATED_PRODUCT_CATEGORY ( 'part', '', ( #307 ) ) ;
#105 = CARTESIAN_POINT ( 'NONE',  ( 0.000000000000000000, 0.7500000000000001110, 0.000000000000000000 ) ) ;
#106 = COLOUR_RGB ( '',0.7921568627450980005, 0.8196078431372548767, 0.9333333333333333481 ) ;
#107 = STYLED_ITEM ( 'NONE', ( #210 ), #35 ) ;
#108 = DIRECTION ( 'NONE',  ( -3.498990854706722745E-17, 1.000000000000000000, 0.000000000000000000 ) ) ;
#109 = LINE ( 'NONE', #228, #153 ) ;
#110 = ORIENTED_EDGE ( 'NONE', *, *, #163, .F. ) ;
#111 =( CONVERSION_BASED_UNIT ( 'INCH', #17 ) LENGTH_UNIT ( ) NAMED_UNIT ( #127 ) );
#112 = CARTESIAN_POINT ( 'NONE',  ( 0.000000000000000000, 0.000000000000000000, 0.000000000000000000 ) ) ;
#113 = AXIS2_PLACEMENT_3D ( 'NONE', #34, #108, #147 ) ;
#114 = CIRCLE ( 'NONE', #159, 0.1250000000000000000 ) ;
#115 = VERTEX_POINT ( 'NONE', #188 ) ;
#116 = EDGE_CURVE ( 'NONE', #224, #254, #297, .T. ) ;
#117 = DIRECTION ( 'NONE',  ( -3.498990854706722745E-17, 1.000000000000000000, -0.000000000000000000 ) ) ;
#118 = LENGTH_MEASURE_WITH_UNIT ( LENGTH_MEASURE( 0.02539999999999999897 ), #166 );
#119 = SURFACE_STYLE_USAGE ( .BOTH. , #193 ) ;
#120 = CIRCLE ( 'NONE', #158, 0.1250000000000000000 ) ;
#121 = FILL_AREA_STYLE_COLOUR ( '', #274 ) ;
#122 = SURFACE_STYLE_FILL_AREA ( #282 ) ;
#123 = ADVANCED_FACE ( 'NONE', ( #83 ), #15, .T. ) ;
#124 =( CONVERSION_BASED_UNIT ( 'INCH', #219 ) LENGTH_UNIT ( ) NAMED_UNIT ( #173 ) );
#125 = DIMENSIONAL_EXPONENTS ( 1.000000000000000000, 0.000000000000000000, 0.000000000000000000, 0.000000000000000000, 0.000000000000000000, 0.000000000000000000, 0.000000000000000000 ) ;
#126 =( LENGTH_UNIT ( ) NAMED_UNIT ( * ) SI_UNIT ( $, .METRE. ) );
#127 = DIMENSIONAL_EXPONENTS ( 1.000000000000000000, 0.000000000000000000, 0.000000000000000000, 0.000000000000000000, 0.000000000000000000, 0.000000000000000000, 0.000000000000000000 ) ;
#128 = MECHANICAL_DESIGN_GEOMETRIC_PRESENTATION_REPRESENTATION (  '', ( #252 ), #30 ) ;
#129 = STYLED_ITEM ( 'NONE', ( #95 ), #184 ) ;
#130 = EDGE_CURVE ( 'NONE', #10, #262, #157, .T. ) ;
#131 = CARTESIAN_POINT ( 'NONE',  ( -6.123233995736766036E-17, 2.500000000000000000, 0.000000000000000000 ) ) ;
#132 = CARTESIAN_POINT ( 'NONE',  ( 0.000000000000000000, 0.000000000000000000, -0.1250000000000000000 ) ) ;
#133 = DIRECTION ( 'NONE',  ( -0.000000000000000000, -1.000000000000000000, -0.000000000000000000 ) ) ;
#134 = FILL_AREA_STYLE_COLOUR ( '', #296 ) ;
#135 = ORIENTED_EDGE ( 'NONE', *, *, #130, .T. ) ;
#136 = CARTESIAN_POINT ( 'NONE',  ( 0.000000000000000000, 0.000000000000000000, 0.000000000000000000 ) ) ;
#137 = DIRECTION ( 'NONE',  ( 0.000000000000000000, 0.000000000000000000, -1.000000000000000000 ) ) ;
#138 = STYLED_ITEM ( 'NONE', ( #239 ), #59 ) ;
#139 = SURFACE_SIDE_STYLE ('',( #122 ) ) ;
#140 = DIRECTION ( 'NONE',  ( -1.000000000000000000, 0.000000000000000000, 0.000000000000000000 ) ) ;
#141 = EDGE_CURVE ( 'NONE', #87, #23, #109, .T. ) ;
#142 = APPLICATION_CONTEXT ( 'automotive_design' ) ;
#143 = VECTOR ( 'NONE', #65, 39.37007874015748143 ) ;
#144 = DIRECTION ( 'NONE',  ( 0.000000000000000000, 0.000000000000000000, -1.000000000000000000 ) ) ;
#145 = APPLICATION_PROTOCOL_DEFINITION ( 'draft international standard', 'automotive_design', 1998, #142 ) ;
#146 = SURFACE_STYLE_USAGE ( .BOTH. , #139 ) ;
#147 = DIRECTION ( 'NONE',  ( -1.000000000000000000, -3.498990854706722745E-17, 0.000000000000000000 ) ) ;
#148 = DIRECTION ( 'NONE',  ( 1.000000000000000000, 3.498990854706722745E-17, 0.000000000000000000 ) ) ;
#149 = MANIFOLD_SOLID_BREP ( 'Revolve - Cutting Edge', #203 ) ;
#150 = ORIENTED_EDGE ( 'NONE', *, *, #2, .F. ) ;
#151 = LENGTH_MEASURE_WITH_UNIT ( LENGTH_MEASURE( 0.02539999999999999897 ), #126 );
#152 = PRESENTATION_LAYER_ASSIGNMENT (  '', '', ( #138 ) ) ;
#153 = VECTOR ( 'NONE', #178, 39.37007874015748143 ) ;
#154 = DIRECTION ( 'NONE',  ( -0.000000000000000000, -1.000000000000000000, -0.000000000000000000 ) ) ;
#155 = EDGE_CURVE ( 'NONE', #115, #254, #73, .T. ) ;
#156 = ORIENTED_EDGE ( 'NONE', *, *, #77, .T. ) ;
#157 = LINE ( 'NONE', #186, #238 ) ;
#158 = AXIS2_PLACEMENT_3D ( 'NONE', #41, #175, #299 ) ;
#159 = AXIS2_PLACEMENT_3D ( 'NONE', #306, #91, #167 ) ;
#160 = SURFACE_SIDE_STYLE ('',( #60 ) ) ;
#161 = ORIENTED_EDGE ( 'NONE', *, *, #92, .F. ) ;
#162 = CARTESIAN_POINT ( 'NONE',  ( -6.123233995736766036E-17, 2.500000000000000000, 0.000000000000000000 ) ) ;
#163 = EDGE_CURVE ( 'NONE', #224, #246, #114, .T. ) ;
#164 = FILL_AREA_STYLE_COLOUR ( '', #106 ) ;
#165 = CLOSED_SHELL ( 'NONE', ( #123, #295, #241, #273 ) ) ;
#166 =( LENGTH_UNIT ( ) NAMED_UNIT ( * ) SI_UNIT ( $, .METRE. ) );
#167 = DIRECTION ( 'NONE',  ( 0.000000000000000000, 0.000000000000000000, -1.000000000000000000 ) ) ;
#168 = FILL_AREA_STYLE ('',( #164 ) ) ;
#169 = AXIS2_PLACEMENT_3D ( 'NONE', #187, #171, #144 ) ;
#170 = FACE_OUTER_BOUND ( 'NONE', #255, .T. ) ;
#171 = DIRECTION ( 'NONE',  ( -0.000000000000000000, -1.000000000000000000, -0.000000000000000000 ) ) ;
#172 = PRESENTATION_LAYER_ASSIGNMENT (  '', '', ( #72 ) ) ;
#173 = DIMENSIONAL_EXPONENTS ( 1.000000000000000000, 0.000000000000000000, 0.000000000000000000, 0.000000000000000000, 0.000000000000000000, 0.000000000000000000, 0.000000000000000000 ) ;
#174 = UNCERTAINTY_MEASURE_WITH_UNIT (LENGTH_MEASURE( 1.000000000000000082E-05 ), #191, 'distance_accuracy_value', 'NONE');
#175 = DIRECTION ( 'NONE',  ( -3.498990854706722745E-17, 1.000000000000000000, -0.000000000000000000 ) ) ;
#176 = DIRECTION ( 'NONE',  ( 0.000000000000000000, 0.000000000000000000, 1.000000000000000000 ) ) ;
#177 = ORIENTED_EDGE ( 'NONE', *, *, #213, .F. ) ;
#178 = DIRECTION ( 'NONE',  ( -3.498990854706722745E-17, 1.000000000000000000, -0.000000000000000000 ) ) ;
#179 = FACE_OUTER_BOUND ( 'NONE', #38, .T. ) ;
#180 = AXIS2_PLACEMENT_3D ( 'NONE', #112, #278, #44 ) ;
#181 = EDGE_LOOP ( 'NONE', ( #150, #161 ) ) ;
#182 = DIRECTION ( 'NONE',  ( -1.000000000000000000, 0.000000000000000000, 0.000000000000000000 ) ) ;
#183 = CIRCLE ( 'NONE', #212, 0.1250000000000000000 ) ;
#184 = ADVANCED_FACE ( 'NONE', ( #28 ), #256, .T. ) ;
#185 = ORIENTED_EDGE ( 'NONE', *, *, #163, .T. ) ;
#186 = CARTESIAN_POINT ( 'NONE',  ( -0.1250000000000001110, 2.500000000000000000, 0.000000000000000000 ) ) ;
#187 = CARTESIAN_POINT ( 'NONE',  ( 0.000000000000000000, 0.000000000000000000, 0.000000000000000000 ) ) ;
#188 = CARTESIAN_POINT ( 'NONE',  ( 0.000000000000000000, 0.000000000000000000, -0.1250000000000000000 ) ) ;
#189 = DIRECTION ( 'NONE',  ( 0.000000000000000000, -1.000000000000000000, -0.000000000000000000 ) ) ;
#190 = LENGTH_MEASURE_WITH_UNIT ( LENGTH_MEASURE( 0.02539999999999999897 ), #93 );
#191 =( CONVERSION_BASED_UNIT ( 'INCH', #118 ) LENGTH_UNIT ( ) NAMED_UNIT ( #125 ) );
#192 =( LENGTH_UNIT ( ) NAMED_UNIT ( * ) SI_UNIT ( $, .METRE. ) );
#193 = SURFACE_SIDE_STYLE ('',( #6 ) ) ;
#194 = COLOUR_RGB ( '',0.7921568627450980005, 0.8196078431372548767, 0.9333333333333333481 ) ;
#195 = UNCERTAINTY_MEASURE_WITH_UNIT (LENGTH_MEASURE( 1.000000000000000082E-05 ), #124, 'distance_accuracy_value', 'NONE');
#196 =( NAMED_UNIT ( * ) PLANE_ANGLE_UNIT ( ) SI_UNIT ( $, .RADIAN. ) );
#197 = DIRECTION ( 'NONE',  ( 0.000000000000000000, -0.000000000000000000, 1.000000000000000000 ) ) ;
#198 = PLANE ( 'NONE',  #113 ) ;
#199 = AXIS2_PLACEMENT_3D ( 'NONE', #14, #221, #269 ) ;
#200 = DIRECTION ( 'NONE',  ( 3.498990854706722745E-17, -1.000000000000000000, 0.000000000000000000 ) ) ;
#201 =( CONVERSION_BASED_UNIT ( 'INCH', #151 ) LENGTH_UNIT ( ) NAMED_UNIT ( #286 ) );
#202 = APPLICATION_PROTOCOL_DEFINITION ( 'draft international standard', 'automotive_design', 1998, #43 ) ;
#203 = CLOSED_SHELL ( 'NONE', ( #59, #266, #35, #184 ) ) ;
#204 = PRESENTATION_STYLE_ASSIGNMENT (( #280 ) ) ;
#205 =( CONVERSION_BASED_UNIT ( 'INCH', #253 ) LENGTH_UNIT ( ) NAMED_UNIT ( #50 ) );
#206 = DIRECTION ( 'NONE',  ( 1.000000000000000000, 0.000000000000000000, 0.000000000000000000 ) ) ;
#207 = CARTESIAN_POINT ( 'NONE',  ( -7.582401355855259480E-33, 0.7499999999999998890, 0.000000000000000000 ) ) ;
#208 = ORIENTED_EDGE ( 'NONE', *, *, #92, .T. ) ;
#209 = AXIS2_PLACEMENT_3D ( 'NONE', #105, #33, #197 ) ;
#210 = PRESENTATION_STYLE_ASSIGNMENT (( #36 ) ) ;
#211 = MECHANICAL_DESIGN_GEOMETRIC_PRESENTATION_REPRESENTATION (  '', ( #138 ), #82 ) ;
#212 = AXIS2_PLACEMENT_3D ( 'NONE', #47, #285, #288 ) ;
#213 = EDGE_CURVE ( 'NONE', #246, #224, #183, .T. ) ;
#214 = CARTESIAN_POINT ( 'NONE',  ( 0.000000000000000000, 0.000000000000000000, 0.000000000000000000 ) ) ;
#215 = CIRCLE ( 'NONE', #268, 0.1250000000000000555 ) ;
#216 =( CONVERSION_BASED_UNIT ( 'INCH', #101 ) LENGTH_UNIT ( ) NAMED_UNIT ( #55 ) );
#217 = EDGE_CURVE ( 'NONE', #23, #262, #215, .T. ) ;
#218 = PLANE ( 'NONE',  #209 ) ;
#219 = LENGTH_MEASURE_WITH_UNIT ( LENGTH_MEASURE( 0.02539999999999999897 ), #263 );
#220 = MECHANICAL_DESIGN_GEOMETRIC_PRESENTATION_REPRESENTATION (  '', ( #129 ), #24 ) ;
#221 = DIRECTION ( 'NONE',  ( -0.000000000000000000, -1.000000000000000000, -0.000000000000000000 ) ) ;
#222 =( GEOMETRIC_REPRESENTATION_CONTEXT ( 3 ) GLOBAL_UNCERTAINTY_ASSIGNED_CONTEXT ( ( #195 ) ) GLOBAL_UNIT_ASSIGNED_CONTEXT ( ( #124, #7, #290 ) ) REPRESENTATION_CONTEXT ( 'NONE', 'WORKASPACE' ) );
#223 = ORIENTED_EDGE ( 'NONE', *, *, #130, .F. ) ;
#224 = VERTEX_POINT ( 'NONE', #5 ) ;
#225 = CARTESIAN_POINT ( 'NONE',  ( 1.530808498934191509E-17, 0.000000000000000000, 0.1250000000000000000 ) ) ;
#226 = EDGE_LOOP ( 'NONE', ( #90, #19 ) ) ;
#227 = ORIENTED_EDGE ( 'NONE', *, *, #141, .T. ) ;
#228 = CARTESIAN_POINT ( 'NONE',  ( 0.1249999999999999584, 2.500000000000000000, 1.530808498934191817E-17 ) ) ;
#229 = EDGE_LOOP ( 'NONE', ( #84, #208, #135, #20 ) ) ;
#230 = ORIENTED_EDGE ( 'NONE', *, *, #81, .F. ) ;
#231 = FILL_AREA_STYLE ('',( #134 ) ) ;
#232 = ORIENTED_EDGE ( 'NONE', *, *, #155, .F. ) ;
#233 =( GEOMETRIC_REPRESENTATION_CONTEXT ( 3 ) GLOBAL_UNCERTAINTY_ASSIGNED_CONTEXT ( ( #56 ) ) GLOBAL_UNIT_ASSIGNED_CONTEXT ( ( #201, #32, #265 ) ) REPRESENTATION_CONTEXT ( 'NONE', 'WORKASPACE' ) );
#234 = FILL_AREA_STYLE_COLOUR ( '', #194 ) ;
#235 = SURFACE_STYLE_FILL_AREA ( #46 ) ;
#236 = AXIS2_PLACEMENT_3D ( 'NONE', #99, #69, #140 ) ;
#237 = AXIS2_PLACEMENT_3D ( 'NONE', #39, #154, #137 ) ;
#238 = VECTOR ( 'NONE', #300, 39.37007874015748143 ) ;
#239 = PRESENTATION_STYLE_ASSIGNMENT (( #3 ) ) ;
#240 = DIMENSIONAL_EXPONENTS ( 1.000000000000000000, 0.000000000000000000, 0.000000000000000000, 0.000000000000000000, 0.000000000000000000, 0.000000000000000000, 0.000000000000000000 ) ;
#241 = ADVANCED_FACE ( 'NONE', ( #283 ), #70, .T. ) ;
#242 = CIRCLE ( 'NONE', #261, 0.1250000000000000555 ) ;
#243 = SURFACE_SIDE_STYLE ('',( #49 ) ) ;
#244 = ORIENTED_EDGE ( 'NONE', *, *, #81, .T. ) ;
#245 = AXIS2_PLACEMENT_3D ( 'NONE', #51, #200, #148 ) ;
#246 = VERTEX_POINT ( 'NONE', #4 ) ;
#247 = CYLINDRICAL_SURFACE ( 'NONE', #169, 0.1250000000000000000 ) ;
#248 = DIRECTION ( 'NONE',  ( -3.498990854706722745E-17, 1.000000000000000000, -0.000000000000000000 ) ) ;
#249 = MANIFOLD_SOLID_BREP ( 'Revolve - Tool Body (Straight Shanked)', #165 ) ;
#250 = ORIENTED_EDGE ( 'NONE', *, *, #2, .T. ) ;
#251 = ADVANCED_BREP_SHAPE_REPRESENTATION ( '59941', ( #149, #249, #58 ), #233 ) ;
#252 = STYLED_ITEM ( 'NONE', ( #96 ), #249 ) ;
#253 = LENGTH_MEASURE_WITH_UNIT ( LENGTH_MEASURE( 0.02539999999999999897 ), #18 );
#254 = VERTEX_POINT ( 'NONE', #80 ) ;
#255 = EDGE_LOOP ( 'NONE', ( #156, #66 ) ) ;
#256 = PLANE ( 'NONE',  #287 ) ;
#257 =( NAMED_UNIT ( * ) SI_UNIT ( $, .STERADIAN. ) SOLID_ANGLE_UNIT ( ) );
#258 =( CONVERSION_BASED_UNIT ( 'INCH', #190 ) LENGTH_UNIT ( ) NAMED_UNIT ( #240 ) );
#259 = CIRCLE ( 'NONE', #12, 0.1250000000000000000 ) ;
#260 =( NAMED_UNIT ( * ) PLANE_ANGLE_UNIT ( ) SI_UNIT ( $, .RADIAN. ) );
#261 = AXIS2_PLACEMENT_3D ( 'NONE', #131, #248, #305 ) ;
#262 = VERTEX_POINT ( 'NONE', #57 ) ;
#263 =( LENGTH_UNIT ( ) NAMED_UNIT ( * ) SI_UNIT ( $, .METRE. ) );
#264 = ORIENTED_EDGE ( 'NONE', *, *, #116, .T. ) ;
#265 =( NAMED_UNIT ( * ) SI_UNIT ( $, .STERADIAN. ) SOLID_ANGLE_UNIT ( ) );
#266 = ADVANCED_FACE ( 'NONE', ( #103 ), #218, .T. ) ;
#267 = ORIENTED_EDGE ( 'NONE', *, *, #29, .F. ) ;
#268 = AXIS2_PLACEMENT_3D ( 'NONE', #31, #117, #71 ) ;
#269 = DIRECTION ( 'NONE',  ( 0.000000000000000000, 0.000000000000000000, -1.000000000000000000 ) ) ;
#270 = CARTESIAN_POINT ( 'NONE',  ( -0.1250000000000000000, 0.7499999999999998890, 0.000000000000000000 ) ) ;
#271 =( LENGTH_UNIT ( ) NAMED_UNIT ( * ) SI_UNIT ( $, .METRE. ) );
#272 = CARTESIAN_POINT ( 'NONE',  ( 0.1250000000000000278, 0.7499999999999998890, 1.530808498934192125E-17 ) ) ;
#273 = ADVANCED_FACE ( 'NONE', ( #170 ), #13, .F. ) ;
#274 = COLOUR_RGB ( '',1.000000000000000000, 0.000000000000000000, 0.000000000000000000 ) ;
#275 = COLOUR_RGB ( '',1.000000000000000000, 0.000000000000000000, 0.000000000000000000 ) ;
#276 = EDGE_LOOP ( 'NONE', ( #250, #227, #61, #223 ) ) ;
#277 = CARTESIAN_POINT ( 'NONE',  ( 0.1250000000000000278, 2.500000000000000000, 1.530808498934192125E-17 ) ) ;
#278 = DIRECTION ( 'NONE',  ( -0.000000000000000000, -1.000000000000000000, -0.000000000000000000 ) ) ;
#279 = PRODUCT_DEFINITION_SHAPE ( 'NONE', 'NONE',  #298 ) ;
#280 = SURFACE_STYLE_USAGE ( .BOTH. , #160 ) ;
#281 = ORIENTED_EDGE ( 'NONE', *, *, #213, .T. ) ;
#282 = FILL_AREA_STYLE ('',( #121 ) ) ;
#283 = FACE_OUTER_BOUND ( 'NONE', #229, .T. ) ;
#284 =( NAMED_UNIT ( * ) SI_UNIT ( $, .STERADIAN. ) SOLID_ANGLE_UNIT ( ) );
#285 = DIRECTION ( 'NONE',  ( -0.000000000000000000, -1.000000000000000000, -0.000000000000000000 ) ) ;
#286 = DIMENSIONAL_EXPONENTS ( 1.000000000000000000, 0.000000000000000000, 0.000000000000000000, 0.000000000000000000, 0.000000000000000000, 0.000000000000000000, 0.000000000000000000 ) ;
#287 = AXIS2_PLACEMENT_3D ( 'NONE', #214, #189, #309 ) ;
#288 = DIRECTION ( 'NONE',  ( 0.000000000000000000, 0.000000000000000000, -1.000000000000000000 ) ) ;
#289 = UNCERTAINTY_MEASURE_WITH_UNIT (LENGTH_MEASURE( 1.000000000000000082E-05 ), #205, 'distance_accuracy_value', 'NONE');
#290 =( NAMED_UNIT ( * ) SI_UNIT ( $, .STERADIAN. ) SOLID_ANGLE_UNIT ( ) );
#291 = SURFACE_SIDE_STYLE ('',( #235 ) ) ;
#292 = MECHANICAL_DESIGN_GEOMETRIC_PRESENTATION_REPRESENTATION (  '', ( #72 ), #9 ) ;
#293 = UNCERTAINTY_MEASURE_WITH_UNIT (LENGTH_MEASURE( 1.000000000000000082E-05 ), #111, 'distance_accuracy_value', 'NONE');
#294 = FILL_AREA_STYLE ('',( #78 ) ) ;
#295 = ADVANCED_FACE ( 'NONE', ( #8 ), #198, .F. ) ;
#296 = COLOUR_RGB ( '',1.000000000000000000, 0.000000000000000000, 0.000000000000000000 ) ;
#297 = LINE ( 'NONE', #225, #143 ) ;
#298 = PRODUCT_DEFINITION ( 'UNKNOWN', '', #94, #74 ) ;
#299 = DIRECTION ( 'NONE',  ( -1.000000000000000000, 0.000000000000000000, 0.000000000000000000 ) ) ;
#300 = DIRECTION ( 'NONE',  ( -3.498990854706722745E-17, 1.000000000000000000, -0.000000000000000000 ) ) ;
#301 = SURFACE_SIDE_STYLE ('',( #22 ) ) ;
#302 = DIRECTION ( 'NONE',  ( -1.000000000000000000, 0.000000000000000000, 0.000000000000000000 ) ) ;
#303 = PRESENTATION_LAYER_ASSIGNMENT (  '', '', ( #89 ) ) ;
#304 = COLOUR_RGB ( '',1.000000000000000000, 0.000000000000000000, 0.000000000000000000 ) ;
#305 = DIRECTION ( 'NONE',  ( -1.000000000000000000, 0.000000000000000000, 0.000000000000000000 ) ) ;
#306 = CARTESIAN_POINT ( 'NONE',  ( 0.000000000000000000, 0.7500000000000001110, 0.000000000000000000 ) ) ;
#307 = PRODUCT ( '59941', '59941', '', ( #64 ) ) ;
#308 = FACE_OUTER_BOUND ( 'NONE', #102, .T. ) ;
#309 = DIRECTION ( 'NONE',  ( 0.000000000000000000, 0.000000000000000000, -1.000000000000000000 ) ) ;
ENDSEC;
END-ISO-10303-21;
