ISO-10303-21;
HEADER;
FILE_DESCRIPTION (( 'STEP AP214' ),
    '1' );
FILE_NAME ('Micro_AECM-1205-4.STEP',
    '2021-09-03T16:59:11',
    ( '' ),
    ( '' ),
    'SwSTEP 2.0',
    'SolidWorks 2020',
    '' );
FILE_SCHEMA (( 'AUTOMOTIVE_DESIGN' ));
ENDSEC;

DATA;
#1 = PRESENTATION_STYLE_ASSIGNMENT (( #244 ) ) ;
#2 = EDGE_LOOP ( 'NONE', ( #257, #133, #243, #256 ) ) ;
#3 = CARTESIAN_POINT ( 'NONE',  ( 2.410717224121565783E-18, 0.0000000000000000000, 0.01968500000000000458 ) ) ;
#4 = ORIENTED_EDGE ( 'NONE', *, *, #334, .F. ) ;
#5 = CONICAL_SURFACE ( 'NONE', #54, 0.2212205000000019295, 0.7853981633974482790 ) ;
#6 = EDGE_CURVE ( 'NONE', #350, #101, #87, .T. ) ;
#7 = AXIS2_PLACEMENT_3D ( 'NONE', #153, #129, #235 ) ;
#8 = DIRECTION ( 'NONE',  ( 0.0000000000000000000, 0.0000000000000000000, -1.000000000000000000 ) ) ;
#9 = DIRECTION ( 'NONE',  ( 0.0000000000000000000, 0.0000000000000000000, 1.000000000000000000 ) ) ;
#10 = CARTESIAN_POINT ( 'NONE',  ( 1.448073410051044337E-16, 0.0000000000000000000, 1.182441673027071261 ) ) ;
#11 = DIRECTION ( 'NONE',  ( -1.000000000000000000, 0.0000000000000000000, 0.0000000000000000000 ) ) ;
#12 = DIRECTION ( 'NONE',  ( 1.000000000000000000, 0.0000000000000000000, 0.0000000000000000000 ) ) ;
#13 = ADVANCED_FACE ( 'NONE', ( #250 ), #5, .T. ) ;
#14 = AXIS2_PLACEMENT_3D ( 'NONE', #337, #151, #90 ) ;
#15 = CIRCLE ( 'NONE', #7, 0.01968500000000000111 ) ;
#16 =( CONVERSION_BASED_UNIT ( 'INCH', #237 ) LENGTH_UNIT ( ) NAMED_UNIT ( #340 ) );
#17 = CYLINDRICAL_SURFACE ( 'NONE', #287, 0.2362204999999999999 ) ;
#18 = EDGE_LOOP ( 'NONE', ( #27, #85 ) ) ;
#19 = CIRCLE ( 'NONE', #108, 0.2212205000000019295 ) ;
#20 = DIRECTION ( 'NONE',  ( -1.224646799147353454E-16, -0.0000000000000000000, -1.000000000000000000 ) ) ;
#21 = ORIENTED_EDGE ( 'NONE', *, *, #134, .T. ) ;
#22 = EDGE_LOOP ( 'NONE', ( #184, #187, #21, #269 ) ) ;
#23 = SURFACE_SIDE_STYLE ('',( #159 ) ) ;
#24 = VERTEX_POINT ( 'NONE', #29 ) ;
#25 = MECHANICAL_DESIGN_GEOMETRIC_PRESENTATION_REPRESENTATION (  '', ( #245 ), #140 ) ;
#26 = LINE ( 'NONE', #46, #217 ) ;
#27 = ORIENTED_EDGE ( 'NONE', *, *, #346, .T. ) ;
#28 = DIRECTION ( 'NONE',  ( 0.0000000000000000000, 0.0000000000000000000, -1.000000000000000000 ) ) ;
#29 = CARTESIAN_POINT ( 'NONE',  ( -0.2362204999999998611, 0.0000000000000000000, 1.182441673027071261 ) ) ;
#30 = CIRCLE ( 'NONE', #313, 0.2162992794999999691 ) ;
#31 = LINE ( 'NONE', #149, #280 ) ;
#32 = DIRECTION ( 'NONE',  ( 1.000000000000000000, 0.0000000000000000000, 0.0000000000000000000 ) ) ;
#33 = EDGE_CURVE ( 'NONE', #294, #24, #58, .T. ) ;
#34 = DIRECTION ( 'NONE',  ( 1.000000000000000000, 0.0000000000000000000, 0.0000000000000000000 ) ) ;
#35 = DIRECTION ( 'NONE',  ( 1.000000000000000000, 0.0000000000000000000, 0.0000000000000000000 ) ) ;
#36 = CARTESIAN_POINT ( 'NONE',  ( 1.446432783766537492E-16, 0.0000000000000000000, 1.181102000000000096 ) ) ;
#37 = ADVANCED_FACE ( 'NONE', ( #231 ), #329, .T. ) ;
#38 = VECTOR ( 'NONE', #223, 39.37007874015748143 ) ;
#39 =( NAMED_UNIT ( * ) PLANE_ANGLE_UNIT ( ) SI_UNIT ( $, .RADIAN. ) );
#40 = CARTESIAN_POINT ( 'NONE',  ( 0.0000000000000000000, 0.0000000000000000000, 3.267717000000000649 ) ) ;
#41 = CIRCLE ( 'NONE', #148, 0.2162992794999999691 ) ;
#42 = CONICAL_SURFACE ( 'NONE', #282, 0.2359842794999999771, 0.1745329251994338082 ) ;
#43 = DIRECTION ( 'NONE',  ( -1.000000000000000000, 0.0000000000000000000, 0.0000000000000000000 ) ) ;
#44 = EDGE_CURVE ( 'NONE', #294, #266, #178, .T. ) ;
#45 = DIRECTION ( 'NONE',  ( 0.0000000000000000000, 0.0000000000000000000, 1.000000000000000000 ) ) ;
#46 = CARTESIAN_POINT ( 'NONE',  ( 0.2359842794999999771, 2.889973925387693713E-17, -2.889973925387693713E-17 ) ) ;
#47 = EDGE_LOOP ( 'NONE', ( #271, #276, #299, #246 ) ) ;
#48 = AXIS2_PLACEMENT_3D ( 'NONE', #225, #115, #171 ) ;
#49 = MECHANICAL_DESIGN_GEOMETRIC_PRESENTATION_REPRESENTATION (  '', ( #94 ), #323 ) ;
#50 = ORIENTED_EDGE ( 'NONE', *, *, #249, .T. ) ;
#51 = PRODUCT_RELATED_PRODUCT_CATEGORY ( 'part', '', ( #166 ) ) ;
#52 = ORIENTED_EDGE ( 'NONE', *, *, #230, .T. ) ;
#53 = DIRECTION ( 'NONE',  ( -1.224646799147353454E-16, -0.0000000000000000000, -1.000000000000000000 ) ) ;
#54 = AXIS2_PLACEMENT_3D ( 'NONE', #144, #28, #11 ) ;
#55 = VERTEX_POINT ( 'NONE', #122 ) ;
#56 = ADVANCED_FACE ( 'NONE', ( #284 ), #93, .T. ) ;
#57 = ORIENTED_EDGE ( 'NONE', *, *, #165, .T. ) ;
#58 = LINE ( 'NONE', #60, #213 ) ;
#59 = PRODUCT_DEFINITION_SHAPE ( 'NONE', 'NONE',  #120 ) ;
#60 = CARTESIAN_POINT ( 'NONE',  ( -0.2359842794999998383, 2.889973925387693713E-17, 1.181102000000000096 ) ) ;
#61 = AXIS2_PLACEMENT_3D ( 'NONE', #141, #53, #132 ) ;
#62 = CARTESIAN_POINT ( 'NONE',  ( 0.2162992794999999691, 0.0000000000000000000, 0.0000000000000000000 ) ) ;
#63 = EDGE_CURVE ( 'NONE', #24, #101, #147, .T. ) ;
#64 = DIRECTION ( 'NONE',  ( 0.0000000000000000000, 0.0000000000000000000, 1.000000000000000000 ) ) ;
#65 = CARTESIAN_POINT ( 'NONE',  ( 1.448073410051044337E-16, 0.0000000000000000000, 1.182441673027071261 ) ) ;
#66 = CARTESIAN_POINT ( 'NONE',  ( 0.0000000000000000000, 0.0000000000000000000, 3.267717000000000649 ) ) ;
#67 = AXIS2_PLACEMENT_3D ( 'NONE', #65, #173, #12 ) ;
#68 = FILL_AREA_STYLE_COLOUR ( '', #338 ) ;
#69 = DIRECTION ( 'NONE',  ( 0.0000000000000000000, 0.0000000000000000000, 1.000000000000000000 ) ) ;
#70 =( LENGTH_UNIT ( ) NAMED_UNIT ( * ) SI_UNIT ( $, .METRE. ) );
#71 = CIRCLE ( 'NONE', #234, 0.01968500000000000458 ) ;
#72 = PRESENTATION_LAYER_ASSIGNMENT (  '', '', ( #94 ) ) ;
#73 = ADVANCED_FACE ( 'NONE', ( #86 ), #311, .T. ) ;
#74 = CARTESIAN_POINT ( 'NONE',  ( 0.0000000000000000000, 0.0000000000000000000, 0.0000000000000000000 ) ) ;
#75 = DIRECTION ( 'NONE',  ( -1.224646799147353454E-16, -0.0000000000000000000, -1.000000000000000000 ) ) ;
#76 = EDGE_LOOP ( 'NONE', ( #106, #137 ) ) ;
#77 =( LENGTH_UNIT ( ) NAMED_UNIT ( * ) SI_UNIT ( $, .METRE. ) );
#78 = EDGE_LOOP ( 'NONE', ( #325, #221, #83, #297 ) ) ;
#79 = CIRCLE ( 'NONE', #273, 0.2362204999999999999 ) ;
#80 = AXIS2_PLACEMENT_3D ( 'NONE', #195, #193, #163 ) ;
#81 = VECTOR ( 'NONE', #259, 39.37007874015748143 ) ;
#82 = LENGTH_MEASURE_WITH_UNIT ( LENGTH_MEASURE( 0.02539999999999999897 ), #77 );
#83 = ORIENTED_EDGE ( 'NONE', *, *, #63, .F. ) ;
#84 = ORIENTED_EDGE ( 'NONE', *, *, #285, .F. ) ;
#85 = ORIENTED_EDGE ( 'NONE', *, *, #201, .T. ) ;
#86 = FACE_OUTER_BOUND ( 'NONE', #78, .T. ) ;
#87 = LINE ( 'NONE', #229, #38 ) ;
#88 = CARTESIAN_POINT ( 'NONE',  ( 1.446432783766537492E-16, 0.0000000000000000000, 1.181102000000000096 ) ) ;
#89 = CONICAL_SURFACE ( 'NONE', #186, 0.2212205000000019295, 0.7853981633974482790 ) ;
#90 = DIRECTION ( 'NONE',  ( 1.000000000000000000, 0.0000000000000000000, -0.0000000000000000000 ) ) ;
#91 = DIRECTION ( 'NONE',  ( -1.224646799147353454E-16, -0.0000000000000000000, -1.000000000000000000 ) ) ;
#92 = DIRECTION ( 'NONE',  ( 0.0000000000000000000, 0.0000000000000000000, 1.000000000000000000 ) ) ;
#93 = CONICAL_SURFACE ( 'NONE', #330, 0.2359842794999999771, 0.1745329251994338082 ) ;
#94 = STYLED_ITEM ( 'NONE', ( #126 ), #196 ) ;
#95 = ADVANCED_BREP_SHAPE_REPRESENTATION ( 'Micro_AECM-1205-4', ( #196, #179 ), #351 ) ;
#96 = LINE ( 'NONE', #99, #81 ) ;
#97 =( NAMED_UNIT ( * ) SI_UNIT ( $, .STERADIAN. ) SOLID_ANGLE_UNIT ( ) );
#98 = EDGE_CURVE ( 'NONE', #121, #272, #71, .T. ) ;
#99 = CARTESIAN_POINT ( 'NONE',  ( -0.2359842794999999771, 0.0000000000000000000, 2.889973925387693713E-17 ) ) ;
#100 = CARTESIAN_POINT ( 'NONE',  ( 0.2359842795000001159, 0.0000000000000000000, 1.181102000000000096 ) ) ;
#101 = VERTEX_POINT ( 'NONE', #305 ) ;
#102 = ADVANCED_FACE ( 'NONE', ( #164 ), #279, .F. ) ;
#103 = FACE_OUTER_BOUND ( 'NONE', #104, .T. ) ;
#104 = EDGE_LOOP ( 'NONE', ( #4, #52, #301, #139 ) ) ;
#105 = FILL_AREA_STYLE_COLOUR ( '', #199 ) ;
#106 = ORIENTED_EDGE ( 'NONE', *, *, #177, .T. ) ;
#107 = VECTOR ( 'NONE', #312, 39.37007874015748854 ) ;
#108 = AXIS2_PLACEMENT_3D ( 'NONE', #270, #319, #111 ) ;
#109 = FACE_OUTER_BOUND ( 'NONE', #18, .T. ) ;
#110 = VERTEX_POINT ( 'NONE', #146 ) ;
#111 = DIRECTION ( 'NONE',  ( 1.000000000000000000, 0.0000000000000000000, 0.0000000000000000000 ) ) ;
#112 = ORIENTED_EDGE ( 'NONE', *, *, #241, .T. ) ;
#113 = EDGE_CURVE ( 'NONE', #110, #350, #79, .T. ) ;
#114 = DIMENSIONAL_EXPONENTS ( 1.000000000000000000, 0.0000000000000000000, 0.0000000000000000000, 0.0000000000000000000, 0.0000000000000000000, 0.0000000000000000000, 0.0000000000000000000 ) ;
#115 = DIRECTION ( 'NONE',  ( -1.224646799147353454E-16, -0.0000000000000000000, -1.000000000000000000 ) ) ;
#116 = UNCERTAINTY_MEASURE_WITH_UNIT (LENGTH_MEASURE( 1.000000000000000082E-05 ), #307, 'distance_accuracy_value', 'NONE');
#117 = AXIS2_PLACEMENT_3D ( 'NONE', #40, #92, #175 ) ;
#118 =( LENGTH_UNIT ( ) NAMED_UNIT ( * ) SI_UNIT ( $, .METRE. ) );
#119 = CARTESIAN_POINT ( 'NONE',  ( -0.2162992794999999691, 2.769438064181615097E-17, 0.0000000000000000000 ) ) ;
#120 = PRODUCT_DEFINITION ( 'UNKNOWN', '', #258, #226 ) ;
#121 = VERTEX_POINT ( 'NONE', #119 ) ;
#122 = CARTESIAN_POINT ( 'NONE',  ( 0.2359842794999999771, 2.889973925387693713E-17, 0.01968500000000000458 ) ) ;
#123 = DIRECTION ( 'NONE',  ( -0.1736481776669311083, 2.126576849575782084E-17, 0.9848077530122080203 ) ) ;
#124 = EDGE_CURVE ( 'NONE', #349, #350, #309, .T. ) ;
#125 = LINE ( 'NONE', #288, #107 ) ;
#126 = PRESENTATION_STYLE_ASSIGNMENT (( #261 ) ) ;
#127 = CIRCLE ( 'NONE', #321, 0.2359842794999999771 ) ;
#128 = AXIS2_PLACEMENT_3D ( 'NONE', #36, #345, #131 ) ;
#129 = DIRECTION ( 'NONE',  ( 0.0000000000000000000, -1.000000000000000000, 0.0000000000000000000 ) ) ;
#130 = EDGE_CURVE ( 'NONE', #266, #101, #31, .T. ) ;
#131 = DIRECTION ( 'NONE',  ( -1.000000000000000000, 0.0000000000000000000, 0.0000000000000000000 ) ) ;
#132 = DIRECTION ( 'NONE',  ( -1.000000000000000000, 0.0000000000000000000, 1.224646799147353454E-16 ) ) ;
#133 = ORIENTED_EDGE ( 'NONE', *, *, #124, .T. ) ;
#134 = EDGE_CURVE ( 'NONE', #55, #272, #127, .T. ) ;
#135 = DIRECTION ( 'NONE',  ( 1.000000000000000000, 0.0000000000000000000, -0.0000000000000000000 ) ) ;
#136 = ORIENTED_EDGE ( 'NONE', *, *, #33, .F. ) ;
#137 = ORIENTED_EDGE ( 'NONE', *, *, #285, .T. ) ;
#138 = FACE_OUTER_BOUND ( 'NONE', #47, .T. ) ;
#139 = ORIENTED_EDGE ( 'NONE', *, *, #310, .T. ) ;
#140 =( GEOMETRIC_REPRESENTATION_CONTEXT ( 3 ) GLOBAL_UNCERTAINTY_ASSIGNED_CONTEXT ( ( #116 ) ) GLOBAL_UNIT_ASSIGNED_CONTEXT ( ( #307, #224, #308 ) ) REPRESENTATION_CONTEXT ( 'NONE', 'WORKASPACE' ) );
#141 = CARTESIAN_POINT ( 'NONE',  ( 0.0000000000000000000, 0.0000000000000000000, 0.0000000000000000000 ) ) ;
#142 = ADVANCED_FACE ( 'NONE', ( #336 ), #167, .T. ) ;
#143 = ORIENTED_EDGE ( 'NONE', *, *, #241, .F. ) ;
#144 = CARTESIAN_POINT ( 'NONE',  ( 0.0000000000000000000, 0.0000000000000000000, 3.267717000000000649 ) ) ;
#145 = LENGTH_MEASURE_WITH_UNIT ( LENGTH_MEASURE( 0.02539999999999999897 ), #118 );
#146 = CARTESIAN_POINT ( 'NONE',  ( -0.2362204999999999999, 0.0000000000000000000, 3.252717000000002301 ) ) ;
#147 = CIRCLE ( 'NONE', #208, 0.2362204999999999999 ) ;
#148 = AXIS2_PLACEMENT_3D ( 'NONE', #314, #154, #263 ) ;
#149 = CARTESIAN_POINT ( 'NONE',  ( 0.2359842795000001159, 0.0000000000000000000, 1.181102000000000096 ) ) ;
#150 = ORIENTED_EDGE ( 'NONE', *, *, #222, .F. ) ;
#151 = DIRECTION ( 'NONE',  ( 0.0000000000000000000, 0.0000000000000000000, 1.000000000000000000 ) ) ;
#152 = DIRECTION ( 'NONE',  ( 0.0000000000000000000, 0.0000000000000000000, -1.000000000000000000 ) ) ;
#153 = CARTESIAN_POINT ( 'NONE',  ( 0.2162992794999999691, 0.0000000000000000000, 0.01968500000000000111 ) ) ;
#154 = DIRECTION ( 'NONE',  ( -0.0000000000000000000, -0.0000000000000000000, -1.000000000000000000 ) ) ;
#155 = AXIS2_PLACEMENT_3D ( 'NONE', #169, #64, #32 ) ;
#156 = CARTESIAN_POINT ( 'NONE',  ( 0.2212205000000019295, 2.801018282243833685E-17, 3.267717000000000649 ) ) ;
#157 = ORIENTED_EDGE ( 'NONE', *, *, #238, .F. ) ;
#158 = ORIENTED_EDGE ( 'NONE', *, *, #222, .T. ) ;
#159 = SURFACE_STYLE_FILL_AREA ( #298 ) ;
#160 = VERTEX_POINT ( 'NONE', #62 ) ;
#161 = DIRECTION ( 'NONE',  ( 1.000000000000000000, 0.0000000000000000000, 0.0000000000000000000 ) ) ;
#162 = ORIENTED_EDGE ( 'NONE', *, *, #98, .T. ) ;
#163 = DIRECTION ( 'NONE',  ( -1.000000000000000000, 0.0000000000000000000, 0.0000000000000000000 ) ) ;
#164 = FACE_OUTER_BOUND ( 'NONE', #76, .T. ) ;
#165 = EDGE_CURVE ( 'NONE', #326, #110, #125, .T. ) ;
#166 = PRODUCT ( 'Micro_AECM-1205-4', 'Micro_AECM-1205-4', '', ( #331 ) ) ;
#167 = TOROIDAL_SURFACE ( 'NONE', #262, 0.2162992794999999691, 0.01968500000000000111 ) ;
#168 = AXIS2_PLACEMENT_3D ( 'NONE', #74, #75, #183 ) ;
#169 = CARTESIAN_POINT ( 'NONE',  ( 2.410717224121565012E-18, 0.0000000000000000000, 0.01968500000000000111 ) ) ;
#170 = DIRECTION ( 'NONE',  ( 1.000000000000000000, 0.0000000000000000000, 0.0000000000000000000 ) ) ;
#171 = DIRECTION ( 'NONE',  ( -1.000000000000000000, 0.0000000000000000000, 0.0000000000000000000 ) ) ;
#172 = ADVANCED_FACE ( 'NONE', ( #205 ), #89, .T. ) ;
#173 = DIRECTION ( 'NONE',  ( -1.224646799147353454E-16, -0.0000000000000000000, -1.000000000000000000 ) ) ;
#174 = VECTOR ( 'NONE', #232, 39.37007874015748143 ) ;
#175 = DIRECTION ( 'NONE',  ( 1.000000000000000000, 0.0000000000000000000, 0.0000000000000000000 ) ) ;
#176 = SURFACE_STYLE_FILL_AREA ( #264 ) ;
#177 = EDGE_CURVE ( 'NONE', #160, #121, #41, .T. ) ;
#178 = CIRCLE ( 'NONE', #48, 0.2359842794999999771 ) ;
#179 = AXIS2_PLACEMENT_3D ( 'NONE', #327, #220, #170 ) ;
#180 = CARTESIAN_POINT ( 'NONE',  ( 0.0000000000000000000, 0.0000000000000000000, 3.267717000000000649 ) ) ;
#181 = ADVANCED_FACE ( 'NONE', ( #207 ), #17, .T. ) ;
#182 = DIRECTION ( 'NONE',  ( 1.224646799147353454E-16, 0.0000000000000000000, 1.000000000000000000 ) ) ;
#183 = DIRECTION ( 'NONE',  ( -1.000000000000000000, 0.0000000000000000000, 1.224646799147353454E-16 ) ) ;
#184 = ORIENTED_EDGE ( 'NONE', *, *, #44, .T. ) ;
#185 =( CONVERSION_BASED_UNIT ( 'INCH', #82 ) LENGTH_UNIT ( ) NAMED_UNIT ( #114 ) );
#186 = AXIS2_PLACEMENT_3D ( 'NONE', #180, #152, #43 ) ;
#187 = ORIENTED_EDGE ( 'NONE', *, *, #334, .T. ) ;
#188 = APPLICATION_PROTOCOL_DEFINITION ( 'draft international standard', 'automotive_design', 1998, #228 ) ;
#189 = ORIENTED_EDGE ( 'NONE', *, *, #346, .F. ) ;
#190 = CARTESIAN_POINT ( 'NONE',  ( 2.410717224121565012E-18, 0.0000000000000000000, 0.0000000000000000000 ) ) ;
#191 = ORIENTED_EDGE ( 'NONE', *, *, #238, .T. ) ;
#192 = DIMENSIONAL_EXPONENTS ( 1.000000000000000000, 0.0000000000000000000, 0.0000000000000000000, 0.0000000000000000000, 0.0000000000000000000, 0.0000000000000000000, 0.0000000000000000000 ) ;
#193 = DIRECTION ( 'NONE',  ( -0.0000000000000000000, -0.0000000000000000000, -1.000000000000000000 ) ) ;
#194 = SHAPE_DEFINITION_REPRESENTATION ( #59, #95 ) ;
#195 = CARTESIAN_POINT ( 'NONE',  ( 0.0000000000000000000, 0.0000000000000000000, 3.267717000000000649 ) ) ;
#196 = MANIFOLD_SOLID_BREP ( 'Fillet1', #265 ) ;
#197 = CARTESIAN_POINT ( 'NONE',  ( 2.410717224121565783E-18, 0.0000000000000000000, 0.01968500000000000458 ) ) ;
#198 = UNCERTAINTY_MEASURE_WITH_UNIT (LENGTH_MEASURE( 1.000000000000000082E-05 ), #185, 'distance_accuracy_value', 'NONE');
#199 = COLOUR_RGB ( '',0.7921568627450980005, 0.8196078431372548767, 0.9333333333333333481 ) ;
#200 = DIRECTION ( 'NONE',  ( 1.000000000000000000, 0.0000000000000000000, 0.0000000000000000000 ) ) ;
#201 = EDGE_CURVE ( 'NONE', #349, #326, #204, .T. ) ;
#202 = ORIENTED_EDGE ( 'NONE', *, *, #134, .F. ) ;
#203 = CYLINDRICAL_SURFACE ( 'NONE', #61, 0.2359842794999999771 ) ;
#204 = CIRCLE ( 'NONE', #117, 0.2212205000000019295 ) ;
#205 = FACE_OUTER_BOUND ( 'NONE', #2, .T. ) ;
#206 = DIRECTION ( 'NONE',  ( 1.000000000000000000, 0.0000000000000000000, 0.0000000000000000000 ) ) ;
#207 = FACE_OUTER_BOUND ( 'NONE', #212, .T. ) ;
#208 = AXIS2_PLACEMENT_3D ( 'NONE', #10, #91, #333 ) ;
#209 = PRESENTATION_LAYER_ASSIGNMENT (  '', '', ( #245 ) ) ;
#210 = DIRECTION ( 'NONE',  ( 0.0000000000000000000, 0.0000000000000000000, -1.000000000000000000 ) ) ;
#211 = DIRECTION ( 'NONE',  ( -0.0000000000000000000, -0.0000000000000000000, -1.000000000000000000 ) ) ;
#212 = EDGE_LOOP ( 'NONE', ( #320, #191, #50, #143 ) ) ;
#213 = VECTOR ( 'NONE', #123, 39.37007874015747433 ) ;
#214 = CARTESIAN_POINT ( 'NONE',  ( -0.2212205000000019295, 0.0000000000000000000, 3.267717000000000649 ) ) ;
#215 = EDGE_LOOP ( 'NONE', ( #219, #189, #57, #157 ) ) ;
#216 = DIRECTION ( 'NONE',  ( 1.000000000000000000, 0.0000000000000000000, 0.0000000000000000000 ) ) ;
#217 = VECTOR ( 'NONE', #20, 39.37007874015748143 ) ;
#218 = ORIENTED_EDGE ( 'NONE', *, *, #177, .F. ) ;
#219 = ORIENTED_EDGE ( 'NONE', *, *, #124, .F. ) ;
#220 = DIRECTION ( 'NONE',  ( 0.0000000000000000000, 0.0000000000000000000, 1.000000000000000000 ) ) ;
#221 = ORIENTED_EDGE ( 'NONE', *, *, #6, .T. ) ;
#222 = EDGE_CURVE ( 'NONE', #160, #55, #15, .T. ) ;
#223 = DIRECTION ( 'NONE',  ( -0.0000000000000000000, -0.0000000000000000000, -1.000000000000000000 ) ) ;
#224 =( NAMED_UNIT ( * ) PLANE_ANGLE_UNIT ( ) SI_UNIT ( $, .RADIAN. ) );
#225 = CARTESIAN_POINT ( 'NONE',  ( 1.446432783766537492E-16, 0.0000000000000000000, 1.181102000000000096 ) ) ;
#226 = PRODUCT_DEFINITION_CONTEXT ( 'detailed design', #278, 'design' ) ;
#227 = DIRECTION ( 'NONE',  ( 1.000000000000000000, 0.0000000000000000000, 0.0000000000000000000 ) ) ;
#228 = APPLICATION_CONTEXT ( 'automotive_design' ) ;
#229 = CARTESIAN_POINT ( 'NONE',  ( 0.2362204999999999999, 2.892866792179872647E-17, 3.267717000000000649 ) ) ;
#230 = EDGE_CURVE ( 'NONE', #266, #294, #253, .T. ) ;
#231 = FACE_OUTER_BOUND ( 'NONE', #328, .T. ) ;
#232 = DIRECTION ( 'NONE',  ( -0.0000000000000000000, -0.0000000000000000000, -1.000000000000000000 ) ) ;
#233 = EDGE_CURVE ( 'NONE', #294, #272, #96, .T. ) ;
#234 = AXIS2_PLACEMENT_3D ( 'NONE', #281, #277, #283 ) ;
#235 = DIRECTION ( 'NONE',  ( 0.0000000000000000000, 0.0000000000000000000, -1.000000000000000000 ) ) ;
#236 = CARTESIAN_POINT ( 'NONE',  ( 0.0000000000000000000, 0.0000000000000000000, 3.252717000000002301 ) ) ;
#237 = LENGTH_MEASURE_WITH_UNIT ( LENGTH_MEASURE( 0.02539999999999999897 ), #70 );
#238 = EDGE_CURVE ( 'NONE', #350, #110, #343, .T. ) ;
#239 = EDGE_LOOP ( 'NONE', ( #84, #162, #202, #150 ) ) ;
#240 = EDGE_LOOP ( 'NONE', ( #136, #248, #318, #112 ) ) ;
#241 = EDGE_CURVE ( 'NONE', #101, #24, #332, .T. ) ;
#242 = CARTESIAN_POINT ( 'NONE',  ( -0.2359842794999999771, 0.0000000000000000000, 0.01968500000000000458 ) ) ;
#243 = ORIENTED_EDGE ( 'NONE', *, *, #113, .F. ) ;
#244 = SURFACE_STYLE_USAGE ( .BOTH. , #23 ) ;
#245 = STYLED_ITEM ( 'NONE', ( #1 ), #95 ) ;
#246 = ORIENTED_EDGE ( 'NONE', *, *, #130, .F. ) ;
#247 = CYLINDRICAL_SURFACE ( 'NONE', #168, 0.2359842794999999771 ) ;
#248 = ORIENTED_EDGE ( 'NONE', *, *, #230, .F. ) ;
#249 = EDGE_CURVE ( 'NONE', #110, #24, #315, .T. ) ;
#250 = FACE_OUTER_BOUND ( 'NONE', #215, .T. ) ;
#251 = UNCERTAINTY_MEASURE_WITH_UNIT (LENGTH_MEASURE( 1.000000000000000082E-05 ), #16, 'distance_accuracy_value', 'NONE');
#252 = CARTESIAN_POINT ( 'NONE',  ( 0.0000000000000000000, 0.0000000000000000000, 3.252717000000002301 ) ) ;
#253 = CIRCLE ( 'NONE', #128, 0.2359842794999999771 ) ;
#254 = DIRECTION ( 'NONE',  ( 0.1736481776669313026, 0.0000000000000000000, 0.9848077530122077983 ) ) ;
#255 = ADVANCED_FACE ( 'NONE', ( #341 ), #203, .T. ) ;
#256 = ORIENTED_EDGE ( 'NONE', *, *, #165, .F. ) ;
#257 = ORIENTED_EDGE ( 'NONE', *, *, #201, .F. ) ;
#258 = PRODUCT_DEFINITION_FORMATION_WITH_SPECIFIED_SOURCE ( 'ANY', '', #166, .NOT_KNOWN. ) ;
#259 = DIRECTION ( 'NONE',  ( -1.224646799147353454E-16, -0.0000000000000000000, -1.000000000000000000 ) ) ;
#260 = ADVANCED_FACE ( 'NONE', ( #109 ), #316, .T. ) ;
#261 = SURFACE_STYLE_USAGE ( .BOTH. , #289 ) ;
#262 = AXIS2_PLACEMENT_3D ( 'NONE', #344, #69, #35 ) ;
#263 = DIRECTION ( 'NONE',  ( 1.000000000000000000, 0.0000000000000000000, 0.0000000000000000000 ) ) ;
#264 = FILL_AREA_STYLE ('',( #68 ) ) ;
#265 = CLOSED_SHELL ( 'NONE', ( #142, #255, #293, #172, #73, #181, #260, #13, #56, #302, #102, #37 ) ) ;
#266 = VERTEX_POINT ( 'NONE', #100 ) ;
#267 = AXIS2_PLACEMENT_3D ( 'NONE', #274, #324, #135 ) ;
#268 = DIRECTION ( 'NONE',  ( 1.000000000000000000, 0.0000000000000000000, 0.0000000000000000000 ) ) ;
#269 = ORIENTED_EDGE ( 'NONE', *, *, #233, .F. ) ;
#270 = CARTESIAN_POINT ( 'NONE',  ( 0.0000000000000000000, 0.0000000000000000000, 3.267717000000000649 ) ) ;
#271 = ORIENTED_EDGE ( 'NONE', *, *, #44, .F. ) ;
#272 = VERTEX_POINT ( 'NONE', #242 ) ;
#273 = AXIS2_PLACEMENT_3D ( 'NONE', #252, #8, #200 ) ;
#274 = CARTESIAN_POINT ( 'NONE',  ( 0.0000000000000000000, 0.0000000000000000000, 3.267717000000000649 ) ) ;
#275 = AXIS2_PLACEMENT_3D ( 'NONE', #3, #45, #216 ) ;
#276 = ORIENTED_EDGE ( 'NONE', *, *, #33, .T. ) ;
#277 = DIRECTION ( 'NONE',  ( 1.224646799147353207E-16, 1.000000000000000000, -0.0000000000000000000 ) ) ;
#278 = APPLICATION_CONTEXT ( 'automotive_design' ) ;
#279 = PLANE ( 'NONE',  #14 ) ;
#280 = VECTOR ( 'NONE', #254, 39.37007874015748143 ) ;
#281 = CARTESIAN_POINT ( 'NONE',  ( -0.2162992794999999691, 2.648902202975536788E-17, 0.01968500000000000111 ) ) ;
#282 = AXIS2_PLACEMENT_3D ( 'NONE', #300, #182, #161 ) ;
#283 = DIRECTION ( 'NONE',  ( -1.000000000000000000, 1.224646799147353454E-16, 0.0000000000000000000 ) ) ;
#284 = FACE_OUTER_BOUND ( 'NONE', #240, .T. ) ;
#285 = EDGE_CURVE ( 'NONE', #121, #160, #30, .T. ) ;
#286 = DIRECTION ( 'NONE',  ( -1.000000000000000000, 0.0000000000000000000, 0.0000000000000000000 ) ) ;
#287 = AXIS2_PLACEMENT_3D ( 'NONE', #66, #291, #286 ) ;
#288 = CARTESIAN_POINT ( 'NONE',  ( -0.2212205000000019295, 0.0000000000000000000, 3.267717000000000649 ) ) ;
#289 = SURFACE_SIDE_STYLE ('',( #176 ) ) ;
#290 = VECTOR ( 'NONE', #306, 39.37007874015748854 ) ;
#291 = DIRECTION ( 'NONE',  ( -0.0000000000000000000, -0.0000000000000000000, -1.000000000000000000 ) ) ;
#292 = CARTESIAN_POINT ( 'NONE',  ( 0.2362204999999999999, 2.892866792179872647E-17, 3.252717000000002301 ) ) ;
#293 = ADVANCED_FACE ( 'NONE', ( #138 ), #42, .T. ) ;
#294 = VERTEX_POINT ( 'NONE', #317 ) ;
#295 = AXIS2_PLACEMENT_3D ( 'NONE', #236, #210, #206 ) ;
#296 =( NAMED_UNIT ( * ) SI_UNIT ( $, .STERADIAN. ) SOLID_ANGLE_UNIT ( ) );
#297 = ORIENTED_EDGE ( 'NONE', *, *, #249, .F. ) ;
#298 = FILL_AREA_STYLE ('',( #105 ) ) ;
#299 = ORIENTED_EDGE ( 'NONE', *, *, #63, .T. ) ;
#300 = CARTESIAN_POINT ( 'NONE',  ( 1.446432783766537492E-16, 0.0000000000000000000, 1.181102000000000096 ) ) ;
#301 = ORIENTED_EDGE ( 'NONE', *, *, #233, .T. ) ;
#302 = ADVANCED_FACE ( 'NONE', ( #103 ), #247, .T. ) ;
#303 = APPLICATION_PROTOCOL_DEFINITION ( 'draft international standard', 'automotive_design', 1998, #278 ) ;
#304 = ORIENTED_EDGE ( 'NONE', *, *, #98, .F. ) ;
#305 = CARTESIAN_POINT ( 'NONE',  ( 0.2362205000000001665, 2.892866792179874496E-17, 1.182441673027071261 ) ) ;
#306 = DIRECTION ( 'NONE',  ( 0.7071067811865474617, 8.659560562354932858E-17, -0.7071067811865474617 ) ) ;
#307 =( CONVERSION_BASED_UNIT ( 'INCH', #145 ) LENGTH_UNIT ( ) NAMED_UNIT ( #192 ) );
#308 =( NAMED_UNIT ( * ) SI_UNIT ( $, .STERADIAN. ) SOLID_ANGLE_UNIT ( ) );
#309 = LINE ( 'NONE', #335, #290 ) ;
#310 = EDGE_CURVE ( 'NONE', #272, #55, #322, .T. ) ;
#311 = CYLINDRICAL_SURFACE ( 'NONE', #80, 0.2362204999999999999 ) ;
#312 = DIRECTION ( 'NONE',  ( -0.7071067811865474617, 0.0000000000000000000, -0.7071067811865474617 ) ) ;
#313 = AXIS2_PLACEMENT_3D ( 'NONE', #190, #211, #268 ) ;
#314 = CARTESIAN_POINT ( 'NONE',  ( 2.410717224121565012E-18, 0.0000000000000000000, 0.0000000000000000000 ) ) ;
#315 = LINE ( 'NONE', #342, #174 ) ;
#316 = PLANE ( 'NONE',  #267 ) ;
#317 = CARTESIAN_POINT ( 'NONE',  ( -0.2359842794999998383, 2.891420358783783796E-17, 1.181102000000000096 ) ) ;
#318 = ORIENTED_EDGE ( 'NONE', *, *, #130, .T. ) ;
#319 = DIRECTION ( 'NONE',  ( 0.0000000000000000000, 0.0000000000000000000, 1.000000000000000000 ) ) ;
#320 = ORIENTED_EDGE ( 'NONE', *, *, #6, .F. ) ;
#321 = AXIS2_PLACEMENT_3D ( 'NONE', #197, #9, #227 ) ;
#322 = CIRCLE ( 'NONE', #275, 0.2359842794999999771 ) ;
#323 =( GEOMETRIC_REPRESENTATION_CONTEXT ( 3 ) GLOBAL_UNCERTAINTY_ASSIGNED_CONTEXT ( ( #251 ) ) GLOBAL_UNIT_ASSIGNED_CONTEXT ( ( #16, #39, #97 ) ) REPRESENTATION_CONTEXT ( 'NONE', 'WORKASPACE' ) );
#324 = DIRECTION ( 'NONE',  ( 0.0000000000000000000, 0.0000000000000000000, 1.000000000000000000 ) ) ;
#325 = ORIENTED_EDGE ( 'NONE', *, *, #113, .T. ) ;
#326 = VERTEX_POINT ( 'NONE', #214 ) ;
#327 = CARTESIAN_POINT ( 'NONE',  ( 0.0000000000000000000, 0.0000000000000000000, 0.0000000000000000000 ) ) ;
#328 = EDGE_LOOP ( 'NONE', ( #304, #218, #158, #348 ) ) ;
#329 = TOROIDAL_SURFACE ( 'NONE', #155, 0.2162992794999999691, 0.01968500000000000111 ) ;
#330 = AXIS2_PLACEMENT_3D ( 'NONE', #88, #339, #34 ) ;
#331 = PRODUCT_CONTEXT ( 'NONE', #228, 'mechanical' ) ;
#332 = CIRCLE ( 'NONE', #67, 0.2362204999999999999 ) ;
#333 = DIRECTION ( 'NONE',  ( 1.000000000000000000, 0.0000000000000000000, 0.0000000000000000000 ) ) ;
#334 = EDGE_CURVE ( 'NONE', #266, #55, #26, .T. ) ;
#335 = CARTESIAN_POINT ( 'NONE',  ( 0.2212205000000019295, 2.709169772307794108E-17, 3.267717000000000649 ) ) ;
#336 = FACE_OUTER_BOUND ( 'NONE', #239, .T. ) ;
#337 = CARTESIAN_POINT ( 'NONE',  ( 0.0000000000000000000, 0.0000000000000000000, 0.0000000000000000000 ) ) ;
#338 = COLOUR_RGB ( '',0.7921568627450980005, 0.8196078431372548767, 0.9333333333333333481 ) ;
#339 = DIRECTION ( 'NONE',  ( 1.224646799147353454E-16, 0.0000000000000000000, 1.000000000000000000 ) ) ;
#340 = DIMENSIONAL_EXPONENTS ( 1.000000000000000000, 0.0000000000000000000, 0.0000000000000000000, 0.0000000000000000000, 0.0000000000000000000, 0.0000000000000000000, 0.0000000000000000000 ) ;
#341 = FACE_OUTER_BOUND ( 'NONE', #22, .T. ) ;
#342 = CARTESIAN_POINT ( 'NONE',  ( -0.2362204999999999999, 0.0000000000000000000, 3.267717000000000649 ) ) ;
#343 = CIRCLE ( 'NONE', #295, 0.2362204999999999999 ) ;
#344 = CARTESIAN_POINT ( 'NONE',  ( 2.410717224121565012E-18, 0.0000000000000000000, 0.01968500000000000111 ) ) ;
#345 = DIRECTION ( 'NONE',  ( -1.224646799147353454E-16, -0.0000000000000000000, -1.000000000000000000 ) ) ;
#346 = EDGE_CURVE ( 'NONE', #326, #349, #19, .T. ) ;
#347 =( NAMED_UNIT ( * ) PLANE_ANGLE_UNIT ( ) SI_UNIT ( $, .RADIAN. ) );
#348 = ORIENTED_EDGE ( 'NONE', *, *, #310, .F. ) ;
#349 = VERTEX_POINT ( 'NONE', #156 ) ;
#350 = VERTEX_POINT ( 'NONE', #292 ) ;
#351 =( GEOMETRIC_REPRESENTATION_CONTEXT ( 3 ) GLOBAL_UNCERTAINTY_ASSIGNED_CONTEXT ( ( #198 ) ) GLOBAL_UNIT_ASSIGNED_CONTEXT ( ( #185, #347, #296 ) ) REPRESENTATION_CONTEXT ( 'NONE', 'WORKASPACE' ) );
ENDSEC;
END-ISO-10303-21;
