ISO-10303-21;
HEADER;
FILE_DESCRIPTION (( 'STEP AP214' ),
    '1' );
FILE_NAME ('Micro_EMS-250-4.STEP',
    '2021-09-01T17:50:40',
    ( '' ),
    ( '' ),
    'SwSTEP 2.0',
    'SolidWorks 2020',
    '' );
FILE_SCHEMA (( 'AUTOMOTIVE_DESIGN' ));
ENDSEC;

DATA;
#1 = ORIENTED_EDGE ( 'NONE', *, *, #157, .F. ) ;
#2 = CARTESIAN_POINT ( 'NONE',  ( -0.1248749999999999166, 1.529277690435257475E-17, 0.7500000000000001110 ) ) ;
#3 = AXIS2_PLACEMENT_3D ( 'NONE', #86, #224, #291 ) ;
#4 = EDGE_LOOP ( 'NONE', ( #138, #120, #161, #204 ) ) ;
#5 = CARTESIAN_POINT ( 'NONE',  ( 0.1250000000000000000, 1.530808498934191509E-17, 2.500000000000000000 ) ) ;
#6 = ORIENTED_EDGE ( 'NONE', *, *, #114, .F. ) ;
#7 = DIRECTION ( 'NONE',  ( -1.000000000000000000, 0.0000000000000000000, 0.0000000000000000000 ) ) ;
#8 = ORIENTED_EDGE ( 'NONE', *, *, #218, .F. ) ;
#9 = CONICAL_SURFACE ( 'NONE', #213, 0.1100000000000001948, 0.7853981633974517207 ) ;
#10 = MECHANICAL_DESIGN_GEOMETRIC_PRESENTATION_REPRESENTATION (  '', ( #146 ), #125 ) ;
#11 = EDGE_CURVE ( 'NONE', #112, #20, #191, .T. ) ;
#12 = CARTESIAN_POINT ( 'NONE',  ( 0.0000000000000000000, 0.0000000000000000000, 0.0000000000000000000 ) ) ;
#13 = CARTESIAN_POINT ( 'NONE',  ( 0.0000000000000000000, 0.0000000000000000000, 2.500000000000000000 ) ) ;
#14 =( CONVERSION_BASED_UNIT ( 'INCH', #171 ) LENGTH_UNIT ( ) NAMED_UNIT ( #43 ) );
#15 = CYLINDRICAL_SURFACE ( 'NONE', #101, 0.1248749999999999999 ) ;
#16 = AXIS2_PLACEMENT_3D ( 'NONE', #278, #175, #233 ) ;
#17 = ORIENTED_EDGE ( 'NONE', *, *, #190, .F. ) ;
#18 = ORIENTED_EDGE ( 'NONE', *, *, #34, .T. ) ;
#19 = DIRECTION ( 'NONE',  ( -1.000000000000000000, 0.0000000000000000000, 0.0000000000000000000 ) ) ;
#20 = VERTEX_POINT ( 'NONE', #88 ) ;
#21 = DIRECTION ( 'NONE',  ( 1.000000000000000000, 0.0000000000000000000, 0.0000000000000000000 ) ) ;
#22 = ADVANCED_FACE ( 'NONE', ( #244 ), #15, .T. ) ;
#23 = STYLED_ITEM ( 'NONE', ( #35 ), #54 ) ;
#24 = ORIENTED_EDGE ( 'NONE', *, *, #170, .T. ) ;
#25 = DIRECTION ( 'NONE',  ( -1.224646799147353207E-16, -0.0000000000000000000, -1.000000000000000000 ) ) ;
#26 = CARTESIAN_POINT ( 'NONE',  ( 9.193532640014472135E-17, 0.0000000000000000000, 0.7507089102274522308 ) ) ;
#27 = PRESENTATION_LAYER_ASSIGNMENT (  '', '', ( #23 ) ) ;
#28 = ADVANCED_FACE ( 'NONE', ( #110 ), #169, .T. ) ;
#29 = VERTEX_POINT ( 'NONE', #200 ) ;
#30 = EDGE_CURVE ( 'NONE', #41, #29, #80, .T. ) ;
#31 = DIRECTION ( 'NONE',  ( -1.224646799147353207E-16, -0.0000000000000000000, -1.000000000000000000 ) ) ;
#32 = DIRECTION ( 'NONE',  ( -1.224646799147353207E-16, -0.0000000000000000000, -1.000000000000000000 ) ) ;
#33 = DIRECTION ( 'NONE',  ( 0.0000000000000000000, 0.0000000000000000000, 1.000000000000000000 ) ) ;
#34 = EDGE_CURVE ( 'NONE', #211, #29, #99, .T. ) ;
#35 = PRESENTATION_STYLE_ASSIGNMENT (( #158 ) ) ;
#36 = APPLICATION_PROTOCOL_DEFINITION ( 'draft international standard', 'automotive_design', 1998, #259 ) ;
#37 = DIRECTION ( 'NONE',  ( 1.000000000000000000, 0.0000000000000000000, 0.0000000000000000000 ) ) ;
#38 = LENGTH_MEASURE_WITH_UNIT ( LENGTH_MEASURE( 0.02539999999999999897 ), #83 );
#39 =( NAMED_UNIT ( * ) PLANE_ANGLE_UNIT ( ) SI_UNIT ( $, .RADIAN. ) );
#40 = DIRECTION ( 'NONE',  ( 0.0000000000000000000, 0.0000000000000000000, -1.000000000000000000 ) ) ;
#41 = VERTEX_POINT ( 'NONE', #227 ) ;
#42 = ORIENTED_EDGE ( 'NONE', *, *, #289, .T. ) ;
#43 = DIMENSIONAL_EXPONENTS ( 1.000000000000000000, 0.0000000000000000000, 0.0000000000000000000, 0.0000000000000000000, 0.0000000000000000000, 0.0000000000000000000, 0.0000000000000000000 ) ;
#44 = ORIENTED_EDGE ( 'NONE', *, *, #137, .T. ) ;
#45 = CARTESIAN_POINT ( 'NONE',  ( 0.0000000000000000000, 0.0000000000000000000, 0.0000000000000000000 ) ) ;
#46 = EDGE_LOOP ( 'NONE', ( #229, #18, #254, #232 ) ) ;
#47 = LINE ( 'NONE', #5, #192 ) ;
#48 = ORIENTED_EDGE ( 'NONE', *, *, #247, .T. ) ;
#49 = DIRECTION ( 'NONE',  ( -0.0000000000000000000, -0.0000000000000000000, -1.000000000000000000 ) ) ;
#50 = AXIS2_PLACEMENT_3D ( 'NONE', #65, #33, #219 ) ;
#51 = VECTOR ( 'NONE', #119, 39.37007874015748143 ) ;
#52 = CARTESIAN_POINT ( 'NONE',  ( 0.1100000000000001948, 1.438959988998141146E-17, 2.500000000000000000 ) ) ;
#53 = CARTESIAN_POINT ( 'NONE',  ( -0.1248749999999999999, 0.0000000000000000000, 1.529277690435257475E-17 ) ) ;
#54 = MANIFOLD_SOLID_BREP ( 'Cut-Revolve1', #78 ) ;
#55 = SURFACE_SIDE_STYLE ('',( #59 ) ) ;
#56 = VECTOR ( 'NONE', #269, 39.37007874015748143 ) ;
#57 = ADVANCED_FACE ( 'NONE', ( #195 ), #9, .T. ) ;
#58 = DIRECTION ( 'NONE',  ( 1.224646799147353207E-16, 0.0000000000000000000, 1.000000000000000000 ) ) ;
#59 = SURFACE_STYLE_FILL_AREA ( #106 ) ;
#60 = EDGE_CURVE ( 'NONE', #246, #135, #281, .T. ) ;
#61 = DIRECTION ( 'NONE',  ( -1.224646799147353207E-16, -0.0000000000000000000, -1.000000000000000000 ) ) ;
#62 = DIRECTION ( 'NONE',  ( 0.0000000000000000000, 0.0000000000000000000, -1.000000000000000000 ) ) ;
#63 = CIRCLE ( 'NONE', #241, 0.1248749999999999999 ) ;
#64 =( NAMED_UNIT ( * ) PLANE_ANGLE_UNIT ( ) SI_UNIT ( $, .RADIAN. ) );
#65 = CARTESIAN_POINT ( 'NONE',  ( 0.0000000000000000000, 0.0000000000000000000, 2.500000000000000000 ) ) ;
#66 = ORIENTED_EDGE ( 'NONE', *, *, #218, .T. ) ;
#67 = AXIS2_PLACEMENT_3D ( 'NONE', #287, #58, #221 ) ;
#68 = PLANE ( 'NONE',  #248 ) ;
#69 = ORIENTED_EDGE ( 'NONE', *, *, #60, .F. ) ;
#70 = CARTESIAN_POINT ( 'NONE',  ( 0.1248750000000000970, 0.0000000000000000000, 0.7500000000000001110 ) ) ;
#71 = ORIENTED_EDGE ( 'NONE', *, *, #73, .F. ) ;
#72 = CARTESIAN_POINT ( 'NONE',  ( 0.1250000000000000833, 1.530808498934192433E-17, 0.7507089102274522308 ) ) ;
#73 = EDGE_CURVE ( 'NONE', #97, #41, #79, .T. ) ;
#74 = DIRECTION ( 'NONE',  ( 1.000000000000000000, 0.0000000000000000000, -0.0000000000000000000 ) ) ;
#75 = VECTOR ( 'NONE', #184, 39.37007874015748143 ) ;
#76 = ADVANCED_FACE ( 'NONE', ( #103 ), #257, .T. ) ;
#77 = LENGTH_MEASURE_WITH_UNIT ( LENGTH_MEASURE( 0.02539999999999999897 ), #284 );
#78 = CLOSED_SHELL ( 'NONE', ( #22, #76, #57, #85, #28, #267, #123, #276, #193, #131 ) ) ;
#79 = CIRCLE ( 'NONE', #50, 0.1100000000000001948 ) ;
#80 = LINE ( 'NONE', #296, #234 ) ;
#81 = LINE ( 'NONE', #53, #104 ) ;
#82 = FILL_AREA_STYLE_COLOUR ( '', #182 ) ;
#83 =( LENGTH_UNIT ( ) NAMED_UNIT ( * ) SI_UNIT ( $, .METRE. ) );
#84 = CARTESIAN_POINT ( 'NONE',  ( 0.1248750000000000970, 0.0000000000000000000, 0.7500000000000001110 ) ) ;
#85 = ADVANCED_FACE ( 'NONE', ( #105 ), #243, .T. ) ;
#86 = CARTESIAN_POINT ( 'NONE',  ( 9.184850993605150903E-17, 0.0000000000000000000, 0.7500000000000001110 ) ) ;
#87 = AXIS2_PLACEMENT_3D ( 'NONE', #102, #198, #152 ) ;
#88 = CARTESIAN_POINT ( 'NONE',  ( -0.1248749999999999166, 1.530043094684724646E-17, 0.7500000000000001110 ) ) ;
#89 = ORIENTED_EDGE ( 'NONE', *, *, #201, .T. ) ;
#90 = EDGE_CURVE ( 'NONE', #97, #211, #260, .T. ) ;
#91 = ORIENTED_EDGE ( 'NONE', *, *, #289, .F. ) ;
#92 = UNCERTAINTY_MEASURE_WITH_UNIT (LENGTH_MEASURE( 1.000000000000000082E-05 ), #134, 'distance_accuracy_value', 'NONE');
#93 = AXIS2_PLACEMENT_3D ( 'NONE', #225, #216, #37 ) ;
#94 = DIRECTION ( 'NONE',  ( -1.224646799147353207E-16, -0.0000000000000000000, -1.000000000000000000 ) ) ;
#95 = EDGE_LOOP ( 'NONE', ( #71, #180, #91, #159 ) ) ;
#96 = LINE ( 'NONE', #121, #56 ) ;
#97 = VERTEX_POINT ( 'NONE', #52 ) ;
#98 = CARTESIAN_POINT ( 'NONE',  ( 0.1100000000000001948, 1.347111479062090784E-17, 2.500000000000000000 ) ) ;
#99 = CIRCLE ( 'NONE', #143, 0.1250000000000000000 ) ;
#100 = CIRCLE ( 'NONE', #235, 0.1100000000000001948 ) ;
#101 = AXIS2_PLACEMENT_3D ( 'NONE', #153, #61, #133 ) ;
#102 = CARTESIAN_POINT ( 'NONE',  ( 9.184850993605150903E-17, 0.0000000000000000000, 0.7500000000000001110 ) ) ;
#103 = FACE_OUTER_BOUND ( 'NONE', #113, .T. ) ;
#104 = VECTOR ( 'NONE', #32, 39.37007874015748143 ) ;
#105 = FACE_OUTER_BOUND ( 'NONE', #299, .T. ) ;
#106 = FILL_AREA_STYLE ('',( #290 ) ) ;
#107 =( NAMED_UNIT ( * ) SI_UNIT ( $, .STERADIAN. ) SOLID_ANGLE_UNIT ( ) );
#108 = DIRECTION ( 'NONE',  ( 0.0000000000000000000, 0.0000000000000000000, 1.000000000000000000 ) ) ;
#109 = DIRECTION ( 'NONE',  ( -0.0000000000000000000, -0.0000000000000000000, -1.000000000000000000 ) ) ;
#110 = FACE_OUTER_BOUND ( 'NONE', #46, .T. ) ;
#111 = AXIS2_PLACEMENT_3D ( 'NONE', #164, #94, #19 ) ;
#112 = VERTEX_POINT ( 'NONE', #84 ) ;
#113 = EDGE_LOOP ( 'NONE', ( #203, #197, #183, #8 ) ) ;
#114 = EDGE_CURVE ( 'NONE', #20, #246, #145, .T. ) ;
#115 = CARTESIAN_POINT ( 'NONE',  ( 0.1250000000000000000, 1.530808498934191509E-17, 2.485000000000000320 ) ) ;
#116 = VERTEX_POINT ( 'NONE', #238 ) ;
#117 = MECHANICAL_DESIGN_GEOMETRIC_PRESENTATION_REPRESENTATION (  '', ( #23 ), #196 ) ;
#118 = AXIS2_PLACEMENT_3D ( 'NONE', #26, #188, #21 ) ;
#119 = DIRECTION ( 'NONE',  ( 0.7071067811865499042, 8.659560562354961208E-17, -0.7071067811865451302 ) ) ;
#120 = ORIENTED_EDGE ( 'NONE', *, *, #280, .F. ) ;
#121 = CARTESIAN_POINT ( 'NONE',  ( 0.1248749999999999999, 1.529277690435257475E-17, -1.529277690435257475E-17 ) ) ;
#122 = EDGE_CURVE ( 'NONE', #135, #246, #177, .T. ) ;
#123 = ADVANCED_FACE ( 'NONE', ( #256 ), #282, .T. ) ;
#124 =( GEOMETRIC_REPRESENTATION_CONTEXT ( 3 ) GLOBAL_UNCERTAINTY_ASSIGNED_CONTEXT ( ( #250 ) ) GLOBAL_UNIT_ASSIGNED_CONTEXT ( ( #14, #39, #199 ) ) REPRESENTATION_CONTEXT ( 'NONE', 'WORKASPACE' ) );
#126 = DIRECTION ( 'NONE',  ( 1.000000000000000000, 0.0000000000000000000, 0.0000000000000000000 ) ) ;
#125 =( GEOMETRIC_REPRESENTATION_CONTEXT ( 3 ) GLOBAL_UNCERTAINTY_ASSIGNED_CONTEXT ( ( #181 ) ) GLOBAL_UNIT_ASSIGNED_CONTEXT ( ( #167, #286, #261 ) ) REPRESENTATION_CONTEXT ( 'NONE', 'WORKASPACE' ) );
#127 = CARTESIAN_POINT ( 'NONE',  ( -0.1249999999999999167, 0.0000000000000000000, 0.7507089102274522308 ) ) ;
#128 = SURFACE_SIDE_STYLE ('',( #245 ) ) ;
#129 =( LENGTH_UNIT ( ) NAMED_UNIT ( * ) SI_UNIT ( $, .METRE. ) );
#130 = EDGE_LOOP ( 'NONE', ( #6, #209, #66, #272 ) ) ;
#131 = ADVANCED_FACE ( 'NONE', ( #162 ), #68, .F. ) ;
#132 = CARTESIAN_POINT ( 'NONE',  ( 0.0000000000000000000, 0.0000000000000000000, 2.500000000000000000 ) ) ;
#133 = DIRECTION ( 'NONE',  ( -1.000000000000000000, 0.0000000000000000000, 1.224646799147353454E-16 ) ) ;
#134 =( CONVERSION_BASED_UNIT ( 'INCH', #38 ) LENGTH_UNIT ( ) NAMED_UNIT ( #285 ) );
#135 = VERTEX_POINT ( 'NONE', #72 ) ;
#136 = DIMENSIONAL_EXPONENTS ( 1.000000000000000000, 0.0000000000000000000, 0.0000000000000000000, 0.0000000000000000000, 0.0000000000000000000, 0.0000000000000000000, 0.0000000000000000000 ) ;
#137 = EDGE_CURVE ( 'NONE', #211, #135, #47, .T. ) ;
#138 = ORIENTED_EDGE ( 'NONE', *, *, #90, .F. ) ;
#139 = DIRECTION ( 'NONE',  ( -1.224646799147353207E-16, -0.0000000000000000000, -1.000000000000000000 ) ) ;
#140 = EDGE_LOOP ( 'NONE', ( #89, #24, #1, #142 ) ) ;
#141 = CARTESIAN_POINT ( 'NONE',  ( -0.1248749999999999999, 0.0000000000000000000, 3.058555380870514950E-17 ) ) ;
#142 = ORIENTED_EDGE ( 'NONE', *, *, #247, .F. ) ;
#143 = AXIS2_PLACEMENT_3D ( 'NONE', #293, #40, #265 ) ;
#144 = CARTESIAN_POINT ( 'NONE',  ( 0.0000000000000000000, 0.0000000000000000000, 0.0000000000000000000 ) ) ;
#145 = LINE ( 'NONE', #2, #240 ) ;
#146 = STYLED_ITEM ( 'NONE', ( #149 ), #147 ) ;
#147 = ADVANCED_BREP_SHAPE_REPRESENTATION ( 'Micro_EMS-250-4', ( #54, #214 ), #124 ) ;
#148 = FACE_OUTER_BOUND ( 'NONE', #130, .T. ) ;
#150 = CIRCLE ( 'NONE', #189, 0.1248749999999999999 ) ;
#149 = PRESENTATION_STYLE_ASSIGNMENT (( #194 ) ) ;
#151 = DIRECTION ( 'NONE',  ( -1.224646799147353207E-16, -0.0000000000000000000, -1.000000000000000000 ) ) ;
#152 = DIRECTION ( 'NONE',  ( 1.000000000000000000, 0.0000000000000000000, 0.0000000000000000000 ) ) ;
#153 = CARTESIAN_POINT ( 'NONE',  ( 0.0000000000000000000, 0.0000000000000000000, 0.0000000000000000000 ) ) ;
#154 = PRODUCT_CONTEXT ( 'NONE', #259, 'mechanical' ) ;
#155 = PRESENTATION_LAYER_ASSIGNMENT (  '', '', ( #146 ) ) ;
#156 = CARTESIAN_POINT ( 'NONE',  ( 0.0000000000000000000, 0.0000000000000000000, 2.500000000000000000 ) ) ;
#157 = EDGE_CURVE ( 'NONE', #236, #116, #63, .T. ) ;
#158 = SURFACE_STYLE_USAGE ( .BOTH. , #128 ) ;
#159 = ORIENTED_EDGE ( 'NONE', *, *, #30, .F. ) ;
#160 = DIRECTION ( 'NONE',  ( -0.0000000000000000000, -0.0000000000000000000, -1.000000000000000000 ) ) ;
#161 = ORIENTED_EDGE ( 'NONE', *, *, #30, .T. ) ;
#162 = FACE_OUTER_BOUND ( 'NONE', #255, .T. ) ;
#163 = ORIENTED_EDGE ( 'NONE', *, *, #73, .T. ) ;
#164 = CARTESIAN_POINT ( 'NONE',  ( 9.184850993605150903E-17, 0.0000000000000000000, 0.7500000000000001110 ) ) ;
#165 = DIRECTION ( 'NONE',  ( -1.000000000000000000, 0.0000000000000000000, 1.224646799147353454E-16 ) ) ;
#166 = FACE_OUTER_BOUND ( 'NONE', #274, .T. ) ;
#167 =( CONVERSION_BASED_UNIT ( 'INCH', #77 ) LENGTH_UNIT ( ) NAMED_UNIT ( #136 ) );
#168 = AXIS2_PLACEMENT_3D ( 'NONE', #132, #108, #223 ) ;
#169 = CYLINDRICAL_SURFACE ( 'NONE', #208, 0.1250000000000000000 ) ;
#170 = EDGE_CURVE ( 'NONE', #112, #116, #96, .T. ) ;
#171 = LENGTH_MEASURE_WITH_UNIT ( LENGTH_MEASURE( 0.02539999999999999897 ), #129 );
#172 = CARTESIAN_POINT ( 'NONE',  ( 0.0000000000000000000, 0.0000000000000000000, 2.500000000000000000 ) ) ;
#173 = APPLICATION_PROTOCOL_DEFINITION ( 'draft international standard', 'automotive_design', 1998, #283 ) ;
#174 = DIRECTION ( 'NONE',  ( 1.000000000000000000, 0.0000000000000000000, 0.0000000000000000000 ) ) ;
#175 = DIRECTION ( 'NONE',  ( 0.0000000000000000000, 0.0000000000000000000, -1.000000000000000000 ) ) ;
#176 = AXIS2_PLACEMENT_3D ( 'NONE', #297, #151, #179 ) ;
#177 = CIRCLE ( 'NONE', #118, 0.1250000000000000000 ) ;
#178 = DIRECTION ( 'NONE',  ( -1.000000000000000000, 0.0000000000000000000, 0.0000000000000000000 ) ) ;
#179 = DIRECTION ( 'NONE',  ( 1.000000000000000000, 0.0000000000000000000, 0.0000000000000000000 ) ) ;
#180 = ORIENTED_EDGE ( 'NONE', *, *, #90, .T. ) ;
#181 = UNCERTAINTY_MEASURE_WITH_UNIT (LENGTH_MEASURE( 1.000000000000000082E-05 ), #167, 'distance_accuracy_value', 'NONE');
#182 = COLOUR_RGB ( '',0.7921568627450980005, 0.8196078431372548767, 0.9333333333333333481 ) ;
#183 = ORIENTED_EDGE ( 'NONE', *, *, #60, .T. ) ;
#184 = DIRECTION ( 'NONE',  ( 0.1736481776669314137, 0.0000000000000000000, 0.9848077530122077983 ) ) ;
#185 = ORIENTED_EDGE ( 'NONE', *, *, #280, .T. ) ;
#186 = FACE_OUTER_BOUND ( 'NONE', #230, .T. ) ;
#187 = ORIENTED_EDGE ( 'NONE', *, *, #239, .F. ) ;
#188 = DIRECTION ( 'NONE',  ( -1.224646799147353207E-16, -0.0000000000000000000, -1.000000000000000000 ) ) ;
#189 = AXIS2_PLACEMENT_3D ( 'NONE', #217, #31, #220 ) ;
#190 = EDGE_CURVE ( 'NONE', #29, #246, #273, .T. ) ;
#191 = CIRCLE ( 'NONE', #3, 0.1248749999999999999 ) ;
#192 = VECTOR ( 'NONE', #49, 39.37007874015748143 ) ;
#193 = ADVANCED_FACE ( 'NONE', ( #186 ), #275, .T. ) ;
#194 = SURFACE_STYLE_USAGE ( .BOTH. , #55 ) ;
#195 = FACE_OUTER_BOUND ( 'NONE', #95, .T. ) ;
#196 =( GEOMETRIC_REPRESENTATION_CONTEXT ( 3 ) GLOBAL_UNCERTAINTY_ASSIGNED_CONTEXT ( ( #92 ) ) GLOBAL_UNIT_ASSIGNED_CONTEXT ( ( #134, #64, #107 ) ) REPRESENTATION_CONTEXT ( 'NONE', 'WORKASPACE' ) );
#197 = ORIENTED_EDGE ( 'NONE', *, *, #114, .T. ) ;
#198 = DIRECTION ( 'NONE',  ( 1.224646799147353207E-16, 0.0000000000000000000, 1.000000000000000000 ) ) ;
#199 =( NAMED_UNIT ( * ) SI_UNIT ( $, .STERADIAN. ) SOLID_ANGLE_UNIT ( ) );
#200 = CARTESIAN_POINT ( 'NONE',  ( -0.1250000000000000000, 0.0000000000000000000, 2.485000000000000320 ) ) ;
#201 = EDGE_CURVE ( 'NONE', #20, #112, #279, .T. ) ;
#202 = DIRECTION ( 'NONE',  ( -1.000000000000000000, 0.0000000000000000000, 0.0000000000000000000 ) ) ;
#203 = ORIENTED_EDGE ( 'NONE', *, *, #201, .F. ) ;
#204 = ORIENTED_EDGE ( 'NONE', *, *, #34, .F. ) ;
#205 = PRODUCT_DEFINITION_SHAPE ( 'NONE', 'NONE',  #270 ) ;
#206 = PRODUCT_DEFINITION_CONTEXT ( 'detailed design', #283, 'design' ) ;
#207 = LINE ( 'NONE', #70, #75 ) ;
#208 = AXIS2_PLACEMENT_3D ( 'NONE', #172, #109, #178 ) ;
#209 = ORIENTED_EDGE ( 'NONE', *, *, #11, .F. ) ;
#210 = DIRECTION ( 'NONE',  ( 0.0000000000000000000, 0.0000000000000000000, 1.000000000000000000 ) ) ;
#211 = VERTEX_POINT ( 'NONE', #115 ) ;
#212 = CARTESIAN_POINT ( 'NONE',  ( -0.1250000000000000000, 0.0000000000000000000, 2.500000000000000000 ) ) ;
#213 = AXIS2_PLACEMENT_3D ( 'NONE', #156, #62, #202 ) ;
#214 = AXIS2_PLACEMENT_3D ( 'NONE', #12, #242, #174 ) ;
#215 = CONICAL_SURFACE ( 'NONE', #87, 0.1248749999999999999, 0.1745329251994339192 ) ;
#216 = DIRECTION ( 'NONE',  ( 0.0000000000000000000, 0.0000000000000000000, -1.000000000000000000 ) ) ;
#217 = CARTESIAN_POINT ( 'NONE',  ( 1.872825028598994811E-33, 0.0000000000000000000, 1.529277690435257475E-17 ) ) ;
#218 = EDGE_CURVE ( 'NONE', #112, #135, #207, .T. ) ;
#219 = DIRECTION ( 'NONE',  ( 1.000000000000000000, 0.0000000000000000000, 0.0000000000000000000 ) ) ;
#220 = DIRECTION ( 'NONE',  ( -1.000000000000000000, 0.0000000000000000000, 1.224646799147353454E-16 ) ) ;
#221 = DIRECTION ( 'NONE',  ( 1.000000000000000000, 0.0000000000000000000, 0.0000000000000000000 ) ) ;
#222 = PRODUCT_DEFINITION_FORMATION_WITH_SPECIFIED_SOURCE ( 'ANY', '', #298, .NOT_KNOWN. ) ;
#223 = DIRECTION ( 'NONE',  ( 1.000000000000000000, 0.0000000000000000000, -0.0000000000000000000 ) ) ;
#224 = DIRECTION ( 'NONE',  ( -1.224646799147353207E-16, -0.0000000000000000000, -1.000000000000000000 ) ) ;
#225 = CARTESIAN_POINT ( 'NONE',  ( 0.0000000000000000000, 0.0000000000000000000, 2.485000000000000320 ) ) ;
#226 = PRODUCT_RELATED_PRODUCT_CATEGORY ( 'part', '', ( #298 ) ) ;
#227 = CARTESIAN_POINT ( 'NONE',  ( -0.1100000000000001948, 0.0000000000000000000, 2.500000000000000000 ) ) ;
#228 = AXIS2_PLACEMENT_3D ( 'NONE', #45, #139, #231 ) ;
#229 = ORIENTED_EDGE ( 'NONE', *, *, #137, .F. ) ;
#230 = EDGE_LOOP ( 'NONE', ( #252, #249, #48, #187 ) ) ;
#231 = DIRECTION ( 'NONE',  ( -1.000000000000000000, 0.0000000000000000000, 1.224646799147353454E-16 ) ) ;
#232 = ORIENTED_EDGE ( 'NONE', *, *, #122, .F. ) ;
#233 = DIRECTION ( 'NONE',  ( -1.000000000000000000, 0.0000000000000000000, 0.0000000000000000000 ) ) ;
#234 = VECTOR ( 'NONE', #266, 39.37007874015748143 ) ;
#235 = AXIS2_PLACEMENT_3D ( 'NONE', #292, #295, #126 ) ;
#236 = VERTEX_POINT ( 'NONE', #141 ) ;
#237 = CARTESIAN_POINT ( 'NONE',  ( 1.872825028598994811E-33, 0.0000000000000000000, 1.529277690435257475E-17 ) ) ;
#238 = CARTESIAN_POINT ( 'NONE',  ( 0.1248749999999999999, 1.529277690435257475E-17, 0.0000000000000000000 ) ) ;
#239 = EDGE_CURVE ( 'NONE', #116, #236, #150, .T. ) ;
#240 = VECTOR ( 'NONE', #253, 39.37007874015747433 ) ;
#241 = AXIS2_PLACEMENT_3D ( 'NONE', #237, #25, #165 ) ;
#242 = DIRECTION ( 'NONE',  ( 0.0000000000000000000, 0.0000000000000000000, 1.000000000000000000 ) ) ;
#243 = CYLINDRICAL_SURFACE ( 'NONE', #271, 0.1250000000000000000 ) ;
#244 = FACE_OUTER_BOUND ( 'NONE', #140, .T. ) ;
#245 = SURFACE_STYLE_FILL_AREA ( #263 ) ;
#246 = VERTEX_POINT ( 'NONE', #127 ) ;
#247 = EDGE_CURVE ( 'NONE', #20, #236, #81, .T. ) ;
#248 = AXIS2_PLACEMENT_3D ( 'NONE', #144, #210, #74 ) ;
#249 = ORIENTED_EDGE ( 'NONE', *, *, #11, .T. ) ;
#250 = UNCERTAINTY_MEASURE_WITH_UNIT (LENGTH_MEASURE( 1.000000000000000082E-05 ), #14, 'distance_accuracy_value', 'NONE');
#251 = DIRECTION ( 'NONE',  ( -0.0000000000000000000, -0.0000000000000000000, -1.000000000000000000 ) ) ;
#252 = ORIENTED_EDGE ( 'NONE', *, *, #170, .F. ) ;
#253 = DIRECTION ( 'NONE',  ( -0.1736481776669312194, 2.126576849575783625E-17, 0.9848077530122080203 ) ) ;
#254 = ORIENTED_EDGE ( 'NONE', *, *, #190, .T. ) ;
#255 = EDGE_LOOP ( 'NONE', ( #277, #268 ) ) ;
#256 = FACE_OUTER_BOUND ( 'NONE', #4, .T. ) ;
#257 = CONICAL_SURFACE ( 'NONE', #67, 0.1248749999999999999, 0.1745329251994339192 ) ;
#258 = CIRCLE ( 'NONE', #93, 0.1250000000000000000 ) ;
#259 = APPLICATION_CONTEXT ( 'automotive_design' ) ;
#260 = LINE ( 'NONE', #98, #51 ) ;
#261 =( NAMED_UNIT ( * ) SI_UNIT ( $, .STERADIAN. ) SOLID_ANGLE_UNIT ( ) );
#262 = PLANE ( 'NONE',  #168 ) ;
#263 = FILL_AREA_STYLE ('',( #82 ) ) ;
#264 = COLOUR_RGB ( '',0.7921568627450980005, 0.8196078431372548767, 0.9333333333333333481 ) ;
#265 = DIRECTION ( 'NONE',  ( 1.000000000000000000, 0.0000000000000000000, 0.0000000000000000000 ) ) ;
#266 = DIRECTION ( 'NONE',  ( -0.7071067811865499042, 0.0000000000000000000, -0.7071067811865451302 ) ) ;
#267 = ADVANCED_FACE ( 'NONE', ( #166 ), #262, .T. ) ;
#268 = ORIENTED_EDGE ( 'NONE', *, *, #239, .T. ) ;
#269 = DIRECTION ( 'NONE',  ( -1.224646799147353207E-16, -0.0000000000000000000, -1.000000000000000000 ) ) ;
#270 = PRODUCT_DEFINITION ( 'UNKNOWN', '', #222, #206 ) ;
#271 = AXIS2_PLACEMENT_3D ( 'NONE', #13, #160, #7 ) ;
#272 = ORIENTED_EDGE ( 'NONE', *, *, #122, .T. ) ;
#273 = LINE ( 'NONE', #212, #288 ) ;
#274 = EDGE_LOOP ( 'NONE', ( #185, #163 ) ) ;
#275 = CYLINDRICAL_SURFACE ( 'NONE', #228, 0.1248749999999999999 ) ;
#276 = ADVANCED_FACE ( 'NONE', ( #148 ), #215, .T. ) ;
#277 = ORIENTED_EDGE ( 'NONE', *, *, #157, .T. ) ;
#278 = CARTESIAN_POINT ( 'NONE',  ( 0.0000000000000000000, 0.0000000000000000000, 2.500000000000000000 ) ) ;
#279 = CIRCLE ( 'NONE', #111, 0.1248749999999999999 ) ;
#280 = EDGE_CURVE ( 'NONE', #41, #97, #100, .T. ) ;
#281 = CIRCLE ( 'NONE', #176, 0.1250000000000000000 ) ;
#282 = CONICAL_SURFACE ( 'NONE', #16, 0.1100000000000001948, 0.7853981633974517207 ) ;
#283 = APPLICATION_CONTEXT ( 'automotive_design' ) ;
#284 =( LENGTH_UNIT ( ) NAMED_UNIT ( * ) SI_UNIT ( $, .METRE. ) );
#285 = DIMENSIONAL_EXPONENTS ( 1.000000000000000000, 0.0000000000000000000, 0.0000000000000000000, 0.0000000000000000000, 0.0000000000000000000, 0.0000000000000000000, 0.0000000000000000000 ) ;
#286 =( NAMED_UNIT ( * ) PLANE_ANGLE_UNIT ( ) SI_UNIT ( $, .RADIAN. ) );
#287 = CARTESIAN_POINT ( 'NONE',  ( 9.184850993605150903E-17, 0.0000000000000000000, 0.7500000000000001110 ) ) ;
#288 = VECTOR ( 'NONE', #251, 39.37007874015748143 ) ;
#289 = EDGE_CURVE ( 'NONE', #29, #211, #258, .T. ) ;
#290 = FILL_AREA_STYLE_COLOUR ( '', #264 ) ;
#291 = DIRECTION ( 'NONE',  ( -1.000000000000000000, 0.0000000000000000000, 0.0000000000000000000 ) ) ;
#292 = CARTESIAN_POINT ( 'NONE',  ( 0.0000000000000000000, 0.0000000000000000000, 2.500000000000000000 ) ) ;
#293 = CARTESIAN_POINT ( 'NONE',  ( 0.0000000000000000000, 0.0000000000000000000, 2.485000000000000320 ) ) ;
#294 = SHAPE_DEFINITION_REPRESENTATION ( #205, #147 ) ;
#295 = DIRECTION ( 'NONE',  ( 0.0000000000000000000, 0.0000000000000000000, 1.000000000000000000 ) ) ;
#296 = CARTESIAN_POINT ( 'NONE',  ( -0.1100000000000001948, 0.0000000000000000000, 2.500000000000000000 ) ) ;
#297 = CARTESIAN_POINT ( 'NONE',  ( 9.193532640014472135E-17, 0.0000000000000000000, 0.7507089102274522308 ) ) ;
#298 = PRODUCT ( 'Micro_EMS-250-4', 'Micro_EMS-250-4', '', ( #154 ) ) ;
#299 = EDGE_LOOP ( 'NONE', ( #42, #44, #69, #17 ) ) ;
ENDSEC;
END-ISO-10303-21;
