ISO-10303-21;
HEADER;
FILE_DESCRIPTION (( 'STEP AP214' ),
    '1' );
FILE_NAME ('Micro_BEM-687-04.STEP',
    '2021-09-03T13:19:04',
    ( '' ),
    ( '' ),
    'SwSTEP 2.0',
    'SolidWorks 2020',
    '' );
FILE_SCHEMA (( 'AUTOMOTIVE_DESIGN' ));
ENDSEC;

DATA;
#1 = VERTEX_POINT ( 'NONE', #314 ) ;
#2 = EDGE_CURVE ( 'NONE', #214, #55, #184, .T. ) ;
#3 = DIRECTION ( 'NONE',  ( -1.224646799147353207E-16, -0.0000000000000000000, -1.000000000000000000 ) ) ;
#4 = VECTOR ( 'NONE', #298, 39.37007874015748143 ) ;
#5 = CARTESIAN_POINT ( 'NONE',  ( 1.683889348827610506E-16, 0.0000000000000000000, 1.375000000000000000 ) ) ;
#6 = ORIENTED_EDGE ( 'NONE', *, *, #108, .F. ) ;
#7 = CARTESIAN_POINT ( 'NONE',  ( 0.3434062500000001350, 4.205513648696958826E-17, 0.3434062499999999130 ) ) ;
#8 = AXIS2_PLACEMENT_3D ( 'NONE', #142, #246, #292 ) ;
#9 = ORIENTED_EDGE ( 'NONE', *, *, #57, .F. ) ;
#10 = ORIENTED_EDGE ( 'NONE', *, *, #61, .T. ) ;
#11 = CARTESIAN_POINT ( 'NONE',  ( 0.0000000000000000000, 0.0000000000000000000, 0.0000000000000000000 ) ) ;
#12 = DIRECTION ( 'NONE',  ( -0.7071067811865426878, 0.0000000000000000000, -0.7071067811865523467 ) ) ;
#13 = VECTOR ( 'NONE', #132, 39.37007874015748143 ) ;
#14 = CIRCLE ( 'NONE', #8, 0.3434062500000000795 ) ;
#15 = VERTEX_POINT ( 'NONE', #233 ) ;
#16 = ADVANCED_FACE ( 'NONE', ( #287 ), #86, .T. ) ;
#17 = PRODUCT_DEFINITION_SHAPE ( 'NONE', 'NONE',  #234 ) ;
#18 = DIRECTION ( 'NONE',  ( 1.224646799147353207E-16, 1.000000000000000000, -0.0000000000000000000 ) ) ;
#19 = DIRECTION ( 'NONE',  ( -1.000000000000000000, 0.0000000000000000000, 0.0000000000000000000 ) ) ;
#20 = DIRECTION ( 'NONE',  ( 1.224646799147353207E-16, 0.0000000000000000000, 1.000000000000000000 ) ) ;
#21 = AXIS2_PLACEMENT_3D ( 'NONE', #151, #281, #302 ) ;
#22 = SURFACE_STYLE_USAGE ( .BOTH. , #197 ) ;
#23 = CARTESIAN_POINT ( 'NONE',  ( 4.205513648696958210E-17, 0.0000000000000000000, 0.3434062500000000240 ) ) ;
#24 = CARTESIAN_POINT ( 'NONE',  ( 0.0000000000000000000, 0.0000000000000000000, 3.984999999999998987 ) ) ;
#25 = VECTOR ( 'NONE', #144, 39.37007874015748143 ) ;
#26 = EDGE_CURVE ( 'NONE', #313, #30, #240, .T. ) ;
#27 = CARTESIAN_POINT ( 'NONE',  ( 0.3599999999999994316, 4.500576986866520466E-17, 4.000000000000000000 ) ) ;
#28 = DIMENSIONAL_EXPONENTS ( 1.000000000000000000, 0.0000000000000000000, 0.0000000000000000000, 0.0000000000000000000, 0.0000000000000000000, 0.0000000000000000000, 0.0000000000000000000 ) ;
#29 = CARTESIAN_POINT ( 'NONE',  ( 0.0000000000000000000, 0.0000000000000000000, 4.000000000000000000 ) ) ;
#30 = VERTEX_POINT ( 'NONE', #7 ) ;
#31 = DIRECTION ( 'NONE',  ( 0.0000000000000000000, 1.000000000000000000, 0.0000000000000000000 ) ) ;
#32 = ORIENTED_EDGE ( 'NONE', *, *, #119, .F. ) ;
#33 = COLOUR_RGB ( '',0.7921568627450980005, 0.8196078431372548767, 0.9333333333333333481 ) ;
#34 = DIMENSIONAL_EXPONENTS ( 1.000000000000000000, 0.0000000000000000000, 0.0000000000000000000, 0.0000000000000000000, 0.0000000000000000000, 0.0000000000000000000, 0.0000000000000000000 ) ;
#35 = LINE ( 'NONE', #180, #48 ) ;
#36 = ORIENTED_EDGE ( 'NONE', *, *, #26, .T. ) ;
#37 = FILL_AREA_STYLE ('',( #307 ) ) ;
#38 = EDGE_LOOP ( 'NONE', ( #210, #265, #40 ) ) ;
#39 = ORIENTED_EDGE ( 'NONE', *, *, #181, .T. ) ;
#40 = ORIENTED_EDGE ( 'NONE', *, *, #173, .F. ) ;
#41 = ORIENTED_EDGE ( 'NONE', *, *, #181, .F. ) ;
#42 = EDGE_CURVE ( 'NONE', #55, #291, #263, .T. ) ;
#43 = AXIS2_PLACEMENT_3D ( 'NONE', #154, #153, #324 ) ;
#44 =( LENGTH_UNIT ( ) NAMED_UNIT ( * ) SI_UNIT ( $, .METRE. ) );
#45 = DIRECTION ( 'NONE',  ( 1.224646799147353207E-16, 0.0000000000000000000, 1.000000000000000000 ) ) ;
#46 = PRODUCT_DEFINITION_CONTEXT ( 'detailed design', #224, 'design' ) ;
#47 = FACE_OUTER_BOUND ( 'NONE', #238, .T. ) ;
#48 = VECTOR ( 'NONE', #171, 39.37007874015747433 ) ;
#49 = LINE ( 'NONE', #124, #4 ) ;
#50 = FACE_OUTER_BOUND ( 'NONE', #280, .T. ) ;
#51 = SPHERICAL_SURFACE ( 'NONE', #68, 0.3434062500000000240 ) ;
#52 = ORIENTED_EDGE ( 'NONE', *, *, #96, .T. ) ;
#53 = AXIS2_PLACEMENT_3D ( 'NONE', #5, #131, #274 ) ;
#54 = DIRECTION ( 'NONE',  ( -1.000000000000000000, 0.0000000000000000000, 0.0000000000000000000 ) ) ;
#55 = VERTEX_POINT ( 'NONE', #82 ) ;
#56 = DIRECTION ( 'NONE',  ( 1.000000000000000000, 0.0000000000000000000, 0.0000000000000000000 ) ) ;
#57 = EDGE_CURVE ( 'NONE', #313, #109, #285, .T. ) ;
#58 = FACE_OUTER_BOUND ( 'NONE', #75, .T. ) ;
#59 = ORIENTED_EDGE ( 'NONE', *, *, #196, .T. ) ;
#60 = DIRECTION ( 'NONE',  ( -1.000000000000000000, 0.0000000000000000000, 1.224646799147353207E-16 ) ) ;
#61 = EDGE_CURVE ( 'NONE', #291, #206, #267, .T. ) ;
#62 = ORIENTED_EDGE ( 'NONE', *, *, #294, .F. ) ;
#63 = AXIS2_PLACEMENT_3D ( 'NONE', #29, #178, #97 ) ;
#64 = VERTEX_POINT ( 'NONE', #223 ) ;
#65 = ORIENTED_EDGE ( 'NONE', *, *, #259, .F. ) ;
#66 =( NAMED_UNIT ( * ) PLANE_ANGLE_UNIT ( ) SI_UNIT ( $, .RADIAN. ) );
#67 = DIRECTION ( 'NONE',  ( 1.000000000000000000, 0.0000000000000000000, 0.0000000000000000000 ) ) ;
#68 = AXIS2_PLACEMENT_3D ( 'NONE', #255, #31, #100 ) ;
#69 = FACE_OUTER_BOUND ( 'NONE', #177, .T. ) ;
#70 = CARTESIAN_POINT ( 'NONE',  ( -0.3749999999999998335, 0.0000000000000000000, 1.554177059988545828 ) ) ;
#71 = EDGE_CURVE ( 'NONE', #64, #1, #92, .T. ) ;
#72 = ADVANCED_BREP_SHAPE_REPRESENTATION ( 'Micro_BEM-687-04', ( #114, #99 ), #266 ) ;
#73 = CYLINDRICAL_SURFACE ( 'NONE', #43, 0.3750000000000000555 ) ;
#74 = DIRECTION ( 'NONE',  ( -1.000000000000000000, 0.0000000000000000000, 0.0000000000000000000 ) ) ;
#75 = EDGE_LOOP ( 'NONE', ( #6, #133, #182 ) ) ;
#76 = AXIS2_PLACEMENT_3D ( 'NONE', #319, #168, #74 ) ;
#77 = DIRECTION ( 'NONE',  ( -1.224646799147353207E-16, -0.0000000000000000000, -1.000000000000000000 ) ) ;
#78 = LINE ( 'NONE', #300, #236 ) ;
#79 = EDGE_LOOP ( 'NONE', ( #278, #52, #41, #159 ) ) ;
#80 = LENGTH_MEASURE_WITH_UNIT ( LENGTH_MEASURE( 0.02539999999999999897 ), #183 );
#81 = AXIS2_PLACEMENT_3D ( 'NONE', #24, #125, #101 ) ;
#82 = CARTESIAN_POINT ( 'NONE',  ( -0.3599999999999994316, 0.0000000000000000000, 4.000000000000000000 ) ) ;
#83 = SURFACE_STYLE_FILL_AREA ( #37 ) ;
#84 = ADVANCED_FACE ( 'NONE', ( #47 ), #303, .T. ) ;
#85 = ORIENTED_EDGE ( 'NONE', *, *, #173, .T. ) ;
#86 = CYLINDRICAL_SURFACE ( 'NONE', #204, 0.3434062500000000795 ) ;
#87 = SURFACE_STYLE_USAGE ( .BOTH. , #192 ) ;
#88 = CIRCLE ( 'NONE', #134, 0.3434062500000000240 ) ;
#89 = ADVANCED_FACE ( 'NONE', ( #249 ), #272, .T. ) ;
#90 = ORIENTED_EDGE ( 'NONE', *, *, #96, .F. ) ;
#91 = EDGE_LOOP ( 'NONE', ( #39, #282, #215, #128 ) ) ;
#92 = LINE ( 'NONE', #316, #209 ) ;
#93 = CIRCLE ( 'NONE', #221, 0.3434062500000000240 ) ;
#94 = DIRECTION ( 'NONE',  ( 0.0000000000000000000, 0.0000000000000000000, 1.000000000000000000 ) ) ;
#95 =( NAMED_UNIT ( * ) SI_UNIT ( $, .STERADIAN. ) SOLID_ANGLE_UNIT ( ) );
#96 = EDGE_CURVE ( 'NONE', #214, #310, #49, .T. ) ;
#97 = DIRECTION ( 'NONE',  ( 1.000000000000000000, 0.0000000000000000000, -0.0000000000000000000 ) ) ;
#98 = MECHANICAL_DESIGN_GEOMETRIC_PRESENTATION_REPRESENTATION (  '', ( #158 ), #166 ) ;
#99 = AXIS2_PLACEMENT_3D ( 'NONE', #11, #264, #67 ) ;
#100 = DIRECTION ( 'NONE',  ( 1.000000000000000000, 0.0000000000000000000, 0.0000000000000000000 ) ) ;
#101 = DIRECTION ( 'NONE',  ( 1.000000000000000000, 0.0000000000000000000, 0.0000000000000000000 ) ) ;
#102 = PLANE ( 'NONE',  #63 ) ;
#103 = ORIENTED_EDGE ( 'NONE', *, *, #57, .T. ) ;
#104 = PRESENTATION_LAYER_ASSIGNMENT (  '', '', ( #248 ) ) ;
#105 = AXIS2_PLACEMENT_3D ( 'NONE', #202, #3, #127 ) ;
#106 = CARTESIAN_POINT ( 'NONE',  ( 4.205513648696958210E-17, 0.0000000000000000000, 0.3434062500000000240 ) ) ;
#107 =( CONVERSION_BASED_UNIT ( 'INCH', #80 ) LENGTH_UNIT ( ) NAMED_UNIT ( #34 ) );
#108 = EDGE_CURVE ( 'NONE', #15, #1, #93, .T. ) ;
#109 = VERTEX_POINT ( 'NONE', #296 ) ;
#110 = PRESENTATION_LAYER_ASSIGNMENT (  '', '', ( #158 ) ) ;
#111 = ORIENTED_EDGE ( 'NONE', *, *, #284, .T. ) ;
#112 = ORIENTED_EDGE ( 'NONE', *, *, #2, .T. ) ;
#113 = EDGE_LOOP ( 'NONE', ( #65, #188, #10, #62 ) ) ;
#114 = MANIFOLD_SOLID_BREP ( 'Fillet1', #162 ) ;
#115 = ORIENTED_EDGE ( 'NONE', *, *, #294, .T. ) ;
#116 = PRESENTATION_STYLE_ASSIGNMENT (( #87 ) ) ;
#117 = FACE_OUTER_BOUND ( 'NONE', #79, .T. ) ;
#118 = CARTESIAN_POINT ( 'NONE',  ( 0.0000000000000000000, 0.0000000000000000000, 4.000000000000000000 ) ) ;
#119 = EDGE_CURVE ( 'NONE', #64, #313, #14, .T. ) ;
#120 = CIRCLE ( 'NONE', #262, 0.3750000000000000555 ) ;
#121 = DIRECTION ( 'NONE',  ( 1.000000000000000000, 0.0000000000000000000, 0.0000000000000000000 ) ) ;
#122 =( CONVERSION_BASED_UNIT ( 'INCH', #295 ) LENGTH_UNIT ( ) NAMED_UNIT ( #126 ) );
#123 = ADVANCED_FACE ( 'NONE', ( #117 ), #200, .T. ) ;
#124 = CARTESIAN_POINT ( 'NONE',  ( 0.3599999999999994316, 4.408728476930464865E-17, 4.000000000000000000 ) ) ;
#125 = DIRECTION ( 'NONE',  ( 0.0000000000000000000, 0.0000000000000000000, -1.000000000000000000 ) ) ;
#126 = DIMENSIONAL_EXPONENTS ( 1.000000000000000000, 0.0000000000000000000, 0.0000000000000000000, 0.0000000000000000000, 0.0000000000000000000, 0.0000000000000000000, 0.0000000000000000000 ) ;
#127 = DIRECTION ( 'NONE',  ( -1.000000000000000000, 0.0000000000000000000, 1.224646799147353207E-16 ) ) ;
#128 = ORIENTED_EDGE ( 'NONE', *, *, #61, .F. ) ;
#129 = CARTESIAN_POINT ( 'NONE',  ( 4.205513648696958210E-17, 0.0000000000000000000, 0.3434062500000000240 ) ) ;
#130 = AXIS2_PLACEMENT_3D ( 'NONE', #325, #77, #301 ) ;
#131 = DIRECTION ( 'NONE',  ( -1.224646799147353207E-16, -0.0000000000000000000, -1.000000000000000000 ) ) ;
#132 = DIRECTION ( 'NONE',  ( -1.224646799147353207E-16, -0.0000000000000000000, -1.000000000000000000 ) ) ;
#133 = ORIENTED_EDGE ( 'NONE', *, *, #268, .T. ) ;
#134 = AXIS2_PLACEMENT_3D ( 'NONE', #156, #229, #257 ) ;
#135 = ORIENTED_EDGE ( 'NONE', *, *, #317, .F. ) ;
#136 = CARTESIAN_POINT ( 'NONE',  ( -0.3599999999999994316, 0.0000000000000000000, 4.000000000000000000 ) ) ;
#137 = PRODUCT ( 'Micro_BEM-687-04', 'Micro_BEM-687-04', '', ( #239 ) ) ;
#138 = CARTESIAN_POINT ( 'NONE',  ( 0.0000000000000000000, 0.0000000000000000000, 4.000000000000000000 ) ) ;
#139 = LENGTH_MEASURE_WITH_UNIT ( LENGTH_MEASURE( 0.02539999999999999897 ), #44 );
#140 = PRODUCT_DEFINITION_FORMATION_WITH_SPECIFIED_SOURCE ( 'ANY', '', #137, .NOT_KNOWN. ) ;
#141 = CIRCLE ( 'NONE', #21, 0.3750000000000000555 ) ;
#142 = CARTESIAN_POINT ( 'NONE',  ( 1.683889348827610506E-16, 0.0000000000000000000, 1.375000000000000000 ) ) ;
#143 = EDGE_CURVE ( 'NONE', #55, #214, #289, .T. ) ;
#144 = DIRECTION ( 'NONE',  ( -0.0000000000000000000, -0.0000000000000000000, -1.000000000000000000 ) ) ;
#145 =( LENGTH_UNIT ( ) NAMED_UNIT ( * ) SI_UNIT ( $, .METRE. ) );
#146 = CIRCLE ( 'NONE', #194, 0.3434062500000000795 ) ;
#147 =( GEOMETRIC_REPRESENTATION_CONTEXT ( 3 ) GLOBAL_UNCERTAINTY_ASSIGNED_CONTEXT ( ( #269 ) ) GLOBAL_UNIT_ASSIGNED_CONTEXT ( ( #244, #286, #315 ) ) REPRESENTATION_CONTEXT ( 'NONE', 'WORKASPACE' ) );
#148 = ADVANCED_FACE ( 'NONE', ( #69 ), #293, .T. ) ;
#149 = DIRECTION ( 'NONE',  ( -1.224646799147353207E-16, -0.0000000000000000000, -1.000000000000000000 ) ) ;
#150 = DIRECTION ( 'NONE',  ( -0.0000000000000000000, -0.0000000000000000000, -1.000000000000000000 ) ) ;
#151 = CARTESIAN_POINT ( 'NONE',  ( 1.903317961823216266E-16, 0.0000000000000000000, 1.554177059988545828 ) ) ;
#152 = CIRCLE ( 'NONE', #323, 0.3434062500000000795 ) ;
#153 = DIRECTION ( 'NONE',  ( -0.0000000000000000000, -0.0000000000000000000, -1.000000000000000000 ) ) ;
#154 = CARTESIAN_POINT ( 'NONE',  ( 0.0000000000000000000, 0.0000000000000000000, 4.000000000000000000 ) ) ;
#155 = ORIENTED_EDGE ( 'NONE', *, *, #191, .F. ) ;
#156 = CARTESIAN_POINT ( 'NONE',  ( 4.205513648696958210E-17, 0.0000000000000000000, 0.3434062500000000240 ) ) ;
#157 = AXIS2_PLACEMENT_3D ( 'NONE', #138, #283, #311 ) ;
#158 = STYLED_ITEM ( 'NONE', ( #220 ), #114 ) ;
#159 = ORIENTED_EDGE ( 'NONE', *, *, #42, .F. ) ;
#160 = CARTESIAN_POINT ( 'NONE',  ( 0.3434062500000001905, 0.0000000000000000000, 1.375000000000000000 ) ) ;
#161 = ORIENTED_EDGE ( 'NONE', *, *, #42, .T. ) ;
#162 = CLOSED_SHELL ( 'NONE', ( #89, #217, #84, #123, #320, #213, #297, #165, #148, #16, #241 ) ) ;
#163 = DIRECTION ( 'NONE',  ( -1.224646799147353207E-16, -0.0000000000000000000, -1.000000000000000000 ) ) ;
#164 = ORIENTED_EDGE ( 'NONE', *, *, #143, .T. ) ;
#165 = ADVANCED_FACE ( 'NONE', ( #222 ), #276, .T. ) ;
#166 =( GEOMETRIC_REPRESENTATION_CONTEXT ( 3 ) GLOBAL_UNCERTAINTY_ASSIGNED_CONTEXT ( ( #198 ) ) GLOBAL_UNIT_ASSIGNED_CONTEXT ( ( #122, #66, #95 ) ) REPRESENTATION_CONTEXT ( 'NONE', 'WORKASPACE' ) );
#167 = DIRECTION ( 'NONE',  ( -1.000000000000000000, 1.224646799147353207E-16, 0.0000000000000000000 ) ) ;
#168 = DIRECTION ( 'NONE',  ( 0.0000000000000000000, 0.0000000000000000000, -1.000000000000000000 ) ) ;
#169 = CIRCLE ( 'NONE', #81, 0.3750000000000000555 ) ;
#170 = FILL_AREA_STYLE_COLOUR ( '', #299 ) ;
#171 = DIRECTION ( 'NONE',  ( -0.1736481776669311639, 2.126576849575782392E-17, 0.9848077530122080203 ) ) ;
#172 =( NAMED_UNIT ( * ) PLANE_ANGLE_UNIT ( ) SI_UNIT ( $, .RADIAN. ) );
#173 = EDGE_CURVE ( 'NONE', #30, #1, #146, .T. ) ;
#174 = AXIS2_PLACEMENT_3D ( 'NONE', #193, #321, #250 ) ;
#175 = CARTESIAN_POINT ( 'NONE',  ( 0.0000000000000000000, 0.0000000000000000000, 4.000000000000000000 ) ) ;
#176 = AXIS2_PLACEMENT_3D ( 'NONE', #175, #277, #54 ) ;
#177 = EDGE_LOOP ( 'NONE', ( #155, #309, #103, #115 ) ) ;
#178 = DIRECTION ( 'NONE',  ( 0.0000000000000000000, 0.0000000000000000000, 1.000000000000000000 ) ) ;
#179 = ORIENTED_EDGE ( 'NONE', *, *, #143, .F. ) ;
#180 = CARTESIAN_POINT ( 'NONE',  ( -0.3434062499999999130, 4.205513648696958826E-17, 1.375000000000000000 ) ) ;
#181 = EDGE_CURVE ( 'NONE', #291, #310, #120, .T. ) ;
#182 = ORIENTED_EDGE ( 'NONE', *, *, #284, .F. ) ;
#183 =( LENGTH_UNIT ( ) NAMED_UNIT ( * ) SI_UNIT ( $, .METRE. ) );
#184 = CIRCLE ( 'NONE', #157, 0.3599999999999994316 ) ;
#185 = AXIS2_PLACEMENT_3D ( 'NONE', #270, #20, #121 ) ;
#186 = ORIENTED_EDGE ( 'NONE', *, *, #71, .T. ) ;
#187 = SHAPE_DEFINITION_REPRESENTATION ( #17, #72 ) ;
#188 = ORIENTED_EDGE ( 'NONE', *, *, #317, .T. ) ;
#189 = ORIENTED_EDGE ( 'NONE', *, *, #119, .T. ) ;
#190 = EDGE_LOOP ( 'NONE', ( #189, #36, #85, #242 ) ) ;
#191 = EDGE_CURVE ( 'NONE', #64, #206, #35, .T. ) ;
#192 = SURFACE_SIDE_STYLE ('',( #83 ) ) ;
#193 = CARTESIAN_POINT ( 'NONE',  ( 4.205513648696958210E-17, 0.0000000000000000000, 0.3434062500000000240 ) ) ;
#194 = AXIS2_PLACEMENT_3D ( 'NONE', #106, #275, #208 ) ;
#195 = DIRECTION ( 'NONE',  ( 1.000000000000000000, 0.0000000000000000000, 0.0000000000000000000 ) ) ;
#196 = EDGE_CURVE ( 'NONE', #206, #109, #141, .T. ) ;
#197 = SURFACE_SIDE_STYLE ('',( #318 ) ) ;
#198 = UNCERTAINTY_MEASURE_WITH_UNIT (LENGTH_MEASURE( 1.000000000000000082E-05 ), #122, 'distance_accuracy_value', 'NONE');
#199 = DIRECTION ( 'NONE',  ( 1.000000000000000000, 0.0000000000000000000, 0.0000000000000000000 ) ) ;
#200 = CONICAL_SURFACE ( 'NONE', #211, 0.3599999999999994316, 0.7853981633974415066 ) ;
#201 = CARTESIAN_POINT ( 'NONE',  ( 0.3750000000000000555, 4.592425496802575451E-17, 3.984999999999998987 ) ) ;
#202 = CARTESIAN_POINT ( 'NONE',  ( 0.0000000000000000000, 0.0000000000000000000, 0.0000000000000000000 ) ) ;
#203 = FACE_OUTER_BOUND ( 'NONE', #91, .T. ) ;
#204 = AXIS2_PLACEMENT_3D ( 'NONE', #290, #163, #60 ) ;
#205 = DIRECTION ( 'NONE',  ( 0.0000000000000000000, 0.0000000000000000000, -1.000000000000000000 ) ) ;
#206 = VERTEX_POINT ( 'NONE', #70 ) ;
#207 =( NAMED_UNIT ( * ) SI_UNIT ( $, .STERADIAN. ) SOLID_ANGLE_UNIT ( ) );
#208 = DIRECTION ( 'NONE',  ( -1.000000000000000000, 0.0000000000000000000, 1.988787328174911433E-16 ) ) ;
#209 = VECTOR ( 'NONE', #149, 39.37007874015748143 ) ;
#210 = ORIENTED_EDGE ( 'NONE', *, *, #268, .F. ) ;
#211 = AXIS2_PLACEMENT_3D ( 'NONE', #247, #245, #19 ) ;
#212 = ORIENTED_EDGE ( 'NONE', *, *, #191, .T. ) ;
#213 = ADVANCED_FACE ( 'NONE', ( #306 ), #73, .T. ) ;
#214 = VERTEX_POINT ( 'NONE', #27 ) ;
#215 = ORIENTED_EDGE ( 'NONE', *, *, #196, .F. ) ;
#216 = AXIS2_PLACEMENT_3D ( 'NONE', #118, #94, #195 ) ;
#217 = ADVANCED_FACE ( 'NONE', ( #304 ), #254, .T. ) ;
#218 = EDGE_LOOP ( 'NONE', ( #90, #179, #161, #135 ) ) ;
#219 = DIRECTION ( 'NONE',  ( 0.1736481776669313304, 0.0000000000000000000, 0.9848077530122077983 ) ) ;
#220 = PRESENTATION_STYLE_ASSIGNMENT (( #22 ) ) ;
#221 = AXIS2_PLACEMENT_3D ( 'NONE', #23, #18, #167 ) ;
#222 = FACE_OUTER_BOUND ( 'NONE', #218, .T. ) ;
#223 = CARTESIAN_POINT ( 'NONE',  ( -0.3434062499999999130, 4.398969572749766523E-17, 1.375000000000000000 ) ) ;
#224 = APPLICATION_CONTEXT ( 'automotive_design' ) ;
#225 = FILL_AREA_STYLE ('',( #170 ) ) ;
#226 = VECTOR ( 'NONE', #12, 39.37007874015748143 ) ;
#227 = CIRCLE ( 'NONE', #130, 0.3750000000000000555 ) ;
#228 = CYLINDRICAL_SURFACE ( 'NONE', #176, 0.3750000000000000555 ) ;
#229 = DIRECTION ( 'NONE',  ( 0.0000000000000000000, -1.000000000000000000, 0.0000000000000000000 ) ) ;
#230 = DIRECTION ( 'NONE',  ( 1.224646799147353207E-16, 0.0000000000000000000, 1.000000000000000000 ) ) ;
#231 = DIRECTION ( 'NONE',  ( -1.000000000000000000, 0.0000000000000000000, 1.988787328174911433E-16 ) ) ;
#232 = APPLICATION_PROTOCOL_DEFINITION ( 'draft international standard', 'automotive_design', 1998, #305 ) ;
#233 = CARTESIAN_POINT ( 'NONE',  ( 6.308270473045437623E-17, 0.0000000000000000000, 0.0000000000000000000 ) ) ;
#234 = PRODUCT_DEFINITION ( 'UNKNOWN', '', #140, #46 ) ;
#235 = EDGE_LOOP ( 'NONE', ( #261, #260, #186, #111 ) ) ;
#236 = VECTOR ( 'NONE', #150, 39.37007874015748143 ) ;
#237 = UNCERTAINTY_MEASURE_WITH_UNIT (LENGTH_MEASURE( 1.000000000000000082E-05 ), #107, 'distance_accuracy_value', 'NONE');
#238 = EDGE_LOOP ( 'NONE', ( #32, #212, #59, #9 ) ) ;
#239 = PRODUCT_CONTEXT ( 'NONE', #305, 'mechanical' ) ;
#240 = LINE ( 'NONE', #258, #13 ) ;
#241 = ADVANCED_FACE ( 'NONE', ( #58 ), #51, .T. ) ;
#242 = ORIENTED_EDGE ( 'NONE', *, *, #71, .F. ) ;
#243 = VECTOR ( 'NONE', #219, 39.37007874015748143 ) ;
#244 =( CONVERSION_BASED_UNIT ( 'INCH', #139 ) LENGTH_UNIT ( ) NAMED_UNIT ( #28 ) );
#245 = DIRECTION ( 'NONE',  ( 0.0000000000000000000, 0.0000000000000000000, -1.000000000000000000 ) ) ;
#246 = DIRECTION ( 'NONE',  ( -1.224646799147353207E-16, -0.0000000000000000000, -1.000000000000000000 ) ) ;
#247 = CARTESIAN_POINT ( 'NONE',  ( 0.0000000000000000000, 0.0000000000000000000, 4.000000000000000000 ) ) ;
#248 = STYLED_ITEM ( 'NONE', ( #116 ), #72 ) ;
#249 = FACE_OUTER_BOUND ( 'NONE', #38, .T. ) ;
#250 = DIRECTION ( 'NONE',  ( 1.000000000000000000, 0.0000000000000000000, 0.0000000000000000000 ) ) ;
#251 = EDGE_CURVE ( 'NONE', #313, #64, #253, .T. ) ;
#252 = CARTESIAN_POINT ( 'NONE',  ( -0.3750000000000000555, 0.0000000000000000000, 3.984999999999998987 ) ) ;
#253 = CIRCLE ( 'NONE', #53, 0.3434062500000000795 ) ;
#254 = CYLINDRICAL_SURFACE ( 'NONE', #105, 0.3434062500000000795 ) ;
#255 = CARTESIAN_POINT ( 'NONE',  ( 4.205513648696958210E-17, 0.0000000000000000000, 0.3434062500000000240 ) ) ;
#256 = CARTESIAN_POINT ( 'NONE',  ( 0.0000000000000000000, 0.0000000000000000000, 3.984999999999998987 ) ) ;
#257 = DIRECTION ( 'NONE',  ( 0.0000000000000000000, 0.0000000000000000000, -1.000000000000000000 ) ) ;
#258 = CARTESIAN_POINT ( 'NONE',  ( 0.3434062500000000795, 4.205513648696958826E-17, -4.205513648696958826E-17 ) ) ;
#259 = EDGE_CURVE ( 'NONE', #310, #109, #78, .T. ) ;
#260 = ORIENTED_EDGE ( 'NONE', *, *, #251, .T. ) ;
#261 = ORIENTED_EDGE ( 'NONE', *, *, #26, .F. ) ;
#262 = AXIS2_PLACEMENT_3D ( 'NONE', #256, #205, #56 ) ;
#263 = LINE ( 'NONE', #136, #226 ) ;
#264 = DIRECTION ( 'NONE',  ( 0.0000000000000000000, 0.0000000000000000000, 1.000000000000000000 ) ) ;
#265 = ORIENTED_EDGE ( 'NONE', *, *, #108, .T. ) ;
#266 =( GEOMETRIC_REPRESENTATION_CONTEXT ( 3 ) GLOBAL_UNCERTAINTY_ASSIGNED_CONTEXT ( ( #237 ) ) GLOBAL_UNIT_ASSIGNED_CONTEXT ( ( #107, #172, #207 ) ) REPRESENTATION_CONTEXT ( 'NONE', 'WORKASPACE' ) );
#267 = LINE ( 'NONE', #271, #25 ) ;
#268 = EDGE_CURVE ( 'NONE', #15, #30, #88, .T. ) ;
#269 = UNCERTAINTY_MEASURE_WITH_UNIT (LENGTH_MEASURE( 1.000000000000000082E-05 ), #244, 'distance_accuracy_value', 'NONE');
#270 = CARTESIAN_POINT ( 'NONE',  ( 1.683889348827610506E-16, 0.0000000000000000000, 1.375000000000000000 ) ) ;
#271 = CARTESIAN_POINT ( 'NONE',  ( -0.3750000000000000555, 0.0000000000000000000, 4.000000000000000000 ) ) ;
#272 = SPHERICAL_SURFACE ( 'NONE', #174, 0.3434062500000000240 ) ;
#273 = PRODUCT_RELATED_PRODUCT_CATEGORY ( 'part', '', ( #137 ) ) ;
#274 = DIRECTION ( 'NONE',  ( -1.000000000000000000, 0.0000000000000000000, 0.0000000000000000000 ) ) ;
#275 = DIRECTION ( 'NONE',  ( 1.224646799147353207E-16, 0.0000000000000000000, 1.000000000000000000 ) ) ;
#276 = CONICAL_SURFACE ( 'NONE', #76, 0.3599999999999994316, 0.7853981633974415066 ) ;
#277 = DIRECTION ( 'NONE',  ( -0.0000000000000000000, -0.0000000000000000000, -1.000000000000000000 ) ) ;
#278 = ORIENTED_EDGE ( 'NONE', *, *, #2, .F. ) ;
#279 = CARTESIAN_POINT ( 'NONE',  ( 0.3434062500000001905, 0.0000000000000000000, 1.375000000000000000 ) ) ;
#280 = EDGE_LOOP ( 'NONE', ( #164, #112 ) ) ;
#281 = DIRECTION ( 'NONE',  ( -1.224646799147353207E-16, -0.0000000000000000000, -1.000000000000000000 ) ) ;
#282 = ORIENTED_EDGE ( 'NONE', *, *, #259, .T. ) ;
#283 = DIRECTION ( 'NONE',  ( 0.0000000000000000000, 0.0000000000000000000, 1.000000000000000000 ) ) ;
#284 = EDGE_CURVE ( 'NONE', #1, #30, #152, .T. ) ;
#285 = LINE ( 'NONE', #160, #243 ) ;
#286 =( NAMED_UNIT ( * ) PLANE_ANGLE_UNIT ( ) SI_UNIT ( $, .RADIAN. ) );
#287 = FACE_OUTER_BOUND ( 'NONE', #235, .T. ) ;
#288 = APPLICATION_PROTOCOL_DEFINITION ( 'draft international standard', 'automotive_design', 1998, #224 ) ;
#289 = CIRCLE ( 'NONE', #216, 0.3599999999999994316 ) ;
#290 = CARTESIAN_POINT ( 'NONE',  ( 0.0000000000000000000, 0.0000000000000000000, 0.0000000000000000000 ) ) ;
#291 = VERTEX_POINT ( 'NONE', #252 ) ;
#292 = DIRECTION ( 'NONE',  ( -1.000000000000000000, 0.0000000000000000000, 0.0000000000000000000 ) ) ;
#293 = CONICAL_SURFACE ( 'NONE', #185, 0.3434062500000000795, 0.1745329251994338360 ) ;
#294 = EDGE_CURVE ( 'NONE', #109, #206, #227, .T. ) ;
#295 = LENGTH_MEASURE_WITH_UNIT ( LENGTH_MEASURE( 0.02539999999999999897 ), #145 );
#296 = CARTESIAN_POINT ( 'NONE',  ( 0.3750000000000001665, 4.592425496802577300E-17, 1.554177059988545828 ) ) ;
#297 = ADVANCED_FACE ( 'NONE', ( #50 ), #102, .T. ) ;
#298 = DIRECTION ( 'NONE',  ( 0.7071067811865426878, 8.659560562354873694E-17, -0.7071067811865523467 ) ) ;
#299 = COLOUR_RGB ( '',0.7921568627450980005, 0.8196078431372548767, 0.9333333333333333481 ) ;
#300 = CARTESIAN_POINT ( 'NONE',  ( 0.3750000000000000555, 4.592425496802575451E-17, 4.000000000000000000 ) ) ;
#301 = DIRECTION ( 'NONE',  ( 1.000000000000000000, 0.0000000000000000000, 0.0000000000000000000 ) ) ;
#302 = DIRECTION ( 'NONE',  ( 1.000000000000000000, 0.0000000000000000000, 0.0000000000000000000 ) ) ;
#303 = CONICAL_SURFACE ( 'NONE', #308, 0.3434062500000000795, 0.1745329251994338360 ) ;
#304 = FACE_OUTER_BOUND ( 'NONE', #190, .T. ) ;
#305 = APPLICATION_CONTEXT ( 'automotive_design' ) ;
#306 = FACE_OUTER_BOUND ( 'NONE', #113, .T. ) ;
#307 = FILL_AREA_STYLE_COLOUR ( '', #33 ) ;
#308 = AXIS2_PLACEMENT_3D ( 'NONE', #322, #45, #199 ) ;
#309 = ORIENTED_EDGE ( 'NONE', *, *, #251, .F. ) ;
#310 = VERTEX_POINT ( 'NONE', #201 ) ;
#311 = DIRECTION ( 'NONE',  ( 1.000000000000000000, 0.0000000000000000000, 0.0000000000000000000 ) ) ;
#312 = MECHANICAL_DESIGN_GEOMETRIC_PRESENTATION_REPRESENTATION (  '', ( #248 ), #147 ) ;
#313 = VERTEX_POINT ( 'NONE', #279 ) ;
#314 = CARTESIAN_POINT ( 'NONE',  ( -0.3434062500000000240, 0.0000000000000000000, 0.3434062500000000795 ) ) ;
#315 =( NAMED_UNIT ( * ) SI_UNIT ( $, .STERADIAN. ) SOLID_ANGLE_UNIT ( ) );
#316 = CARTESIAN_POINT ( 'NONE',  ( -0.3434062500000000795, 0.0000000000000000000, 4.205513648696958826E-17 ) ) ;
#317 = EDGE_CURVE ( 'NONE', #310, #291, #169, .T. ) ;
#318 = SURFACE_STYLE_FILL_AREA ( #225 ) ;
#319 = CARTESIAN_POINT ( 'NONE',  ( 0.0000000000000000000, 0.0000000000000000000, 4.000000000000000000 ) ) ;
#320 = ADVANCED_FACE ( 'NONE', ( #203 ), #228, .T. ) ;
#321 = DIRECTION ( 'NONE',  ( 0.0000000000000000000, 1.000000000000000000, 0.0000000000000000000 ) ) ;
#322 = CARTESIAN_POINT ( 'NONE',  ( 1.683889348827610506E-16, 0.0000000000000000000, 1.375000000000000000 ) ) ;
#323 = AXIS2_PLACEMENT_3D ( 'NONE', #129, #230, #231 ) ;
#324 = DIRECTION ( 'NONE',  ( -1.000000000000000000, 0.0000000000000000000, 0.0000000000000000000 ) ) ;
#325 = CARTESIAN_POINT ( 'NONE',  ( 1.903317961823216266E-16, 0.0000000000000000000, 1.554177059988545828 ) ) ;
ENDSEC;
END-ISO-10303-21;
