ISO-10303-21;
HEADER;
FILE_DESCRIPTION (( 'STEP AP214' ),
    '1' );
FILE_NAME ('26242.STEP',
    '2023-06-22T17:32:08',
    ( '' ),
    ( '' ),
    'SwSTEP 2.0',
    'SolidWorks 2023',
    '' );
FILE_SCHEMA (( 'AUTOMOTIVE_DESIGN' ));
ENDSEC;

DATA;
#1 = EDGE_LOOP ( 'NONE', ( #271, #44, #117, #169 ) ) ;
#2 = VERTEX_POINT ( 'NONE', #180 ) ;
#3 = ORIENTED_EDGE ( 'NONE', *, *, #136, .T. ) ;
#4 = CARTESIAN_POINT ( 'NONE',  ( 0.000000000000000000, 1.000000000000000000, 0.000000000000000000 ) ) ;
#5 = PRESENTATION_LAYER_ASSIGNMENT (  '', '', ( #96 ) ) ;
#6 = AXIS2_PLACEMENT_3D ( 'NONE', #293, #22, #173 ) ;
#7 =( NAMED_UNIT ( * ) PLANE_ANGLE_UNIT ( ) SI_UNIT ( $, .RADIAN. ) );
#8 = CARTESIAN_POINT ( 'NONE',  ( 0.000000000000000000, 1.000000000000000000, 0.000000000000000000 ) ) ;
#9 = CYLINDRICAL_SURFACE ( 'NONE', #25, 0.1874999999999999722 ) ;
#10 = CIRCLE ( 'NONE', #71, 0.1875000000000000278 ) ;
#11 = LENGTH_MEASURE_WITH_UNIT ( LENGTH_MEASURE( 0.02539999999999999897 ), #297 );
#12 = EDGE_LOOP ( 'NONE', ( #3, #83 ) ) ;
#13 = LENGTH_MEASURE_WITH_UNIT ( LENGTH_MEASURE( 0.02539999999999999897 ), #178 );
#14 = ADVANCED_FACE ( 'NONE', ( #278 ), #127, .T. ) ;
#15 = PRESENTATION_STYLE_ASSIGNMENT (( #67 ) ) ;
#16 = FILL_AREA_STYLE_COLOUR ( '', #259 ) ;
#17 = PLANE ( 'NONE',  #298 ) ;
#18 = CLOSED_SHELL ( 'NONE', ( #264, #37, #14, #74 ) ) ;
#19 = SURFACE_STYLE_FILL_AREA ( #181 ) ;
#20 = SHAPE_DEFINITION_REPRESENTATION ( #122, #158 ) ;
#21 = PRESENTATION_LAYER_ASSIGNMENT (  '', '', ( #30 ) ) ;
#22 = DIRECTION ( 'NONE',  ( -4.082155997157843818E-17, 1.000000000000000000, -0.000000000000000000 ) ) ;
#23 = DIMENSIONAL_EXPONENTS ( 1.000000000000000000, 0.000000000000000000, 0.000000000000000000, 0.000000000000000000, 0.000000000000000000, 0.000000000000000000, 0.000000000000000000 ) ;
#24 = ORIENTED_EDGE ( 'NONE', *, *, #136, .F. ) ;
#25 = AXIS2_PLACEMENT_3D ( 'NONE', #234, #188, #79 ) ;
#26 = EDGE_LOOP ( 'NONE', ( #54, #59 ) ) ;
#27 =( NAMED_UNIT ( * ) PLANE_ANGLE_UNIT ( ) SI_UNIT ( $, .RADIAN. ) );
#28 = LENGTH_MEASURE_WITH_UNIT ( LENGTH_MEASURE( 0.02539999999999999897 ), #250 );
#29 = COLOUR_RGB ( '',1.000000000000000000, 0.000000000000000000, 0.000000000000000000 ) ;
#30 = STYLED_ITEM ( 'NONE', ( #73 ), #265 ) ;
#31 = EDGE_LOOP ( 'NONE', ( #93, #289 ) ) ;
#32 = SURFACE_SIDE_STYLE ('',( #19 ) ) ;
#33 =( CONVERSION_BASED_UNIT ( 'INCH', #281 ) LENGTH_UNIT ( ) NAMED_UNIT ( #239 ) );
#34 = AXIS2_PLACEMENT_3D ( 'NONE', #8, #183, #132 ) ;
#35 =( NAMED_UNIT ( * ) SI_UNIT ( $, .STERADIAN. ) SOLID_ANGLE_UNIT ( ) );
#36 = APPLICATION_CONTEXT ( 'automotive_design' ) ;
#37 = ADVANCED_FACE ( 'NONE', ( #129 ), #229, .F. ) ;
#38 = FACE_OUTER_BOUND ( 'NONE', #1, .T. ) ;
#39 = CARTESIAN_POINT ( 'NONE',  ( 0.000000000000000000, 0.000000000000000000, 0.000000000000000000 ) ) ;
#40 = DIRECTION ( 'NONE',  ( -1.000000000000000000, 0.000000000000000000, 0.000000000000000000 ) ) ;
#41 = DIRECTION ( 'NONE',  ( -4.082155997157843818E-17, 1.000000000000000000, -0.000000000000000000 ) ) ;
#42 =( CONVERSION_BASED_UNIT ( 'INCH', #65 ) LENGTH_UNIT ( ) NAMED_UNIT ( #167 ) );
#43 = PRESENTATION_LAYER_ASSIGNMENT (  '', '', ( #115 ) ) ;
#44 = ORIENTED_EDGE ( 'NONE', *, *, #242, .T. ) ;
#45 = COLOUR_RGB ( '',1.000000000000000000, 0.000000000000000000, 0.000000000000000000 ) ;
#46 =( NAMED_UNIT ( * ) SI_UNIT ( $, .STERADIAN. ) SOLID_ANGLE_UNIT ( ) );
#47 = PRODUCT_DEFINITION_FORMATION_WITH_SPECIFIED_SOURCE ( 'ANY', '', #292, .NOT_KNOWN. ) ;
#48 = UNCERTAINTY_MEASURE_WITH_UNIT (LENGTH_MEASURE( 1.000000000000000082E-05 ), #116, 'distance_accuracy_value', 'NONE');
#49 = ORIENTED_EDGE ( 'NONE', *, *, #143, .F. ) ;
#50 = ADVANCED_FACE ( 'NONE', ( #282 ), #104, .T. ) ;
#51 = PRESENTATION_STYLE_ASSIGNMENT (( #141 ) ) ;
#52 = VERTEX_POINT ( 'NONE', #130 ) ;
#53 = CARTESIAN_POINT ( 'NONE',  ( 0.000000000000000000, 1.000000000000000000, 0.000000000000000000 ) ) ;
#54 = ORIENTED_EDGE ( 'NONE', *, *, #195, .F. ) ;
#55 = DIRECTION ( 'NONE',  ( -4.082155997157843818E-17, 1.000000000000000000, -0.000000000000000000 ) ) ;
#56 = EDGE_CURVE ( 'NONE', #52, #146, #191, .T. ) ;
#57 = CARTESIAN_POINT ( 'NONE',  ( -6.123233995736766036E-17, 2.500000000000000000, 0.000000000000000000 ) ) ;
#58 = DIRECTION ( 'NONE',  ( -4.082155997157843818E-17, 1.000000000000000000, 0.000000000000000000 ) ) ;
#59 = ORIENTED_EDGE ( 'NONE', *, *, #268, .F. ) ;
#60 = PRESENTATION_LAYER_ASSIGNMENT (  '', '', ( #199 ) ) ;
#61 =( GEOMETRIC_REPRESENTATION_CONTEXT ( 3 ) GLOBAL_UNCERTAINTY_ASSIGNED_CONTEXT ( ( #48 ) ) GLOBAL_UNIT_ASSIGNED_CONTEXT ( ( #116, #27, #46 ) ) REPRESENTATION_CONTEXT ( 'NONE', 'WORKASPACE' ) );
#62 =( NAMED_UNIT ( * ) PLANE_ANGLE_UNIT ( ) SI_UNIT ( $, .RADIAN. ) );
#63 = CARTESIAN_POINT ( 'NONE',  ( 0.1874999999999999445, 2.500000000000000000, 2.296212748401287726E-17 ) ) ;
#64 = DIRECTION ( 'NONE',  ( 0.000000000000000000, 0.000000000000000000, 1.000000000000000000 ) ) ;
#65 = LENGTH_MEASURE_WITH_UNIT ( LENGTH_MEASURE( 0.02539999999999999897 ), #211 );
#66 = EDGE_CURVE ( 'NONE', #152, #277, #258, .T. ) ;
#67 = SURFACE_STYLE_USAGE ( .BOTH. , #305 ) ;
#68 = DIMENSIONAL_EXPONENTS ( 1.000000000000000000, 0.000000000000000000, 0.000000000000000000, 0.000000000000000000, 0.000000000000000000, 0.000000000000000000, 0.000000000000000000 ) ;
#69 = PRESENTATION_STYLE_ASSIGNMENT (( #213 ) ) ;
#70 = EDGE_CURVE ( 'NONE', #2, #277, #255, .T. ) ;
#71 = AXIS2_PLACEMENT_3D ( 'NONE', #286, #216, #113 ) ;
#72 = VERTEX_POINT ( 'NONE', #201 ) ;
#73 = PRESENTATION_STYLE_ASSIGNMENT (( #246 ) ) ;
#74 = ADVANCED_FACE ( 'NONE', ( #299 ), #91, .F. ) ;
#75 = AXIS2_PLACEMENT_3D ( 'NONE', #257, #58, #81 ) ;
#76 = FILL_AREA_STYLE_COLOUR ( '', #254 ) ;
#77 = ORIENTED_EDGE ( 'NONE', *, *, #279, .T. ) ;
#78 =( NAMED_UNIT ( * ) SI_UNIT ( $, .STERADIAN. ) SOLID_ANGLE_UNIT ( ) );
#79 = DIRECTION ( 'NONE',  ( 0.000000000000000000, 0.000000000000000000, -1.000000000000000000 ) ) ;
#80 =( GEOMETRIC_REPRESENTATION_CONTEXT ( 3 ) GLOBAL_UNCERTAINTY_ASSIGNED_CONTEXT ( ( #210 ) ) GLOBAL_UNIT_ASSIGNED_CONTEXT ( ( #42, #262, #120 ) ) REPRESENTATION_CONTEXT ( 'NONE', 'WORKASPACE' ) );
#81 = DIRECTION ( 'NONE',  ( -1.000000000000000000, -4.082155997157843818E-17, 0.000000000000000000 ) ) ;
#82 = CARTESIAN_POINT ( 'NONE',  ( 2.296212748401286801E-17, 0.000000000000000000, 0.1874999999999999722 ) ) ;
#83 = ORIENTED_EDGE ( 'NONE', *, *, #66, .T. ) ;
#84 = APPLICATION_PROTOCOL_DEFINITION ( 'draft international standard', 'automotive_design', 1998, #89 ) ;
#85 = AXIS2_PLACEMENT_3D ( 'NONE', #138, #139, #88 ) ;
#86 = DIRECTION ( 'NONE',  ( 0.000000000000000000, 0.000000000000000000, -1.000000000000000000 ) ) ;
#87 = CARTESIAN_POINT ( 'NONE',  ( 0.000000000000000000, 1.000000000000000000, 0.000000000000000000 ) ) ;
#88 = DIRECTION ( 'NONE',  ( 1.000000000000000000, 4.082155997157843818E-17, 0.000000000000000000 ) ) ;
#89 = APPLICATION_CONTEXT ( 'automotive_design' ) ;
#90 = AXIS2_PLACEMENT_3D ( 'NONE', #57, #273, #249 ) ;
#91 = PLANE ( 'NONE',  #85 ) ;
#92 = VERTEX_POINT ( 'NONE', #301 ) ;
#93 = ORIENTED_EDGE ( 'NONE', *, *, #56, .T. ) ;
#94 = MECHANICAL_DESIGN_GEOMETRIC_PRESENTATION_REPRESENTATION (  '', ( #267 ), #131 ) ;
#95 = DIRECTION ( 'NONE',  ( 0.000000000000000000, 0.000000000000000000, -1.000000000000000000 ) ) ;
#96 = STYLED_ITEM ( 'NONE', ( #203 ), #50 ) ;
#97 = PRODUCT_DEFINITION_CONTEXT ( 'detailed design', #36, 'design' ) ;
#98 = DIRECTION ( 'NONE',  ( -0.000000000000000000, -1.000000000000000000, -0.000000000000000000 ) ) ;
#99 =( NAMED_UNIT ( * ) PLANE_ANGLE_UNIT ( ) SI_UNIT ( $, .RADIAN. ) );
#100 = ORIENTED_EDGE ( 'NONE', *, *, #106, .T. ) ;
#101 = CARTESIAN_POINT ( 'NONE',  ( 0.000000000000000000, 0.000000000000000000, -0.1874999999999999722 ) ) ;
#102 =( CONVERSION_BASED_UNIT ( 'INCH', #13 ) LENGTH_UNIT ( ) NAMED_UNIT ( #23 ) );
#103 = MECHANICAL_DESIGN_GEOMETRIC_PRESENTATION_REPRESENTATION (  '', ( #30 ), #166 ) ;
#104 = PLANE ( 'NONE',  #34 ) ;
#105 = PRESENTATION_STYLE_ASSIGNMENT (( #137 ) ) ;
#106 = EDGE_CURVE ( 'NONE', #2, #148, #118, .T. ) ;
#107 =( NAMED_UNIT ( * ) SI_UNIT ( $, .STERADIAN. ) SOLID_ANGLE_UNIT ( ) );
#108 =( LENGTH_UNIT ( ) NAMED_UNIT ( * ) SI_UNIT ( $, .METRE. ) );
#109 = CLOSED_SHELL ( 'NONE', ( #123, #50, #284, #153 ) ) ;
#110 = AXIS2_PLACEMENT_3D ( 'NONE', #269, #55, #223 ) ;
#111 = LENGTH_MEASURE_WITH_UNIT ( LENGTH_MEASURE( 0.02539999999999999897 ), #193 );
#112 = FACE_OUTER_BOUND ( 'NONE', #171, .T. ) ;
#113 = DIRECTION ( 'NONE',  ( 0.000000000000000000, 0.000000000000000000, -1.000000000000000000 ) ) ;
#114 = DIMENSIONAL_EXPONENTS ( 1.000000000000000000, 0.000000000000000000, 0.000000000000000000, 0.000000000000000000, 0.000000000000000000, 0.000000000000000000, 0.000000000000000000 ) ;
#115 = STYLED_ITEM ( 'NONE', ( #51 ), #261 ) ;
#116 =( CONVERSION_BASED_UNIT ( 'INCH', #274 ) LENGTH_UNIT ( ) NAMED_UNIT ( #68 ) );
#117 = ORIENTED_EDGE ( 'NONE', *, *, #70, .T. ) ;
#118 = CIRCLE ( 'NONE', #215, 0.1874999999999999722 ) ;
#119 = STYLED_ITEM ( 'NONE', ( #105 ), #284 ) ;
#120 =( NAMED_UNIT ( * ) SI_UNIT ( $, .STERADIAN. ) SOLID_ANGLE_UNIT ( ) );
#121 = ORIENTED_EDGE ( 'NONE', *, *, #268, .T. ) ;
#122 = PRODUCT_DEFINITION_SHAPE ( 'NONE', 'NONE',  #140 ) ;
#123 = ADVANCED_FACE ( 'NONE', ( #112 ), #240, .T. ) ;
#124 = CARTESIAN_POINT ( 'NONE',  ( 0.000000000000000000, 0.000000000000000000, 0.000000000000000000 ) ) ;
#125 = CIRCLE ( 'NONE', #165, 0.1875000000000000555 ) ;
#126 = CYLINDRICAL_SURFACE ( 'NONE', #6, 0.1875000000000000278 ) ;
#127 = CYLINDRICAL_SURFACE ( 'NONE', #196, 0.1875000000000000278 ) ;
#128 = FILL_AREA_STYLE_COLOUR ( '', #303 ) ;
#129 = FACE_OUTER_BOUND ( 'NONE', #26, .T. ) ;
#130 = CARTESIAN_POINT ( 'NONE',  ( -0.1875000000000001110, 2.500000000000000000, 0.000000000000000000 ) ) ;
#131 =( GEOMETRIC_REPRESENTATION_CONTEXT ( 3 ) GLOBAL_UNCERTAINTY_ASSIGNED_CONTEXT ( ( #133 ) ) GLOBAL_UNIT_ASSIGNED_CONTEXT ( ( #168, #190, #192 ) ) REPRESENTATION_CONTEXT ( 'NONE', 'WORKASPACE' ) );
#132 = DIRECTION ( 'NONE',  ( 0.000000000000000000, -0.000000000000000000, 1.000000000000000000 ) ) ;
#133 = UNCERTAINTY_MEASURE_WITH_UNIT (LENGTH_MEASURE( 1.000000000000000082E-05 ), #168, 'distance_accuracy_value', 'NONE');
#134 = FACE_OUTER_BOUND ( 'NONE', #12, .T. ) ;
#135 = CARTESIAN_POINT ( 'NONE',  ( 0.000000000000000000, 0.000000000000000000, -0.1875000000000000278 ) ) ;
#136 = EDGE_CURVE ( 'NONE', #277, #152, #10, .T. ) ;
#137 = SURFACE_STYLE_USAGE ( .BOTH. , #32 ) ;
#138 = CARTESIAN_POINT ( 'NONE',  ( 0.1874999999999999722, 2.500000000000000000, 0.000000000000000000 ) ) ;
#139 = DIRECTION ( 'NONE',  ( 4.082155997157843818E-17, -1.000000000000000000, 0.000000000000000000 ) ) ;
#140 = PRODUCT_DEFINITION ( 'UNKNOWN', '', #47, #97 ) ;
#141 = SURFACE_STYLE_USAGE ( .BOTH. , #151 ) ;
#142 = MECHANICAL_DESIGN_GEOMETRIC_PRESENTATION_REPRESENTATION (  '', ( #115 ), #61 ) ;
#143 = EDGE_CURVE ( 'NONE', #92, #146, #288, .T. ) ;
#144 = AXIS2_PLACEMENT_3D ( 'NONE', #39, #241, #238 ) ;
#145 =( GEOMETRIC_REPRESENTATION_CONTEXT ( 3 ) GLOBAL_UNCERTAINTY_ASSIGNED_CONTEXT ( ( #276 ) ) GLOBAL_UNIT_ASSIGNED_CONTEXT ( ( #102, #156, #107 ) ) REPRESENTATION_CONTEXT ( 'NONE', 'WORKASPACE' ) );
#146 = VERTEX_POINT ( 'NONE', #164 ) ;
#147 = CARTESIAN_POINT ( 'NONE',  ( -6.123233995736766036E-17, 2.500000000000000000, 0.000000000000000000 ) ) ;
#148 = VERTEX_POINT ( 'NONE', #307 ) ;
#149 = FACE_OUTER_BOUND ( 'NONE', #222, .T. ) ;
#150 = FILL_AREA_STYLE_COLOUR ( '', #45 ) ;
#151 = SURFACE_SIDE_STYLE ('',( #266 ) ) ;
#152 = VERTEX_POINT ( 'NONE', #162 ) ;
#153 = ADVANCED_FACE ( 'NONE', ( #134 ), #17, .T. ) ;
#154 = SURFACE_STYLE_FILL_AREA ( #228 ) ;
#155 = ORIENTED_EDGE ( 'NONE', *, *, #106, .F. ) ;
#156 =( NAMED_UNIT ( * ) PLANE_ANGLE_UNIT ( ) SI_UNIT ( $, .RADIAN. ) );
#157 = COLOUR_RGB ( '',1.000000000000000000, 0.000000000000000000, 0.000000000000000000 ) ;
#158 = ADVANCED_BREP_SHAPE_REPRESENTATION ( '26242', ( #265, #261, #226 ), #145 ) ;
#159 = VECTOR ( 'NONE', #283, 39.37007874015748143 ) ;
#160 = FILL_AREA_STYLE_COLOUR ( '', #29 ) ;
#161 = LINE ( 'NONE', #285, #159 ) ;
#162 = CARTESIAN_POINT ( 'NONE',  ( 2.296212748401287109E-17, 0.000000000000000000, 0.1875000000000000278 ) ) ;
#163 = DIRECTION ( 'NONE',  ( 1.000000000000000000, 0.000000000000000000, 0.000000000000000000 ) ) ;
#164 = CARTESIAN_POINT ( 'NONE',  ( 0.1874999999999999722, 2.500000000000000000, 2.296212748401287726E-17 ) ) ;
#165 = AXIS2_PLACEMENT_3D ( 'NONE', #147, #170, #272 ) ;
#166 =( GEOMETRIC_REPRESENTATION_CONTEXT ( 3 ) GLOBAL_UNCERTAINTY_ASSIGNED_CONTEXT ( ( #224 ) ) GLOBAL_UNIT_ASSIGNED_CONTEXT ( ( #308, #99, #78 ) ) REPRESENTATION_CONTEXT ( 'NONE', 'WORKASPACE' ) );
#167 = DIMENSIONAL_EXPONENTS ( 1.000000000000000000, 0.000000000000000000, 0.000000000000000000, 0.000000000000000000, 0.000000000000000000, 0.000000000000000000, 0.000000000000000000 ) ;
#168 =( CONVERSION_BASED_UNIT ( 'INCH', #111 ) LENGTH_UNIT ( ) NAMED_UNIT ( #212 ) );
#169 = ORIENTED_EDGE ( 'NONE', *, *, #66, .F. ) ;
#170 = DIRECTION ( 'NONE',  ( -4.082155997157843818E-17, 1.000000000000000000, -0.000000000000000000 ) ) ;
#171 = EDGE_LOOP ( 'NONE', ( #100, #77, #24, #309 ) ) ;
#172 =( GEOMETRIC_REPRESENTATION_CONTEXT ( 3 ) GLOBAL_UNCERTAINTY_ASSIGNED_CONTEXT ( ( #233 ) ) GLOBAL_UNIT_ASSIGNED_CONTEXT ( ( #182, #7, #35 ) ) REPRESENTATION_CONTEXT ( 'NONE', 'WORKASPACE' ) );
#173 = DIRECTION ( 'NONE',  ( -1.000000000000000000, 0.000000000000000000, 0.000000000000000000 ) ) ;
#174 = SURFACE_STYLE_USAGE ( .BOTH. , #280 ) ;
#175 = FILL_AREA_STYLE ('',( #76 ) ) ;
#176 = ORIENTED_EDGE ( 'NONE', *, *, #56, .F. ) ;
#177 = VECTOR ( 'NONE', #232, 39.37007874015748143 ) ;
#178 =( LENGTH_UNIT ( ) NAMED_UNIT ( * ) SI_UNIT ( $, .METRE. ) );
#179 = EDGE_CURVE ( 'NONE', #146, #52, #125, .T. ) ;
#180 = CARTESIAN_POINT ( 'NONE',  ( 0.000000000000000000, 1.000000000000000000, -0.1874999999999999722 ) ) ;
#181 = FILL_AREA_STYLE ('',( #16 ) ) ;
#182 =( CONVERSION_BASED_UNIT ( 'INCH', #11 ) LENGTH_UNIT ( ) NAMED_UNIT ( #114 ) );
#183 = DIRECTION ( 'NONE',  ( 0.000000000000000000, 1.000000000000000000, 0.000000000000000000 ) ) ;
#184 = CARTESIAN_POINT ( 'NONE',  ( 0.000000000000000000, 0.000000000000000000, 0.000000000000000000 ) ) ;
#185 = VECTOR ( 'NONE', #205, 39.37007874015748143 ) ;
#186 = PRESENTATION_LAYER_ASSIGNMENT (  '', '', ( #119 ) ) ;
#187 = SURFACE_STYLE_FILL_AREA ( #214 ) ;
#188 = DIRECTION ( 'NONE',  ( -0.000000000000000000, -1.000000000000000000, -0.000000000000000000 ) ) ;
#189 = FILL_AREA_STYLE_COLOUR ( '', #157 ) ;
#190 =( NAMED_UNIT ( * ) PLANE_ANGLE_UNIT ( ) SI_UNIT ( $, .RADIAN. ) );
#191 = CIRCLE ( 'NONE', #90, 0.1875000000000000555 ) ;
#192 =( NAMED_UNIT ( * ) SI_UNIT ( $, .STERADIAN. ) SOLID_ANGLE_UNIT ( ) );
#193 =( LENGTH_UNIT ( ) NAMED_UNIT ( * ) SI_UNIT ( $, .METRE. ) );
#194 = ORIENTED_EDGE ( 'NONE', *, *, #294, .F. ) ;
#195 = EDGE_CURVE ( 'NONE', #72, #92, #302, .T. ) ;
#196 = AXIS2_PLACEMENT_3D ( 'NONE', #295, #300, #208 ) ;
#197 = UNCERTAINTY_MEASURE_WITH_UNIT (LENGTH_MEASURE( 1.000000000000000082E-05 ), #33, 'distance_accuracy_value', 'NONE');
#198 = EDGE_LOOP ( 'NONE', ( #155, #243 ) ) ;
#199 = STYLED_ITEM ( 'NONE', ( #15 ), #153 ) ;
#200 = DIRECTION ( 'NONE',  ( 0.000000000000000000, 0.000000000000000000, -1.000000000000000000 ) ) ;
#201 = CARTESIAN_POINT ( 'NONE',  ( -0.1874999999999999722, 1.000000000000000000, 0.000000000000000000 ) ) ;
#202 = DIRECTION ( 'NONE',  ( 0.000000000000000000, -1.000000000000000000, -0.000000000000000000 ) ) ;
#203 = PRESENTATION_STYLE_ASSIGNMENT (( #174 ) ) ;
#204 = SURFACE_STYLE_FILL_AREA ( #217 ) ;
#205 = DIRECTION ( 'NONE',  ( -0.000000000000000000, -1.000000000000000000, -0.000000000000000000 ) ) ;
#206 = EDGE_LOOP ( 'NONE', ( #49, #121, #218, #247 ) ) ;
#207 = PRODUCT_CONTEXT ( 'NONE', #89, 'mechanical' ) ;
#208 = DIRECTION ( 'NONE',  ( -1.000000000000000000, 0.000000000000000000, 0.000000000000000000 ) ) ;
#209 =( NAMED_UNIT ( * ) SI_UNIT ( $, .STERADIAN. ) SOLID_ANGLE_UNIT ( ) );
#210 = UNCERTAINTY_MEASURE_WITH_UNIT (LENGTH_MEASURE( 1.000000000000000082E-05 ), #42, 'distance_accuracy_value', 'NONE');
#211 =( LENGTH_UNIT ( ) NAMED_UNIT ( * ) SI_UNIT ( $, .METRE. ) );
#212 = DIMENSIONAL_EXPONENTS ( 1.000000000000000000, 0.000000000000000000, 0.000000000000000000, 0.000000000000000000, 0.000000000000000000, 0.000000000000000000, 0.000000000000000000 ) ;
#213 = SURFACE_STYLE_USAGE ( .BOTH. , #237 ) ;
#214 = FILL_AREA_STYLE ('',( #189 ) ) ;
#215 = AXIS2_PLACEMENT_3D ( 'NONE', #87, #263, #86 ) ;
#216 = DIRECTION ( 'NONE',  ( -0.000000000000000000, -1.000000000000000000, -0.000000000000000000 ) ) ;
#217 = FILL_AREA_STYLE ('',( #128 ) ) ;
#218 = ORIENTED_EDGE ( 'NONE', *, *, #294, .T. ) ;
#219 = MECHANICAL_DESIGN_GEOMETRIC_PRESENTATION_REPRESENTATION (  '', ( #96 ), #172 ) ;
#220 = CIRCLE ( 'NONE', #291, 0.1874999999999999722 ) ;
#221 = DIRECTION ( 'NONE',  ( -0.000000000000000000, -1.000000000000000000, -0.000000000000000000 ) ) ;
#222 = EDGE_LOOP ( 'NONE', ( #244, #252, #176, #194 ) ) ;
#223 = DIRECTION ( 'NONE',  ( -1.000000000000000000, 0.000000000000000000, 0.000000000000000000 ) ) ;
#224 = UNCERTAINTY_MEASURE_WITH_UNIT (LENGTH_MEASURE( 1.000000000000000082E-05 ), #308, 'distance_accuracy_value', 'NONE');
#225 = AXIS2_PLACEMENT_3D ( 'NONE', #124, #98, #230 ) ;
#226 = AXIS2_PLACEMENT_3D ( 'NONE', #184, #64, #163 ) ;
#227 = PRODUCT_RELATED_PRODUCT_CATEGORY ( 'part', '', ( #292 ) ) ;
#228 = FILL_AREA_STYLE ('',( #150 ) ) ;
#229 = PLANE ( 'NONE',  #75 ) ;
#230 = DIRECTION ( 'NONE',  ( 0.000000000000000000, 0.000000000000000000, -1.000000000000000000 ) ) ;
#231 = MECHANICAL_DESIGN_GEOMETRIC_PRESENTATION_REPRESENTATION (  '', ( #119 ), #245 ) ;
#232 = DIRECTION ( 'NONE',  ( -0.000000000000000000, -1.000000000000000000, -0.000000000000000000 ) ) ;
#233 = UNCERTAINTY_MEASURE_WITH_UNIT (LENGTH_MEASURE( 1.000000000000000082E-05 ), #182, 'distance_accuracy_value', 'NONE');
#234 = CARTESIAN_POINT ( 'NONE',  ( 0.000000000000000000, 0.000000000000000000, 0.000000000000000000 ) ) ;
#235 = SURFACE_STYLE_FILL_AREA ( #260 ) ;
#236 = APPLICATION_PROTOCOL_DEFINITION ( 'draft international standard', 'automotive_design', 1998, #36 ) ;
#237 = SURFACE_SIDE_STYLE ('',( #187 ) ) ;
#238 = DIRECTION ( 'NONE',  ( 0.000000000000000000, 0.000000000000000000, -1.000000000000000000 ) ) ;
#239 = DIMENSIONAL_EXPONENTS ( 1.000000000000000000, 0.000000000000000000, 0.000000000000000000, 0.000000000000000000, 0.000000000000000000, 0.000000000000000000, 0.000000000000000000 ) ;
#240 = CYLINDRICAL_SURFACE ( 'NONE', #144, 0.1874999999999999722 ) ;
#241 = DIRECTION ( 'NONE',  ( -0.000000000000000000, -1.000000000000000000, -0.000000000000000000 ) ) ;
#242 = EDGE_CURVE ( 'NONE', #148, #2, #251, .T. ) ;
#243 = ORIENTED_EDGE ( 'NONE', *, *, #242, .F. ) ;
#244 = ORIENTED_EDGE ( 'NONE', *, *, #195, .T. ) ;
#245 =( GEOMETRIC_REPRESENTATION_CONTEXT ( 3 ) GLOBAL_UNCERTAINTY_ASSIGNED_CONTEXT ( ( #197 ) ) GLOBAL_UNIT_ASSIGNED_CONTEXT ( ( #33, #62, #209 ) ) REPRESENTATION_CONTEXT ( 'NONE', 'WORKASPACE' ) );
#246 = SURFACE_STYLE_USAGE ( .BOTH. , #296 ) ;
#247 = ORIENTED_EDGE ( 'NONE', *, *, #179, .F. ) ;
#248 =( LENGTH_UNIT ( ) NAMED_UNIT ( * ) SI_UNIT ( $, .METRE. ) );
#249 = DIRECTION ( 'NONE',  ( -1.000000000000000000, 0.000000000000000000, 0.000000000000000000 ) ) ;
#250 =( LENGTH_UNIT ( ) NAMED_UNIT ( * ) SI_UNIT ( $, .METRE. ) );
#251 = CIRCLE ( 'NONE', #290, 0.1874999999999999722 ) ;
#252 = ORIENTED_EDGE ( 'NONE', *, *, #143, .T. ) ;
#253 = MECHANICAL_DESIGN_GEOMETRIC_PRESENTATION_REPRESENTATION (  '', ( #199 ), #80 ) ;
#254 = COLOUR_RGB ( '',0.7921568627450980005, 0.8196078431372548767, 0.9333333333333333481 ) ;
#255 = LINE ( 'NONE', #101, #185 ) ;
#256 = LINE ( 'NONE', #82, #177 ) ;
#257 = CARTESIAN_POINT ( 'NONE',  ( 1.562249773606101461E-34, 1.000000000000000000, 0.000000000000000000 ) ) ;
#258 = CIRCLE ( 'NONE', #225, 0.1875000000000000278 ) ;
#259 = COLOUR_RGB ( '',1.000000000000000000, 0.000000000000000000, 0.000000000000000000 ) ;
#260 = FILL_AREA_STYLE ('',( #160 ) ) ;
#261 = MANIFOLD_SOLID_BREP ( 'Revolve - Tool Body (Straight Shanked)', #18 ) ;
#262 =( NAMED_UNIT ( * ) PLANE_ANGLE_UNIT ( ) SI_UNIT ( $, .RADIAN. ) );
#263 = DIRECTION ( 'NONE',  ( -0.000000000000000000, -1.000000000000000000, -0.000000000000000000 ) ) ;
#264 = ADVANCED_FACE ( 'NONE', ( #149 ), #126, .T. ) ;
#265 = MANIFOLD_SOLID_BREP ( 'Revolve - Cutting Edge', #109 ) ;
#266 = SURFACE_STYLE_FILL_AREA ( #175 ) ;
#267 = STYLED_ITEM ( 'NONE', ( #69 ), #123 ) ;
#268 = EDGE_CURVE ( 'NONE', #92, #72, #220, .T. ) ;
#269 = CARTESIAN_POINT ( 'NONE',  ( 0.000000000000000000, 1.000000000000000000, 0.000000000000000000 ) ) ;
#270 = CARTESIAN_POINT ( 'NONE',  ( 0.000000000000000000, 0.000000000000000000, 0.000000000000000000 ) ) ;
#271 = ORIENTED_EDGE ( 'NONE', *, *, #279, .F. ) ;
#272 = DIRECTION ( 'NONE',  ( -1.000000000000000000, 0.000000000000000000, 0.000000000000000000 ) ) ;
#273 = DIRECTION ( 'NONE',  ( -4.082155997157843818E-17, 1.000000000000000000, -0.000000000000000000 ) ) ;
#274 = LENGTH_MEASURE_WITH_UNIT ( LENGTH_MEASURE( 0.02539999999999999897 ), #248 );
#275 = PRESENTATION_LAYER_ASSIGNMENT (  '', '', ( #267 ) ) ;
#276 = UNCERTAINTY_MEASURE_WITH_UNIT (LENGTH_MEASURE( 1.000000000000000082E-05 ), #102, 'distance_accuracy_value', 'NONE');
#277 = VERTEX_POINT ( 'NONE', #135 ) ;
#278 = FACE_OUTER_BOUND ( 'NONE', #206, .T. ) ;
#279 = EDGE_CURVE ( 'NONE', #148, #152, #256, .T. ) ;
#280 = SURFACE_SIDE_STYLE ('',( #154 ) ) ;
#281 = LENGTH_MEASURE_WITH_UNIT ( LENGTH_MEASURE( 0.02539999999999999897 ), #108 );
#282 = FACE_OUTER_BOUND ( 'NONE', #198, .T. ) ;
#283 = DIRECTION ( 'NONE',  ( -4.082155997157843818E-17, 1.000000000000000000, -0.000000000000000000 ) ) ;
#284 = ADVANCED_FACE ( 'NONE', ( #38 ), #9, .T. ) ;
#285 = CARTESIAN_POINT ( 'NONE',  ( -0.1875000000000000833, 2.500000000000000000, 0.000000000000000000 ) ) ;
#286 = CARTESIAN_POINT ( 'NONE',  ( 0.000000000000000000, 0.000000000000000000, 0.000000000000000000 ) ) ;
#287 = DIMENSIONAL_EXPONENTS ( 1.000000000000000000, 0.000000000000000000, 0.000000000000000000, 0.000000000000000000, 0.000000000000000000, 0.000000000000000000, 0.000000000000000000 ) ;
#288 = LINE ( 'NONE', #63, #306 ) ;
#289 = ORIENTED_EDGE ( 'NONE', *, *, #179, .T. ) ;
#290 = AXIS2_PLACEMENT_3D ( 'NONE', #4, #221, #95 ) ;
#291 = AXIS2_PLACEMENT_3D ( 'NONE', #53, #304, #40 ) ;
#292 = PRODUCT ( '26242', '26242', '', ( #207 ) ) ;
#293 = CARTESIAN_POINT ( 'NONE',  ( -6.123233995736766036E-17, 2.500000000000000000, 0.000000000000000000 ) ) ;
#294 = EDGE_CURVE ( 'NONE', #72, #52, #161, .T. ) ;
#295 = CARTESIAN_POINT ( 'NONE',  ( -6.123233995736766036E-17, 2.500000000000000000, 0.000000000000000000 ) ) ;
#296 = SURFACE_SIDE_STYLE ('',( #204 ) ) ;
#297 =( LENGTH_UNIT ( ) NAMED_UNIT ( * ) SI_UNIT ( $, .METRE. ) );
#298 = AXIS2_PLACEMENT_3D ( 'NONE', #270, #202, #200 ) ;
#299 = FACE_OUTER_BOUND ( 'NONE', #31, .T. ) ;
#300 = DIRECTION ( 'NONE',  ( -4.082155997157843818E-17, 1.000000000000000000, -0.000000000000000000 ) ) ;
#301 = CARTESIAN_POINT ( 'NONE',  ( 0.1874999999999999722, 1.000000000000000000, 2.296212748401287726E-17 ) ) ;
#302 = CIRCLE ( 'NONE', #110, 0.1874999999999999722 ) ;
#303 = COLOUR_RGB ( '',0.7921568627450980005, 0.8196078431372548767, 0.9333333333333333481 ) ;
#304 = DIRECTION ( 'NONE',  ( -4.082155997157843818E-17, 1.000000000000000000, -0.000000000000000000 ) ) ;
#305 = SURFACE_SIDE_STYLE ('',( #235 ) ) ;
#306 = VECTOR ( 'NONE', #41, 39.37007874015748143 ) ;
#307 = CARTESIAN_POINT ( 'NONE',  ( 2.296212748401286801E-17, 1.000000000000000000, 0.1874999999999999722 ) ) ;
#308 =( CONVERSION_BASED_UNIT ( 'INCH', #28 ) LENGTH_UNIT ( ) NAMED_UNIT ( #287 ) );
#309 = ORIENTED_EDGE ( 'NONE', *, *, #70, .F. ) ;
ENDSEC;
END-ISO-10303-21;
