ISO-10303-21;
HEADER;
FILE_DESCRIPTION (( 'STEP AP214' ),
    '1' );
FILE_NAME ('Micro_RME-011-2X.STEP',
    '2021-09-01T22:23:45',
    ( '' ),
    ( '' ),
    'SwSTEP 2.0',
    'SolidWorks 2020',
    '' );
FILE_SCHEMA (( 'AUTOMOTIVE_DESIGN' ));
ENDSEC;

DATA;
#1 = VECTOR ( 'NONE', #23, 39.37007874015748854 ) ;
#2 =( GEOMETRIC_REPRESENTATION_CONTEXT ( 3 ) GLOBAL_UNCERTAINTY_ASSIGNED_CONTEXT ( ( #148 ) ) GLOBAL_UNIT_ASSIGNED_CONTEXT ( ( #109, #266, #11 ) ) REPRESENTATION_CONTEXT ( 'NONE', 'WORKASPACE' ) );
#3 = DIRECTION ( 'NONE',  ( -1.000000000000000000, 0.0000000000000000000, 1.224646799147353454E-16 ) ) ;
#4 = DIRECTION ( 'NONE',  ( -1.000000000000000000, 0.0000000000000000000, 0.0000000000000000000 ) ) ;
#5 = PLANE ( 'NONE',  #223 ) ;
#6 = AXIS2_PLACEMENT_3D ( 'NONE', #54, #290, #128 ) ;
#7 = EDGE_LOOP ( 'NONE', ( #159, #173 ) ) ;
#8 = EDGE_CURVE ( 'NONE', #208, #244, #98, .T. ) ;
#9 = ORIENTED_EDGE ( 'NONE', *, *, #166, .F. ) ;
#10 = FILL_AREA_STYLE_COLOUR ( '', #73 ) ;
#11 =( NAMED_UNIT ( * ) SI_UNIT ( $, .STERADIAN. ) SOLID_ANGLE_UNIT ( ) );
#12 = AXIS2_PLACEMENT_3D ( 'NONE', #258, #141, #238 ) ;
#13 = ORIENTED_EDGE ( 'NONE', *, *, #230, .T. ) ;
#14 = CYLINDRICAL_SURFACE ( 'NONE', #72, 0.06250000000000002776 ) ;
#15 = DIRECTION ( 'NONE',  ( 1.000000000000000000, 0.0000000000000000000, -0.0000000000000000000 ) ) ;
#16 = DIMENSIONAL_EXPONENTS ( 1.000000000000000000, 0.0000000000000000000, 0.0000000000000000000, 0.0000000000000000000, 0.0000000000000000000, 0.0000000000000000000, 0.0000000000000000000 ) ;
#17 = DIRECTION ( 'NONE',  ( -0.0000000000000000000, -0.0000000000000000000, -1.000000000000000000 ) ) ;
#18 = AXIS2_PLACEMENT_3D ( 'NONE', #203, #283, #110 ) ;
#19 = ORIENTED_EDGE ( 'NONE', *, *, #97, .T. ) ;
#20 = CARTESIAN_POINT ( 'NONE',  ( 0.04750000000000064587, 5.817072295950006528E-18, 1.500000000000000222 ) ) ;
#21 = FACE_OUTER_BOUND ( 'NONE', #227, .T. ) ;
#22 = CARTESIAN_POINT ( 'NONE',  ( -0.06250000000000002776, 0.0000000000000000000, 1.485000000000000764 ) ) ;
#23 = DIRECTION ( 'NONE',  ( -0.7071067811865462405, 0.0000000000000000000, -0.7071067811865486830 ) ) ;
#24 = CIRCLE ( 'NONE', #104, 0.04750000000000064587 ) ;
#25 = FACE_OUTER_BOUND ( 'NONE', #296, .T. ) ;
#26 = UNCERTAINTY_MEASURE_WITH_UNIT (LENGTH_MEASURE( 1.000000000000000082E-05 ), #87, 'distance_accuracy_value', 'NONE');
#27 = DIRECTION ( 'NONE',  ( -1.000000000000000000, 0.0000000000000000000, 1.224646799147353454E-16 ) ) ;
#28 = AXIS2_PLACEMENT_3D ( 'NONE', #187, #275, #48 ) ;
#29 = FACE_OUTER_BOUND ( 'NONE', #247, .T. ) ;
#30 = SURFACE_SIDE_STYLE ('',( #222 ) ) ;
#31 = ORIENTED_EDGE ( 'NONE', *, *, #107, .T. ) ;
#32 = EDGE_CURVE ( 'NONE', #156, #132, #47, .T. ) ;
#33 = CIRCLE ( 'NONE', #18, 0.005494500000000001987 ) ;
#34 = ORIENTED_EDGE ( 'NONE', *, *, #230, .F. ) ;
#35 = LENGTH_MEASURE_WITH_UNIT ( LENGTH_MEASURE( 0.02539999999999999897 ), #172 );
#36 = CARTESIAN_POINT ( 'NONE',  ( 0.0000000000000000000, 0.0000000000000000000, 0.0000000000000000000 ) ) ;
#37 = ADVANCED_FACE ( 'NONE', ( #272 ), #14, .T. ) ;
#38 = ORIENTED_EDGE ( 'NONE', *, *, #55, .F. ) ;
#39 = CIRCLE ( 'NONE', #268, 0.06250000000000002776 ) ;
#40 = DIRECTION ( 'NONE',  ( -1.224646799147353454E-16, -0.0000000000000000000, -1.000000000000000000 ) ) ;
#41 = ORIENTED_EDGE ( 'NONE', *, *, #32, .F. ) ;
#42 = CARTESIAN_POINT ( 'NONE',  ( 0.0000000000000000000, 0.0000000000000000000, 1.500000000000000222 ) ) ;
#43 = CIRCLE ( 'NONE', #219, 0.005494500000000001119 ) ;
#44 = DIRECTION ( 'NONE',  ( -1.000000000000000000, 0.0000000000000000000, 0.0000000000000000000 ) ) ;
#45 = EDGE_CURVE ( 'NONE', #206, #65, #242, .T. ) ;
#46 = PRODUCT_DEFINITION_CONTEXT ( 'detailed design', #63, 'design' ) ;
#47 = LINE ( 'NONE', #231, #297 ) ;
#48 = DIRECTION ( 'NONE',  ( 1.000000000000000000, 0.0000000000000000000, 0.0000000000000000000 ) ) ;
#49 = CONICAL_SURFACE ( 'NONE', #171, 0.005494500000000001119, 0.1745329251994338637 ) ;
#50 = CARTESIAN_POINT ( 'NONE',  ( 0.005494500000000001987, 6.728821837915134893E-19, 0.0000000000000000000 ) ) ;
#51 = CARTESIAN_POINT ( 'NONE',  ( 0.0000000000000000000, 0.0000000000000000000, 1.500000000000000222 ) ) ;
#52 = CIRCLE ( 'NONE', #99, 0.06250000000000002776 ) ;
#53 = CARTESIAN_POINT ( 'NONE',  ( 4.363346198811338976E-17, 0.0000000000000000000, 0.3562942557682157729 ) ) ;
#54 = CARTESIAN_POINT ( 'NONE',  ( 0.0000000000000000000, 0.0000000000000000000, 1.500000000000000222 ) ) ;
#55 = EDGE_CURVE ( 'NONE', #65, #137, #96, .T. ) ;
#56 = ORIENTED_EDGE ( 'NONE', *, *, #111, .F. ) ;
#57 = AXIS2_PLACEMENT_3D ( 'NONE', #204, #291, #69 ) ;
#58 = CARTESIAN_POINT ( 'NONE',  ( 4.363346198811338976E-17, 0.0000000000000000000, 0.3562942557682157729 ) ) ;
#59 = PRODUCT_DEFINITION_FORMATION_WITH_SPECIFIED_SOURCE ( 'ANY', '', #212, .NOT_KNOWN. ) ;
#60 = ORIENTED_EDGE ( 'NONE', *, *, #111, .T. ) ;
#61 = EDGE_LOOP ( 'NONE', ( #112, #19, #181, #196 ) ) ;
#62 = CYLINDRICAL_SURFACE ( 'NONE', #6, 0.06250000000000002776 ) ;
#63 = APPLICATION_CONTEXT ( 'automotive_design' ) ;
#64 = CIRCLE ( 'NONE', #12, 0.005494500000000001119 ) ;
#65 = VERTEX_POINT ( 'NONE', #75 ) ;
#66 = ADVANCED_FACE ( 'NONE', ( #207 ), #119, .T. ) ;
#67 = LINE ( 'NONE', #162, #168 ) ;
#68 = DIRECTION ( 'NONE',  ( 1.000000000000000000, 0.0000000000000000000, 0.0000000000000000000 ) ) ;
#69 = DIRECTION ( 'NONE',  ( -1.000000000000000000, 0.0000000000000000000, 0.0000000000000000000 ) ) ;
#70 = DIRECTION ( 'NONE',  ( -1.224646799147353454E-16, -0.0000000000000000000, -1.000000000000000000 ) ) ;
#71 = CARTESIAN_POINT ( 'NONE',  ( 0.0000000000000000000, 0.0000000000000000000, 1.500000000000000222 ) ) ;
#72 = AXIS2_PLACEMENT_3D ( 'NONE', #182, #17, #44 ) ;
#73 = COLOUR_RGB ( '',0.7921568627450980005, 0.8196078431372548767, 0.9333333333333333481 ) ;
#74 = ADVANCED_FACE ( 'NONE', ( #114 ), #248, .T. ) ;
#75 = CARTESIAN_POINT ( 'NONE',  ( 0.04750000000000064587, 6.735557395310483192E-18, 1.500000000000000222 ) ) ;
#76 = DIRECTION ( 'NONE',  ( 1.000000000000000000, 0.0000000000000000000, 0.0000000000000000000 ) ) ;
#77 =( GEOMETRIC_REPRESENTATION_CONTEXT ( 3 ) GLOBAL_UNCERTAINTY_ASSIGNED_CONTEXT ( ( #26 ) ) GLOBAL_UNIT_ASSIGNED_CONTEXT ( ( #87, #83, #175 ) ) REPRESENTATION_CONTEXT ( 'NONE', 'WORKASPACE' ) );
#78 = CARTESIAN_POINT ( 'NONE',  ( 0.0000000000000000000, 0.0000000000000000000, 0.0000000000000000000 ) ) ;
#79 = SURFACE_STYLE_USAGE ( .BOTH. , #299 ) ;
#80 = ORIENTED_EDGE ( 'NONE', *, *, #45, .F. ) ;
#81 = CARTESIAN_POINT ( 'NONE',  ( 0.005494500000000005456, 0.0000000000000000000, 0.03300000000000000155 ) ) ;
#82 = CONICAL_SURFACE ( 'NONE', #28, 0.005494500000000001119, 0.1745329251994338637 ) ;
#83 =( NAMED_UNIT ( * ) PLANE_ANGLE_UNIT ( ) SI_UNIT ( $, .RADIAN. ) );
#84 = ORIENTED_EDGE ( 'NONE', *, *, #281, .T. ) ;
#85 = ORIENTED_EDGE ( 'NONE', *, *, #32, .T. ) ;
#86 = PRESENTATION_STYLE_ASSIGNMENT (( #224 ) ) ;
#87 =( CONVERSION_BASED_UNIT ( 'INCH', #35 ) LENGTH_UNIT ( ) NAMED_UNIT ( #16 ) );
#88 = ORIENTED_EDGE ( 'NONE', *, *, #217, .T. ) ;
#89 = CARTESIAN_POINT ( 'NONE',  ( 0.0000000000000000000, 0.0000000000000000000, 1.485000000000000764 ) ) ;
#90 = EDGE_CURVE ( 'NONE', #208, #137, #52, .T. ) ;
#91 = DIRECTION ( 'NONE',  ( -0.0000000000000000000, -0.0000000000000000000, -1.000000000000000000 ) ) ;
#92 = CARTESIAN_POINT ( 'NONE',  ( 4.041334437186266650E-18, 0.0000000000000000000, 0.03300000000000000155 ) ) ;
#93 = CARTESIAN_POINT ( 'NONE',  ( 8.240430125835583138E-35, 0.0000000000000000000, 6.728821837915135856E-19 ) ) ;
#94 = CARTESIAN_POINT ( 'NONE',  ( -0.06250000000000002776, 0.0000000000000000000, 1.500000000000000222 ) ) ;
#95 = APPLICATION_PROTOCOL_DEFINITION ( 'draft international standard', 'automotive_design', 1998, #63 ) ;
#96 = LINE ( 'NONE', #20, #201 ) ;
#97 = EDGE_CURVE ( 'NONE', #137, #154, #67, .T. ) ;
#98 = LINE ( 'NONE', #94, #133 ) ;
#99 = AXIS2_PLACEMENT_3D ( 'NONE', #89, #249, #254 ) ;
#100 = LINE ( 'NONE', #103, #1 ) ;
#101 = CARTESIAN_POINT ( 'NONE',  ( 0.0000000000000000000, 0.0000000000000000000, 1.500000000000000222 ) ) ;
#102 = PRESENTATION_STYLE_ASSIGNMENT (( #79 ) ) ;
#103 = CARTESIAN_POINT ( 'NONE',  ( -0.04750000000000064587, 0.0000000000000000000, 1.500000000000000222 ) ) ;
#104 = AXIS2_PLACEMENT_3D ( 'NONE', #51, #191, #213 ) ;
#105 = CARTESIAN_POINT ( 'NONE',  ( 0.06250000000000002776, 7.654042494670959086E-18, 1.485000000000000764 ) ) ;
#106 = FILL_AREA_STYLE_COLOUR ( '', #194 ) ;
#107 = EDGE_CURVE ( 'NONE', #292, #262, #161, .T. ) ;
#108 = CONICAL_SURFACE ( 'NONE', #202, 0.04750000000000064587, 0.7853981633974466137 ) ;
#109 =( CONVERSION_BASED_UNIT ( 'INCH', #178 ) LENGTH_UNIT ( ) NAMED_UNIT ( #200 ) );
#110 = DIRECTION ( 'NONE',  ( -1.000000000000000000, 0.0000000000000000000, 1.224646799147353454E-16 ) ) ;
#111 = EDGE_CURVE ( 'NONE', #156, #292, #43, .T. ) ;
#112 = ORIENTED_EDGE ( 'NONE', *, *, #90, .T. ) ;
#113 = AXIS2_PLACEMENT_3D ( 'NONE', #53, #261, #123 ) ;
#114 = FACE_OUTER_BOUND ( 'NONE', #116, .T. ) ;
#115 = ADVANCED_FACE ( 'NONE', ( #21 ), #218, .T. ) ;
#116 = EDGE_LOOP ( 'NONE', ( #176, #184, #209, #9 ) ) ;
#117 = STYLED_ITEM ( 'NONE', ( #86 ), #263 ) ;
#118 = DIRECTION ( 'NONE',  ( 0.0000000000000000000, 0.0000000000000000000, 1.000000000000000000 ) ) ;
#119 = PLANE ( 'NONE',  #122 ) ;
#120 = EDGE_LOOP ( 'NONE', ( #155, #84 ) ) ;
#121 = LENGTH_MEASURE_WITH_UNIT ( LENGTH_MEASURE( 0.02539999999999999897 ), #278 );
#122 = AXIS2_PLACEMENT_3D ( 'NONE', #42, #271, #15 ) ;
#123 = DIRECTION ( 'NONE',  ( 1.000000000000000000, 0.0000000000000000000, 0.0000000000000000000 ) ) ;
#124 = AXIS2_PLACEMENT_3D ( 'NONE', #236, #276, #76 ) ;
#125 =( CONVERSION_BASED_UNIT ( 'INCH', #121 ) LENGTH_UNIT ( ) NAMED_UNIT ( #269 ) );
#126 = ADVANCED_FACE ( 'NONE', ( #29 ), #260, .T. ) ;
#127 = FACE_OUTER_BOUND ( 'NONE', #264, .T. ) ;
#128 = DIRECTION ( 'NONE',  ( -1.000000000000000000, 0.0000000000000000000, 0.0000000000000000000 ) ) ;
#129 = EDGE_CURVE ( 'NONE', #244, #154, #232, .T. ) ;
#130 = APPLICATION_PROTOCOL_DEFINITION ( 'draft international standard', 'automotive_design', 1998, #189 ) ;
#131 = DIRECTION ( 'NONE',  ( 0.0000000000000000000, 0.0000000000000000000, 1.000000000000000000 ) ) ;
#132 = VERTEX_POINT ( 'NONE', #50 ) ;
#133 = VECTOR ( 'NONE', #165, 39.37007874015748143 ) ;
#134 = VECTOR ( 'NONE', #170, 39.37007874015748143 ) ;
#135 = ORIENTED_EDGE ( 'NONE', *, *, #281, .F. ) ;
#136 = ORIENTED_EDGE ( 'NONE', *, *, #241, .F. ) ;
#137 = VERTEX_POINT ( 'NONE', #105 ) ;
#138 = EDGE_LOOP ( 'NONE', ( #34, #56, #295, #285 ) ) ;
#139 = DIRECTION ( 'NONE',  ( -1.000000000000000000, 0.0000000000000000000, 0.0000000000000000000 ) ) ;
#140 = DIRECTION ( 'NONE',  ( 0.7071067811865462405, 8.659560562354916834E-17, -0.7071067811865486830 ) ) ;
#141 = DIRECTION ( 'NONE',  ( -1.224646799147353454E-16, -0.0000000000000000000, -1.000000000000000000 ) ) ;
#142 = CARTESIAN_POINT ( 'NONE',  ( 0.0000000000000000000, 0.0000000000000000000, 0.0000000000000000000 ) ) ;
#143 = CIRCLE ( 'NONE', #289, 0.005494500000000001987 ) ;
#144 = EDGE_CURVE ( 'NONE', #65, #206, #24, .T. ) ;
#145 = SURFACE_STYLE_FILL_AREA ( #190 ) ;
#146 = PRODUCT_RELATED_PRODUCT_CATEGORY ( 'part', '', ( #212 ) ) ;
#147 =( GEOMETRIC_REPRESENTATION_CONTEXT ( 3 ) GLOBAL_UNCERTAINTY_ASSIGNED_CONTEXT ( ( #280 ) ) GLOBAL_UNIT_ASSIGNED_CONTEXT ( ( #125, #220, #282 ) ) REPRESENTATION_CONTEXT ( 'NONE', 'WORKASPACE' ) );
#148 = UNCERTAINTY_MEASURE_WITH_UNIT (LENGTH_MEASURE( 1.000000000000000082E-05 ), #109, 'distance_accuracy_value', 'NONE');
#149 = CARTESIAN_POINT ( 'NONE',  ( -0.005494499999999996782, 4.163462339231237636E-18, 0.03300000000000000155 ) ) ;
#150 = ORIENTED_EDGE ( 'NONE', *, *, #129, .T. ) ;
#151 = CARTESIAN_POINT ( 'NONE',  ( 0.0000000000000000000, 0.0000000000000000000, 0.0000000000000000000 ) ) ;
#152 = MECHANICAL_DESIGN_GEOMETRIC_PRESENTATION_REPRESENTATION (  '', ( #117 ), #2 ) ;
#153 = DIRECTION ( 'NONE',  ( 0.0000000000000000000, 0.0000000000000000000, 1.000000000000000000 ) ) ;
#154 = VERTEX_POINT ( 'NONE', #214 ) ;
#155 = ORIENTED_EDGE ( 'NONE', *, *, #252, .T. ) ;
#156 = VERTEX_POINT ( 'NONE', #167 ) ;
#157 = AXIS2_PLACEMENT_3D ( 'NONE', #71, #118, #274 ) ;
#158 = AXIS2_PLACEMENT_3D ( 'NONE', #36, #131, #68 ) ;
#159 = ORIENTED_EDGE ( 'NONE', *, *, #45, .T. ) ;
#160 = MANIFOLD_SOLID_BREP ( 'Cut-Revolve1', #185 ) ;
#161 = LINE ( 'NONE', #267, #253 ) ;
#162 = CARTESIAN_POINT ( 'NONE',  ( 0.06250000000000002776, 7.654042494670959086E-18, 1.500000000000000222 ) ) ;
#163 = DIRECTION ( 'NONE',  ( -1.224646799147353454E-16, -0.0000000000000000000, -1.000000000000000000 ) ) ;
#164 = CARTESIAN_POINT ( 'NONE',  ( -0.04750000000000064587, 0.0000000000000000000, 1.500000000000000222 ) ) ;
#165 = DIRECTION ( 'NONE',  ( -0.0000000000000000000, -0.0000000000000000000, -1.000000000000000000 ) ) ;
#166 = EDGE_CURVE ( 'NONE', #206, #208, #100, .T. ) ;
#167 = CARTESIAN_POINT ( 'NONE',  ( 0.005494500000000005456, 0.0000000000000000000, 0.03300000000000000155 ) ) ;
#168 = VECTOR ( 'NONE', #91, 39.37007874015748143 ) ;
#169 = CARTESIAN_POINT ( 'NONE',  ( -0.005494499999999996782, 6.728821837915133930E-19, 0.03300000000000000155 ) ) ;
#170 = DIRECTION ( 'NONE',  ( 0.1736481776669313581, 0.0000000000000000000, 0.9848077530122077983 ) ) ;
#171 = AXIS2_PLACEMENT_3D ( 'NONE', #92, #259, #286 ) ;
#172 =( LENGTH_UNIT ( ) NAMED_UNIT ( * ) SI_UNIT ( $, .METRE. ) );
#173 = ORIENTED_EDGE ( 'NONE', *, *, #144, .T. ) ;
#174 = DIRECTION ( 'NONE',  ( -0.1736481776669311639, 2.126576849575783008E-17, 0.9848077530122080203 ) ) ;
#175 =( NAMED_UNIT ( * ) SI_UNIT ( $, .STERADIAN. ) SOLID_ANGLE_UNIT ( ) );
#176 = ORIENTED_EDGE ( 'NONE', *, *, #144, .F. ) ;
#177 = EDGE_CURVE ( 'NONE', #156, #154, #240, .T. ) ;
#178 = LENGTH_MEASURE_WITH_UNIT ( LENGTH_MEASURE( 0.02539999999999999897 ), #287 );
#179 = ORIENTED_EDGE ( 'NONE', *, *, #252, .F. ) ;
#180 = STYLED_ITEM ( 'NONE', ( #102 ), #160 ) ;
#181 = ORIENTED_EDGE ( 'NONE', *, *, #129, .F. ) ;
#182 = CARTESIAN_POINT ( 'NONE',  ( 0.0000000000000000000, 0.0000000000000000000, 1.500000000000000222 ) ) ;
#183 = PRODUCT_CONTEXT ( 'NONE', #189, 'mechanical' ) ;
#184 = ORIENTED_EDGE ( 'NONE', *, *, #55, .T. ) ;
#185 = CLOSED_SHELL ( 'NONE', ( #126, #234, #74, #37, #277, #66, #225, #210, #115, #298 ) ) ;
#186 = DIRECTION ( 'NONE',  ( -1.224646799147353454E-16, -0.0000000000000000000, -1.000000000000000000 ) ) ;
#187 = CARTESIAN_POINT ( 'NONE',  ( 4.041334437186266650E-18, 0.0000000000000000000, 0.03300000000000000155 ) ) ;
#188 = DIRECTION ( 'NONE',  ( -1.000000000000000000, 0.0000000000000000000, 1.224646799147353454E-16 ) ) ;
#189 = APPLICATION_CONTEXT ( 'automotive_design' ) ;
#190 = FILL_AREA_STYLE ('',( #106 ) ) ;
#191 = DIRECTION ( 'NONE',  ( 0.0000000000000000000, 0.0000000000000000000, 1.000000000000000000 ) ) ;
#192 = CARTESIAN_POINT ( 'NONE',  ( -0.005494500000000001987, 0.0000000000000000000, 1.345764367583027171E-18 ) ) ;
#193 = ORIENTED_EDGE ( 'NONE', *, *, #217, .F. ) ;
#194 = COLOUR_RGB ( '',0.7921568627450980005, 0.8196078431372548767, 0.9333333333333333481 ) ;
#195 = PRODUCT_DEFINITION ( 'UNKNOWN', '', #59, #46 ) ;
#196 = ORIENTED_EDGE ( 'NONE', *, *, #8, .F. ) ;
#197 = EDGE_LOOP ( 'NONE', ( #193, #13, #150, #284 ) ) ;
#198 = DIRECTION ( 'NONE',  ( 1.000000000000000000, 0.0000000000000000000, -0.0000000000000000000 ) ) ;
#199 = EDGE_CURVE ( 'NONE', #137, #208, #211, .T. ) ;
#200 = DIMENSIONAL_EXPONENTS ( 1.000000000000000000, 0.0000000000000000000, 0.0000000000000000000, 0.0000000000000000000, 0.0000000000000000000, 0.0000000000000000000, 0.0000000000000000000 ) ;
#201 = VECTOR ( 'NONE', #140, 39.37007874015748854 ) ;
#202 = AXIS2_PLACEMENT_3D ( 'NONE', #101, #221, #4 ) ;
#203 = CARTESIAN_POINT ( 'NONE',  ( 8.240430125835583138E-35, 0.0000000000000000000, 6.728821837915135856E-19 ) ) ;
#204 = CARTESIAN_POINT ( 'NONE',  ( 0.0000000000000000000, 0.0000000000000000000, 1.500000000000000222 ) ) ;
#205 = CARTESIAN_POINT ( 'NONE',  ( -0.06249999999999997918, 0.0000000000000000000, 0.3562942557682157729 ) ) ;
#206 = VERTEX_POINT ( 'NONE', #164 ) ;
#207 = FACE_OUTER_BOUND ( 'NONE', #7, .T. ) ;
#208 = VERTEX_POINT ( 'NONE', #22 ) ;
#209 = ORIENTED_EDGE ( 'NONE', *, *, #90, .F. ) ;
#210 = ADVANCED_FACE ( 'NONE', ( #255 ), #82, .T. ) ;
#211 = CIRCLE ( 'NONE', #124, 0.06250000000000002776 ) ;
#212 = PRODUCT ( 'Micro_RME-011-2X', 'Micro_RME-011-2X', '', ( #183 ) ) ;
#213 = DIRECTION ( 'NONE',  ( 1.000000000000000000, 0.0000000000000000000, 0.0000000000000000000 ) ) ;
#214 = CARTESIAN_POINT ( 'NONE',  ( 0.06250000000000006939, 7.654042494670963708E-18, 0.3562942557682157729 ) ) ;
#215 = LINE ( 'NONE', #169, #273 ) ;
#216 = PRODUCT_DEFINITION_SHAPE ( 'NONE', 'NONE',  #195 ) ;
#217 = EDGE_CURVE ( 'NONE', #292, #156, #64, .T. ) ;
#218 = CYLINDRICAL_SURFACE ( 'NONE', #237, 0.005494500000000001987 ) ;
#219 = AXIS2_PLACEMENT_3D ( 'NONE', #250, #163, #139 ) ;
#220 =( NAMED_UNIT ( * ) PLANE_ANGLE_UNIT ( ) SI_UNIT ( $, .RADIAN. ) );
#221 = DIRECTION ( 'NONE',  ( 0.0000000000000000000, 0.0000000000000000000, -1.000000000000000000 ) ) ;
#222 = SURFACE_STYLE_FILL_AREA ( #243 ) ;
#223 = AXIS2_PLACEMENT_3D ( 'NONE', #151, #153, #198 ) ;
#224 = SURFACE_STYLE_USAGE ( .BOTH. , #30 ) ;
#225 = ADVANCED_FACE ( 'NONE', ( #25 ), #108, .T. ) ;
#226 = FACE_OUTER_BOUND ( 'NONE', #120, .T. ) ;
#227 = EDGE_LOOP ( 'NONE', ( #41, #60, #31, #135 ) ) ;
#228 = DIRECTION ( 'NONE',  ( 1.000000000000000000, 0.0000000000000000000, 0.0000000000000000000 ) ) ;
#229 = ORIENTED_EDGE ( 'NONE', *, *, #107, .F. ) ;
#230 = EDGE_CURVE ( 'NONE', #292, #244, #215, .T. ) ;
#231 = CARTESIAN_POINT ( 'NONE',  ( 0.005494500000000001987, 6.728821837915134893E-19, -6.728821837915135856E-19 ) ) ;
#232 = CIRCLE ( 'NONE', #113, 0.06250000000000002776 ) ;
#233 = ORIENTED_EDGE ( 'NONE', *, *, #97, .F. ) ;
#234 = ADVANCED_FACE ( 'NONE', ( #293 ), #49, .T. ) ;
#235 = ORIENTED_EDGE ( 'NONE', *, *, #8, .T. ) ;
#236 = CARTESIAN_POINT ( 'NONE',  ( 0.0000000000000000000, 0.0000000000000000000, 1.485000000000000764 ) ) ;
#237 = AXIS2_PLACEMENT_3D ( 'NONE', #142, #256, #3 ) ;
#238 = DIRECTION ( 'NONE',  ( -1.000000000000000000, 0.0000000000000000000, 0.0000000000000000000 ) ) ;
#239 = DIRECTION ( 'NONE',  ( -1.224646799147353454E-16, -0.0000000000000000000, -1.000000000000000000 ) ) ;
#240 = LINE ( 'NONE', #81, #134 ) ;
#241 = EDGE_CURVE ( 'NONE', #154, #244, #39, .T. ) ;
#242 = CIRCLE ( 'NONE', #157, 0.04750000000000064587 ) ;
#243 = FILL_AREA_STYLE ('',( #10 ) ) ;
#244 = VERTEX_POINT ( 'NONE', #205 ) ;
#245 = PRESENTATION_LAYER_ASSIGNMENT (  '', '', ( #180 ) ) ;
#246 = DIRECTION ( 'NONE',  ( -1.224646799147353454E-16, -0.0000000000000000000, -1.000000000000000000 ) ) ;
#247 = EDGE_LOOP ( 'NONE', ( #88, #85, #179, #229 ) ) ;
#248 = CONICAL_SURFACE ( 'NONE', #57, 0.04750000000000064587, 0.7853981633974466137 ) ;
#249 = DIRECTION ( 'NONE',  ( 0.0000000000000000000, 0.0000000000000000000, -1.000000000000000000 ) ) ;
#250 = CARTESIAN_POINT ( 'NONE',  ( 4.041334437186266650E-18, 0.0000000000000000000, 0.03300000000000000155 ) ) ;
#251 = ORIENTED_EDGE ( 'NONE', *, *, #199, .F. ) ;
#252 = EDGE_CURVE ( 'NONE', #262, #132, #143, .T. ) ;
#253 = VECTOR ( 'NONE', #40, 39.37007874015748143 ) ;
#254 = DIRECTION ( 'NONE',  ( 1.000000000000000000, 0.0000000000000000000, 0.0000000000000000000 ) ) ;
#255 = FACE_OUTER_BOUND ( 'NONE', #138, .T. ) ;
#256 = DIRECTION ( 'NONE',  ( -1.224646799147353454E-16, -0.0000000000000000000, -1.000000000000000000 ) ) ;
#257 = AXIS2_PLACEMENT_3D ( 'NONE', #78, #239, #27 ) ;
#258 = CARTESIAN_POINT ( 'NONE',  ( 4.041334437186266650E-18, 0.0000000000000000000, 0.03300000000000000155 ) ) ;
#259 = DIRECTION ( 'NONE',  ( 1.224646799147353454E-16, 0.0000000000000000000, 1.000000000000000000 ) ) ;
#260 = CYLINDRICAL_SURFACE ( 'NONE', #257, 0.005494500000000001987 ) ;
#261 = DIRECTION ( 'NONE',  ( -1.224646799147353454E-16, -0.0000000000000000000, -1.000000000000000000 ) ) ;
#262 = VERTEX_POINT ( 'NONE', #192 ) ;
#263 = ADVANCED_BREP_SHAPE_REPRESENTATION ( 'Micro_RME-011-2X', ( #160, #158 ), #77 ) ;
#264 = EDGE_LOOP ( 'NONE', ( #233, #270, #235, #136 ) ) ;
#265 = MECHANICAL_DESIGN_GEOMETRIC_PRESENTATION_REPRESENTATION (  '', ( #180 ), #147 ) ;
#266 =( NAMED_UNIT ( * ) PLANE_ANGLE_UNIT ( ) SI_UNIT ( $, .RADIAN. ) );
#267 = CARTESIAN_POINT ( 'NONE',  ( -0.005494500000000001987, 0.0000000000000000000, 6.728821837915135856E-19 ) ) ;
#268 = AXIS2_PLACEMENT_3D ( 'NONE', #58, #246, #228 ) ;
#269 = DIMENSIONAL_EXPONENTS ( 1.000000000000000000, 0.0000000000000000000, 0.0000000000000000000, 0.0000000000000000000, 0.0000000000000000000, 0.0000000000000000000, 0.0000000000000000000 ) ;
#270 = ORIENTED_EDGE ( 'NONE', *, *, #199, .T. ) ;
#271 = DIRECTION ( 'NONE',  ( 0.0000000000000000000, 0.0000000000000000000, 1.000000000000000000 ) ) ;
#272 = FACE_OUTER_BOUND ( 'NONE', #61, .T. ) ;
#273 = VECTOR ( 'NONE', #174, 39.37007874015747433 ) ;
#274 = DIRECTION ( 'NONE',  ( 1.000000000000000000, 0.0000000000000000000, 0.0000000000000000000 ) ) ;
#275 = DIRECTION ( 'NONE',  ( 1.224646799147353454E-16, 0.0000000000000000000, 1.000000000000000000 ) ) ;
#276 = DIRECTION ( 'NONE',  ( 0.0000000000000000000, 0.0000000000000000000, -1.000000000000000000 ) ) ;
#277 = ADVANCED_FACE ( 'NONE', ( #127 ), #62, .T. ) ;
#278 =( LENGTH_UNIT ( ) NAMED_UNIT ( * ) SI_UNIT ( $, .METRE. ) );
#279 = PRESENTATION_LAYER_ASSIGNMENT (  '', '', ( #117 ) ) ;
#280 = UNCERTAINTY_MEASURE_WITH_UNIT (LENGTH_MEASURE( 1.000000000000000082E-05 ), #125, 'distance_accuracy_value', 'NONE');
#281 = EDGE_CURVE ( 'NONE', #132, #262, #33, .T. ) ;
#282 =( NAMED_UNIT ( * ) SI_UNIT ( $, .STERADIAN. ) SOLID_ANGLE_UNIT ( ) );
#283 = DIRECTION ( 'NONE',  ( -1.224646799147353454E-16, -0.0000000000000000000, -1.000000000000000000 ) ) ;
#284 = ORIENTED_EDGE ( 'NONE', *, *, #177, .F. ) ;
#285 = ORIENTED_EDGE ( 'NONE', *, *, #241, .T. ) ;
#286 = DIRECTION ( 'NONE',  ( 1.000000000000000000, 0.0000000000000000000, 0.0000000000000000000 ) ) ;
#287 =( LENGTH_UNIT ( ) NAMED_UNIT ( * ) SI_UNIT ( $, .METRE. ) );
#288 = ORIENTED_EDGE ( 'NONE', *, *, #166, .T. ) ;
#289 = AXIS2_PLACEMENT_3D ( 'NONE', #93, #70, #188 ) ;
#290 = DIRECTION ( 'NONE',  ( -0.0000000000000000000, -0.0000000000000000000, -1.000000000000000000 ) ) ;
#291 = DIRECTION ( 'NONE',  ( 0.0000000000000000000, 0.0000000000000000000, -1.000000000000000000 ) ) ;
#292 = VERTEX_POINT ( 'NONE', #149 ) ;
#293 = FACE_OUTER_BOUND ( 'NONE', #197, .T. ) ;
#294 = SHAPE_DEFINITION_REPRESENTATION ( #216, #263 ) ;
#295 = ORIENTED_EDGE ( 'NONE', *, *, #177, .T. ) ;
#296 = EDGE_LOOP ( 'NONE', ( #38, #80, #288, #251 ) ) ;
#297 = VECTOR ( 'NONE', #186, 39.37007874015748143 ) ;
#298 = ADVANCED_FACE ( 'NONE', ( #226 ), #5, .F. ) ;
#299 = SURFACE_SIDE_STYLE ('',( #145 ) ) ;
ENDSEC;
END-ISO-10303-21;
