ISO-10303-21;
HEADER;
FILE_DESCRIPTION (( 'STEP AP214' ),
    '1' );
FILE_NAME ('59278.STEP',
    '2023-06-22T22:52:00',
    ( '' ),
    ( '' ),
    'SwSTEP 2.0',
    'SolidWorks 2023',
    '' );
FILE_SCHEMA (( 'AUTOMOTIVE_DESIGN' ));
ENDSEC;

DATA;
#1 =( NAMED_UNIT ( * ) SI_UNIT ( $, .STERADIAN. ) SOLID_ANGLE_UNIT ( ) );
#2 = LENGTH_MEASURE_WITH_UNIT ( LENGTH_MEASURE( 0.02539999999999999897 ), #5 );
#3 = AXIS2_PLACEMENT_3D ( 'NONE', #47, #161, #61 ) ;
#4 = CARTESIAN_POINT ( 'NONE',  ( -6.123233995736759873E-17, 5.000000000000000000, 0.000000000000000000 ) ) ;
#5 =( LENGTH_UNIT ( ) NAMED_UNIT ( * ) SI_UNIT ( $, .METRE. ) );
#6 = DIRECTION ( 'NONE',  ( -1.000000000000000000, 0.000000000000000000, 0.000000000000000000 ) ) ;
#7 = AXIS2_PLACEMENT_3D ( 'NONE', #11, #86, #186 ) ;
#8 = PRESENTATION_STYLE_ASSIGNMENT (( #228 ) ) ;
#9 = CARTESIAN_POINT ( 'NONE',  ( 0.000000000000000000, 2.625000000000000000, 0.000000000000000000 ) ) ;
#10 = STYLED_ITEM ( 'NONE', ( #51 ), #94 ) ;
#11 = CARTESIAN_POINT ( 'NONE',  ( 0.000000000000000000, 0.000000000000000000, 0.000000000000000000 ) ) ;
#12 = ORIENTED_EDGE ( 'NONE', *, *, #104, .F. ) ;
#13 = VERTEX_POINT ( 'NONE', #45 ) ;
#14 = COLOUR_RGB ( '',0.7921568627450980005, 0.8196078431372548767, 0.9333333333333333481 ) ;
#15 = CIRCLE ( 'NONE', #293, 0.5000000000000000000 ) ;
#16 = ORIENTED_EDGE ( 'NONE', *, *, #43, .T. ) ;
#17 = DIRECTION ( 'NONE',  ( 0.000000000000000000, 0.000000000000000000, -1.000000000000000000 ) ) ;
#18 = AXIS2_PLACEMENT_3D ( 'NONE', #31, #55, #264 ) ;
#19 = CARTESIAN_POINT ( 'NONE',  ( -6.123233995736759873E-17, 5.000000000000000000, 0.000000000000000000 ) ) ;
#20 = LINE ( 'NONE', #123, #282 ) ;
#21 = LINE ( 'NONE', #191, #243 ) ;
#22 = UNCERTAINTY_MEASURE_WITH_UNIT (LENGTH_MEASURE( 1.000000000000000082E-05 ), #236, 'distance_accuracy_value', 'NONE');
#23 = PLANE ( 'NONE',  #281 ) ;
#24 = DIRECTION ( 'NONE',  ( -1.000000000000000000, 0.000000000000000000, 0.000000000000000000 ) ) ;
#25 = MECHANICAL_DESIGN_GEOMETRIC_PRESENTATION_REPRESENTATION (  '', ( #112 ), #29 ) ;
#26 = FILL_AREA_STYLE_COLOUR ( '', #167 ) ;
#27 = DIRECTION ( 'NONE',  ( -0.000000000000000000, -1.000000000000000000, -0.000000000000000000 ) ) ;
#28 = AXIS2_PLACEMENT_3D ( 'NONE', #180, #201, #250 ) ;
#29 =( GEOMETRIC_REPRESENTATION_CONTEXT ( 3 ) GLOBAL_UNCERTAINTY_ASSIGNED_CONTEXT ( ( #209 ) ) GLOBAL_UNIT_ASSIGNED_CONTEXT ( ( #225, #96, #223 ) ) REPRESENTATION_CONTEXT ( 'NONE', 'WORKASPACE' ) );
#30 = LINE ( 'NONE', #247, #84 ) ;
#31 = CARTESIAN_POINT ( 'NONE',  ( -6.123233995736759873E-17, 5.000000000000000000, 0.000000000000000000 ) ) ;
#32 = MANIFOLD_SOLID_BREP ( 'Revolve - Tool Body (Straight Shanked)', #101 ) ;
#33 = DIRECTION ( 'NONE',  ( -0.000000000000000000, -1.000000000000000000, -0.000000000000000000 ) ) ;
#34 = ORIENTED_EDGE ( 'NONE', *, *, #195, .F. ) ;
#35 = ADVANCED_FACE ( 'NONE', ( #126 ), #23, .F. ) ;
#36 = EDGE_LOOP ( 'NONE', ( #231, #164, #280, #265 ) ) ;
#37 = COLOUR_RGB ( '',1.000000000000000000, 0.000000000000000000, 0.000000000000000000 ) ;
#38 = UNCERTAINTY_MEASURE_WITH_UNIT (LENGTH_MEASURE( 1.000000000000000082E-05 ), #100, 'distance_accuracy_value', 'NONE');
#39 = PRESENTATION_STYLE_ASSIGNMENT (( #235 ) ) ;
#40 = STYLED_ITEM ( 'NONE', ( #215 ), #204 ) ;
#41 =( CONVERSION_BASED_UNIT ( 'INCH', #288 ) LENGTH_UNIT ( ) NAMED_UNIT ( #268 ) );
#42 = EDGE_LOOP ( 'NONE', ( #16, #185 ) ) ;
#43 = EDGE_CURVE ( 'NONE', #213, #289, #98, .T. ) ;
#44 = SURFACE_STYLE_USAGE ( .BOTH. , #287 ) ;
#45 = CARTESIAN_POINT ( 'NONE',  ( 0.5000000000000000000, 5.000000000000000000, 6.123233995736766036E-17 ) ) ;
#46 = SURFACE_SIDE_STYLE ('',( #216 ) ) ;
#47 = CARTESIAN_POINT ( 'NONE',  ( 0.000000000000000000, 2.625000000000000000, 0.000000000000000000 ) ) ;
#48 =( CONVERSION_BASED_UNIT ( 'INCH', #74 ) LENGTH_UNIT ( ) NAMED_UNIT ( #178 ) );
#49 = ADVANCED_BREP_SHAPE_REPRESENTATION ( '59278', ( #147, #32, #7 ), #278 ) ;
#50 = AXIS2_PLACEMENT_3D ( 'NONE', #53, #171, #24 ) ;
#51 = PRESENTATION_STYLE_ASSIGNMENT (( #260 ) ) ;
#52 = VERTEX_POINT ( 'NONE', #181 ) ;
#53 = CARTESIAN_POINT ( 'NONE',  ( -6.123233995736759873E-17, 5.000000000000000000, 0.000000000000000000 ) ) ;
#54 = LENGTH_MEASURE_WITH_UNIT ( LENGTH_MEASURE( 0.02539999999999999897 ), #224 );
#55 = DIRECTION ( 'NONE',  ( -2.578203787678635493E-17, 1.000000000000000000, -0.000000000000000000 ) ) ;
#56 = CIRCLE ( 'NONE', #253, 0.5000000000000000000 ) ;
#57 = PRODUCT_RELATED_PRODUCT_CATEGORY ( 'part', '', ( #122 ) ) ;
#58 =( NAMED_UNIT ( * ) PLANE_ANGLE_UNIT ( ) SI_UNIT ( $, .RADIAN. ) );
#59 =( NAMED_UNIT ( * ) SI_UNIT ( $, .STERADIAN. ) SOLID_ANGLE_UNIT ( ) );
#60 = ORIENTED_EDGE ( 'NONE', *, *, #165, .F. ) ;
#61 = DIRECTION ( 'NONE',  ( -1.000000000000000000, 0.000000000000000000, 0.000000000000000000 ) ) ;
#62 = PRESENTATION_LAYER_ASSIGNMENT (  '', '', ( #232 ) ) ;
#63 = EDGE_LOOP ( 'NONE', ( #87, #60 ) ) ;
#64 = ORIENTED_EDGE ( 'NONE', *, *, #210, .F. ) ;
#65 = UNCERTAINTY_MEASURE_WITH_UNIT (LENGTH_MEASURE( 1.000000000000000082E-05 ), #48, 'distance_accuracy_value', 'NONE');
#66 =( CONVERSION_BASED_UNIT ( 'INCH', #68 ) LENGTH_UNIT ( ) NAMED_UNIT ( #297 ) );
#67 = DIRECTION ( 'NONE',  ( -1.000000000000000000, 0.000000000000000000, 0.000000000000000000 ) ) ;
#68 = LENGTH_MEASURE_WITH_UNIT ( LENGTH_MEASURE( 0.02539999999999999897 ), #149 );
#69 = SURFACE_SIDE_STYLE ('',( #190 ) ) ;
#70 = LENGTH_MEASURE_WITH_UNIT ( LENGTH_MEASURE( 0.02539999999999999897 ), #256 );
#71 = CARTESIAN_POINT ( 'NONE',  ( 1.661783692700115704E-34, 2.625000000000000000, 0.000000000000000000 ) ) ;
#72 = ADVANCED_FACE ( 'NONE', ( #270 ), #103, .T. ) ;
#73 = SURFACE_STYLE_USAGE ( .BOTH. , #46 ) ;
#74 = LENGTH_MEASURE_WITH_UNIT ( LENGTH_MEASURE( 0.02539999999999999897 ), #306 );
#75 = EDGE_LOOP ( 'NONE', ( #259, #254, #34, #240 ) ) ;
#76 = AXIS2_PLACEMENT_3D ( 'NONE', #189, #296, #299 ) ;
#77 = CYLINDRICAL_SURFACE ( 'NONE', #303, 0.5000000000000000000 ) ;
#78 =( NAMED_UNIT ( * ) SI_UNIT ( $, .STERADIAN. ) SOLID_ANGLE_UNIT ( ) );
#79 = DIMENSIONAL_EXPONENTS ( 1.000000000000000000, 0.000000000000000000, 0.000000000000000000, 0.000000000000000000, 0.000000000000000000, 0.000000000000000000, 0.000000000000000000 ) ;
#80 = CARTESIAN_POINT ( 'NONE',  ( 6.123233995736766036E-17, 2.625000000000000000, 0.5000000000000000000 ) ) ;
#81 = EDGE_CURVE ( 'NONE', #276, #207, #157, .T. ) ;
#82 = DIRECTION ( 'NONE',  ( 0.000000000000000000, 0.000000000000000000, -1.000000000000000000 ) ) ;
#83 = ORIENTED_EDGE ( 'NONE', *, *, #90, .T. ) ;
#84 = VECTOR ( 'NONE', #27, 39.37007874015748143 ) ;
#85 = CARTESIAN_POINT ( 'NONE',  ( 0.000000000000000000, 0.000000000000000000, -0.5000000000000000000 ) ) ;
#86 = DIRECTION ( 'NONE',  ( 0.000000000000000000, 0.000000000000000000, 1.000000000000000000 ) ) ;
#87 = ORIENTED_EDGE ( 'NONE', *, *, #238, .F. ) ;
#88 = MECHANICAL_DESIGN_GEOMETRIC_PRESENTATION_REPRESENTATION (  '', ( #10 ), #107 ) ;
#89 = APPLICATION_CONTEXT ( 'automotive_design' ) ;
#90 = EDGE_CURVE ( 'NONE', #52, #213, #30, .T. ) ;
#91 = SURFACE_STYLE_FILL_AREA ( #168 ) ;
#92 = CIRCLE ( 'NONE', #193, 0.5000000000000000000 ) ;
#93 = FILL_AREA_STYLE_COLOUR ( '', #37 ) ;
#94 = ADVANCED_FACE ( 'NONE', ( #137 ), #131, .T. ) ;
#95 = ADVANCED_FACE ( 'NONE', ( #148 ), #77, .T. ) ;
#96 =( NAMED_UNIT ( * ) PLANE_ANGLE_UNIT ( ) SI_UNIT ( $, .RADIAN. ) );
#97 = ORIENTED_EDGE ( 'NONE', *, *, #165, .T. ) ;
#98 = CIRCLE ( 'NONE', #273, 0.5000000000000000000 ) ;
#99 = CYLINDRICAL_SURFACE ( 'NONE', #18, 0.5000000000000000000 ) ;
#100 =( CONVERSION_BASED_UNIT ( 'INCH', #54 ) LENGTH_UNIT ( ) NAMED_UNIT ( #271 ) );
#101 = CLOSED_SHELL ( 'NONE', ( #305, #118, #95, #35 ) ) ;
#102 = AXIS2_PLACEMENT_3D ( 'NONE', #141, #142, #17 ) ;
#103 = PLANE ( 'NONE',  #28 ) ;
#104 = EDGE_CURVE ( 'NONE', #13, #207, #187, .T. ) ;
#105 = DIMENSIONAL_EXPONENTS ( 1.000000000000000000, 0.000000000000000000, 0.000000000000000000, 0.000000000000000000, 0.000000000000000000, 0.000000000000000000, 0.000000000000000000 ) ;
#106 = SHAPE_DEFINITION_REPRESENTATION ( #129, #49 ) ;
#107 =( GEOMETRIC_REPRESENTATION_CONTEXT ( 3 ) GLOBAL_UNCERTAINTY_ASSIGNED_CONTEXT ( ( #113 ) ) GLOBAL_UNIT_ASSIGNED_CONTEXT ( ( #41, #263, #266 ) ) REPRESENTATION_CONTEXT ( 'NONE', 'WORKASPACE' ) );
#108 = CARTESIAN_POINT ( 'NONE',  ( 0.000000000000000000, 2.625000000000000000, 0.000000000000000000 ) ) ;
#109 = VERTEX_POINT ( 'NONE', #128 ) ;
#110 = ORIENTED_EDGE ( 'NONE', *, *, #121, .F. ) ;
#111 = CIRCLE ( 'NONE', #3, 0.5000000000000000000 ) ;
#112 = STYLED_ITEM ( 'NONE', ( #242 ), #133 ) ;
#113 = UNCERTAINTY_MEASURE_WITH_UNIT (LENGTH_MEASURE( 1.000000000000000082E-05 ), #41, 'distance_accuracy_value', 'NONE');
#114 = FILL_AREA_STYLE_COLOUR ( '', #267 ) ;
#115 = DIRECTION ( 'NONE',  ( -2.578203787678635493E-17, 1.000000000000000000, -0.000000000000000000 ) ) ;
#116 = PRODUCT_DEFINITION_CONTEXT ( 'detailed design', #150, 'design' ) ;
#117 = PRESENTATION_LAYER_ASSIGNMENT (  '', '', ( #166 ) ) ;
#118 = ADVANCED_FACE ( 'NONE', ( #246 ), #156, .F. ) ;
#119 = FACE_OUTER_BOUND ( 'NONE', #199, .T. ) ;
#120 = PRESENTATION_STYLE_ASSIGNMENT (( #245 ) ) ;
#121 = EDGE_CURVE ( 'NONE', #109, #13, #20, .T. ) ;
#122 = PRODUCT ( '59278', '59278', '', ( #251 ) ) ;
#123 = CARTESIAN_POINT ( 'NONE',  ( 0.4999999999999999445, 5.000000000000000000, 6.123233995736766036E-17 ) ) ;
#124 = FILL_AREA_STYLE ('',( #237 ) ) ;
#125 = DIRECTION ( 'NONE',  ( -0.000000000000000000, -1.000000000000000000, -0.000000000000000000 ) ) ;
#126 = FACE_OUTER_BOUND ( 'NONE', #262, .T. ) ;
#127 = COLOUR_RGB ( '',1.000000000000000000, 0.000000000000000000, 0.000000000000000000 ) ;
#128 = CARTESIAN_POINT ( 'NONE',  ( 0.5000000000000000000, 2.625000000000000000, 6.123233995736766036E-17 ) ) ;
#129 = PRODUCT_DEFINITION_SHAPE ( 'NONE', 'NONE',  #284 ) ;
#130 = FILL_AREA_STYLE ('',( #26 ) ) ;
#131 = PLANE ( 'NONE',  #255 ) ;
#132 = STYLED_ITEM ( 'NONE', ( #39 ), #147 ) ;
#133 = ADVANCED_FACE ( 'NONE', ( #196 ), #173, .T. ) ;
#134 = FILL_AREA_STYLE_COLOUR ( '', #153 ) ;
#135 = EDGE_CURVE ( 'NONE', #52, #301, #15, .T. ) ;
#136 = APPLICATION_PROTOCOL_DEFINITION ( 'draft international standard', 'automotive_design', 1998, #89 ) ;
#137 = FACE_OUTER_BOUND ( 'NONE', #162, .T. ) ;
#138 = CIRCLE ( 'NONE', #234, 0.5000000000000001110 ) ;
#139 = DIRECTION ( 'NONE',  ( -0.000000000000000000, -1.000000000000000000, -0.000000000000000000 ) ) ;
#140 = MECHANICAL_DESIGN_GEOMETRIC_PRESENTATION_REPRESENTATION (  '', ( #166 ), #218 ) ;
#141 = CARTESIAN_POINT ( 'NONE',  ( 0.000000000000000000, 0.000000000000000000, 0.000000000000000000 ) ) ;
#142 = DIRECTION ( 'NONE',  ( -0.000000000000000000, -1.000000000000000000, -0.000000000000000000 ) ) ;
#143 = EDGE_LOOP ( 'NONE', ( #110, #97, #205, #12 ) ) ;
#144 = CARTESIAN_POINT ( 'NONE',  ( 0.000000000000000000, 2.625000000000000000, 0.000000000000000000 ) ) ;
#145 =( NAMED_UNIT ( * ) SI_UNIT ( $, .STERADIAN. ) SOLID_ANGLE_UNIT ( ) );
#146 = ORIENTED_EDGE ( 'NONE', *, *, #135, .F. ) ;
#147 = MANIFOLD_SOLID_BREP ( 'Revolve - Cutting Edge', #292 ) ;
#148 = FACE_OUTER_BOUND ( 'NONE', #143, .T. ) ;
#149 =( LENGTH_UNIT ( ) NAMED_UNIT ( * ) SI_UNIT ( $, .METRE. ) );
#150 = APPLICATION_CONTEXT ( 'automotive_design' ) ;
#151 =( CONVERSION_BASED_UNIT ( 'INCH', #184 ) LENGTH_UNIT ( ) NAMED_UNIT ( #294 ) );
#152 = DIRECTION ( 'NONE',  ( 2.578203787678635185E-17, -1.000000000000000000, 0.000000000000000000 ) ) ;
#153 = COLOUR_RGB ( '',1.000000000000000000, 0.000000000000000000, 0.000000000000000000 ) ;
#154 = AXIS2_PLACEMENT_3D ( 'NONE', #71, #221, #176 ) ;
#155 = DIRECTION ( 'NONE',  ( -2.578203787678635185E-17, 1.000000000000000000, -0.000000000000000000 ) ) ;
#156 = PLANE ( 'NONE',  #154 ) ;
#157 = LINE ( 'NONE', #203, #211 ) ;
#158 = EDGE_CURVE ( 'NONE', #301, #289, #21, .T. ) ;
#159 = PRESENTATION_LAYER_ASSIGNMENT (  '', '', ( #132 ) ) ;
#160 = CARTESIAN_POINT ( 'NONE',  ( 0.000000000000000000, 0.000000000000000000, 0.000000000000000000 ) ) ;
#161 = DIRECTION ( 'NONE',  ( -2.578203787678635493E-17, 1.000000000000000000, -0.000000000000000000 ) ) ;
#162 = EDGE_LOOP ( 'NONE', ( #146, #194 ) ) ;
#163 =( GEOMETRIC_REPRESENTATION_CONTEXT ( 3 ) GLOBAL_UNCERTAINTY_ASSIGNED_CONTEXT ( ( #22 ) ) GLOBAL_UNIT_ASSIGNED_CONTEXT ( ( #236, #197, #145 ) ) REPRESENTATION_CONTEXT ( 'NONE', 'WORKASPACE' ) );
#164 = ORIENTED_EDGE ( 'NONE', *, *, #158, .T. ) ;
#165 = EDGE_CURVE ( 'NONE', #109, #276, #92, .T. ) ;
#166 = STYLED_ITEM ( 'NONE', ( #8 ), #72 ) ;
#167 = COLOUR_RGB ( '',1.000000000000000000, 0.000000000000000000, 0.000000000000000000 ) ;
#168 = FILL_AREA_STYLE ('',( #93 ) ) ;
#169 =( NAMED_UNIT ( * ) SI_UNIT ( $, .STERADIAN. ) SOLID_ANGLE_UNIT ( ) );
#170 =( NAMED_UNIT ( * ) PLANE_ANGLE_UNIT ( ) SI_UNIT ( $, .RADIAN. ) );
#171 = DIRECTION ( 'NONE',  ( -2.578203787678635493E-17, 1.000000000000000000, -0.000000000000000000 ) ) ;
#172 = PRESENTATION_LAYER_ASSIGNMENT (  '', '', ( #112 ) ) ;
#173 = CYLINDRICAL_SURFACE ( 'NONE', #258, 0.5000000000000000000 ) ;
#174 = DIRECTION ( 'NONE',  ( 0.000000000000000000, -0.000000000000000000, 1.000000000000000000 ) ) ;
#175 = CARTESIAN_POINT ( 'NONE',  ( 6.123233995736766036E-17, 0.000000000000000000, 0.5000000000000000000 ) ) ;
#176 = DIRECTION ( 'NONE',  ( -1.000000000000000000, -2.578203787678635185E-17, 0.000000000000000000 ) ) ;
#177 = PRESENTATION_LAYER_ASSIGNMENT (  '', '', ( #40 ) ) ;
#178 = DIMENSIONAL_EXPONENTS ( 1.000000000000000000, 0.000000000000000000, 0.000000000000000000, 0.000000000000000000, 0.000000000000000000, 0.000000000000000000, 0.000000000000000000 ) ;
#179 = DIRECTION ( 'NONE',  ( -2.578203787678635493E-17, 1.000000000000000000, -0.000000000000000000 ) ) ;
#180 = CARTESIAN_POINT ( 'NONE',  ( 0.000000000000000000, 0.000000000000000000, 0.000000000000000000 ) ) ;
#181 = CARTESIAN_POINT ( 'NONE',  ( 0.000000000000000000, 2.625000000000000000, -0.5000000000000000000 ) ) ;
#182 = SURFACE_SIDE_STYLE ('',( #226 ) ) ;
#183 =( GEOMETRIC_REPRESENTATION_CONTEXT ( 3 ) GLOBAL_UNCERTAINTY_ASSIGNED_CONTEXT ( ( #308 ) ) GLOBAL_UNIT_ASSIGNED_CONTEXT ( ( #66, #285, #169 ) ) REPRESENTATION_CONTEXT ( 'NONE', 'WORKASPACE' ) );
#184 = LENGTH_MEASURE_WITH_UNIT ( LENGTH_MEASURE( 0.02539999999999999897 ), #300 );
#185 = ORIENTED_EDGE ( 'NONE', *, *, #210, .T. ) ;
#186 = DIRECTION ( 'NONE',  ( 1.000000000000000000, 0.000000000000000000, 0.000000000000000000 ) ) ;
#187 = CIRCLE ( 'NONE', #50, 0.5000000000000001110 ) ;
#188 = SURFACE_SIDE_STYLE ('',( #214 ) ) ;
#189 = CARTESIAN_POINT ( 'NONE',  ( 0.000000000000000000, 0.000000000000000000, 0.000000000000000000 ) ) ;
#190 = SURFACE_STYLE_FILL_AREA ( #291 ) ;
#191 = CARTESIAN_POINT ( 'NONE',  ( 6.123233995736766036E-17, 0.000000000000000000, 0.5000000000000000000 ) ) ;
#192 = MECHANICAL_DESIGN_GEOMETRIC_PRESENTATION_REPRESENTATION (  '', ( #232 ), #302 ) ;
#193 = AXIS2_PLACEMENT_3D ( 'NONE', #208, #115, #67 ) ;
#194 = ORIENTED_EDGE ( 'NONE', *, *, #241, .F. ) ;
#195 = EDGE_CURVE ( 'NONE', #207, #13, #138, .T. ) ;
#196 = FACE_OUTER_BOUND ( 'NONE', #36, .T. ) ;
#197 =( NAMED_UNIT ( * ) PLANE_ANGLE_UNIT ( ) SI_UNIT ( $, .RADIAN. ) );
#198 = ORIENTED_EDGE ( 'NONE', *, *, #158, .F. ) ;
#199 = EDGE_LOOP ( 'NONE', ( #198, #279, #83, #64 ) ) ;
#200 =( LENGTH_UNIT ( ) NAMED_UNIT ( * ) SI_UNIT ( $, .METRE. ) );
#201 = DIRECTION ( 'NONE',  ( 0.000000000000000000, -1.000000000000000000, -0.000000000000000000 ) ) ;
#202 = DIRECTION ( 'NONE',  ( 0.000000000000000000, 0.000000000000000000, -1.000000000000000000 ) ) ;
#203 = CARTESIAN_POINT ( 'NONE',  ( -0.5000000000000001110, 5.000000000000000000, 0.000000000000000000 ) ) ;
#204 = ADVANCED_FACE ( 'NONE', ( #119 ), #283, .T. ) ;
#205 = ORIENTED_EDGE ( 'NONE', *, *, #81, .T. ) ;
#206 = DIRECTION ( 'NONE',  ( 0.000000000000000000, 0.000000000000000000, -1.000000000000000000 ) ) ;
#207 = VERTEX_POINT ( 'NONE', #309 ) ;
#208 = CARTESIAN_POINT ( 'NONE',  ( 0.000000000000000000, 2.625000000000000000, 0.000000000000000000 ) ) ;
#209 = UNCERTAINTY_MEASURE_WITH_UNIT (LENGTH_MEASURE( 1.000000000000000082E-05 ), #225, 'distance_accuracy_value', 'NONE');
#210 = EDGE_CURVE ( 'NONE', #289, #213, #286, .T. ) ;
#211 = VECTOR ( 'NONE', #269, 39.37007874015748143 ) ;
#212 = MECHANICAL_DESIGN_GEOMETRIC_PRESENTATION_REPRESENTATION (  '', ( #132 ), #183 ) ;
#213 = VERTEX_POINT ( 'NONE', #85 ) ;
#214 = SURFACE_STYLE_FILL_AREA ( #307 ) ;
#215 = PRESENTATION_STYLE_ASSIGNMENT (( #44 ) ) ;
#216 = SURFACE_STYLE_FILL_AREA ( #130 ) ;
#217 = SURFACE_SIDE_STYLE ('',( #222 ) ) ;
#218 =( GEOMETRIC_REPRESENTATION_CONTEXT ( 3 ) GLOBAL_UNCERTAINTY_ASSIGNED_CONTEXT ( ( #38 ) ) GLOBAL_UNIT_ASSIGNED_CONTEXT ( ( #100, #229, #78 ) ) REPRESENTATION_CONTEXT ( 'NONE', 'WORKASPACE' ) );
#219 = PRESENTATION_LAYER_ASSIGNMENT (  '', '', ( #10 ) ) ;
#220 = CARTESIAN_POINT ( 'NONE',  ( 0.5000000000000000000, 5.000000000000000000, 0.000000000000000000 ) ) ;
#221 = DIRECTION ( 'NONE',  ( -2.578203787678635185E-17, 1.000000000000000000, 0.000000000000000000 ) ) ;
#222 = SURFACE_STYLE_FILL_AREA ( #124 ) ;
#223 =( NAMED_UNIT ( * ) SI_UNIT ( $, .STERADIAN. ) SOLID_ANGLE_UNIT ( ) );
#224 =( LENGTH_UNIT ( ) NAMED_UNIT ( * ) SI_UNIT ( $, .METRE. ) );
#225 =( CONVERSION_BASED_UNIT ( 'INCH', #2 ) LENGTH_UNIT ( ) NAMED_UNIT ( #79 ) );
#226 = SURFACE_STYLE_FILL_AREA ( #274 ) ;
#227 = PRODUCT_DEFINITION_FORMATION_WITH_SPECIFIED_SOURCE ( 'ANY', '', #122, .NOT_KNOWN. ) ;
#228 = SURFACE_STYLE_USAGE ( .BOTH. , #182 ) ;
#229 =( NAMED_UNIT ( * ) PLANE_ANGLE_UNIT ( ) SI_UNIT ( $, .RADIAN. ) );
#230 = ORIENTED_EDGE ( 'NONE', *, *, #195, .T. ) ;
#231 = ORIENTED_EDGE ( 'NONE', *, *, #135, .T. ) ;
#232 = STYLED_ITEM ( 'NONE', ( #120 ), #32 ) ;
#233 = ORIENTED_EDGE ( 'NONE', *, *, #104, .T. ) ;
#234 = AXIS2_PLACEMENT_3D ( 'NONE', #19, #257, #261 ) ;
#235 = SURFACE_STYLE_USAGE ( .BOTH. , #188 ) ;
#236 =( CONVERSION_BASED_UNIT ( 'INCH', #70 ) LENGTH_UNIT ( ) NAMED_UNIT ( #105 ) );
#237 = FILL_AREA_STYLE_COLOUR ( '', #14 ) ;
#238 = EDGE_CURVE ( 'NONE', #276, #109, #111, .T. ) ;
#239 = DIRECTION ( 'NONE',  ( 0.000000000000000000, 1.000000000000000000, 0.000000000000000000 ) ) ;
#240 = ORIENTED_EDGE ( 'NONE', *, *, #81, .F. ) ;
#241 = EDGE_CURVE ( 'NONE', #301, #52, #56, .T. ) ;
#242 = PRESENTATION_STYLE_ASSIGNMENT (( #73 ) ) ;
#243 = VECTOR ( 'NONE', #125, 39.37007874015748143 ) ;
#244 = DIRECTION ( 'NONE',  ( 1.000000000000000000, 2.578203787678635185E-17, 0.000000000000000000 ) ) ;
#245 = SURFACE_STYLE_USAGE ( .BOTH. , #217 ) ;
#246 = FACE_OUTER_BOUND ( 'NONE', #63, .T. ) ;
#247 = CARTESIAN_POINT ( 'NONE',  ( 0.000000000000000000, 0.000000000000000000, -0.5000000000000000000 ) ) ;
#248 = MECHANICAL_DESIGN_GEOMETRIC_PRESENTATION_REPRESENTATION (  '', ( #40 ), #163 ) ;
#249 = DIRECTION ( 'NONE',  ( 0.000000000000000000, 0.000000000000000000, -1.000000000000000000 ) ) ;
#250 = DIRECTION ( 'NONE',  ( 0.000000000000000000, 0.000000000000000000, -1.000000000000000000 ) ) ;
#251 = PRODUCT_CONTEXT ( 'NONE', #89, 'mechanical' ) ;
#252 = FACE_OUTER_BOUND ( 'NONE', #75, .T. ) ;
#253 = AXIS2_PLACEMENT_3D ( 'NONE', #108, #139, #82 ) ;
#254 = ORIENTED_EDGE ( 'NONE', *, *, #121, .T. ) ;
#255 = AXIS2_PLACEMENT_3D ( 'NONE', #144, #239, #174 ) ;
#256 =( LENGTH_UNIT ( ) NAMED_UNIT ( * ) SI_UNIT ( $, .METRE. ) );
#257 = DIRECTION ( 'NONE',  ( -2.578203787678635493E-17, 1.000000000000000000, -0.000000000000000000 ) ) ;
#258 = AXIS2_PLACEMENT_3D ( 'NONE', #160, #33, #206 ) ;
#259 = ORIENTED_EDGE ( 'NONE', *, *, #238, .T. ) ;
#260 = SURFACE_STYLE_USAGE ( .BOTH. , #69 ) ;
#261 = DIRECTION ( 'NONE',  ( -1.000000000000000000, 0.000000000000000000, 0.000000000000000000 ) ) ;
#262 = EDGE_LOOP ( 'NONE', ( #230, #233 ) ) ;
#263 =( NAMED_UNIT ( * ) PLANE_ANGLE_UNIT ( ) SI_UNIT ( $, .RADIAN. ) );
#264 = DIRECTION ( 'NONE',  ( -1.000000000000000000, 0.000000000000000000, 0.000000000000000000 ) ) ;
#265 = ORIENTED_EDGE ( 'NONE', *, *, #90, .F. ) ;
#266 =( NAMED_UNIT ( * ) SI_UNIT ( $, .STERADIAN. ) SOLID_ANGLE_UNIT ( ) );
#267 = COLOUR_RGB ( '',0.7921568627450980005, 0.8196078431372548767, 0.9333333333333333481 ) ;
#268 = DIMENSIONAL_EXPONENTS ( 1.000000000000000000, 0.000000000000000000, 0.000000000000000000, 0.000000000000000000, 0.000000000000000000, 0.000000000000000000, 0.000000000000000000 ) ;
#269 = DIRECTION ( 'NONE',  ( -2.578203787678635185E-17, 1.000000000000000000, -0.000000000000000000 ) ) ;
#270 = FACE_OUTER_BOUND ( 'NONE', #42, .T. ) ;
#271 = DIMENSIONAL_EXPONENTS ( 1.000000000000000000, 0.000000000000000000, 0.000000000000000000, 0.000000000000000000, 0.000000000000000000, 0.000000000000000000, 0.000000000000000000 ) ;
#272 = APPLICATION_PROTOCOL_DEFINITION ( 'draft international standard', 'automotive_design', 1998, #150 ) ;
#273 = AXIS2_PLACEMENT_3D ( 'NONE', #298, #295, #202 ) ;
#274 = FILL_AREA_STYLE ('',( #134 ) ) ;
#275 = CARTESIAN_POINT ( 'NONE',  ( -0.5000000000000000000, 2.625000000000000000, 0.000000000000000000 ) ) ;
#276 = VERTEX_POINT ( 'NONE', #275 ) ;
#277 = DIRECTION ( 'NONE',  ( -0.000000000000000000, -1.000000000000000000, -0.000000000000000000 ) ) ;
#278 =( GEOMETRIC_REPRESENTATION_CONTEXT ( 3 ) GLOBAL_UNCERTAINTY_ASSIGNED_CONTEXT ( ( #304 ) ) GLOBAL_UNIT_ASSIGNED_CONTEXT ( ( #151, #58, #59 ) ) REPRESENTATION_CONTEXT ( 'NONE', 'WORKASPACE' ) );
#279 = ORIENTED_EDGE ( 'NONE', *, *, #241, .T. ) ;
#280 = ORIENTED_EDGE ( 'NONE', *, *, #43, .F. ) ;
#281 = AXIS2_PLACEMENT_3D ( 'NONE', #220, #152, #244 ) ;
#282 = VECTOR ( 'NONE', #155, 39.37007874015748143 ) ;
#283 = CYLINDRICAL_SURFACE ( 'NONE', #102, 0.5000000000000000000 ) ;
#284 = PRODUCT_DEFINITION ( 'UNKNOWN', '', #227, #116 ) ;
#285 =( NAMED_UNIT ( * ) PLANE_ANGLE_UNIT ( ) SI_UNIT ( $, .RADIAN. ) );
#286 = CIRCLE ( 'NONE', #76, 0.5000000000000000000 ) ;
#287 = SURFACE_SIDE_STYLE ('',( #91 ) ) ;
#288 = LENGTH_MEASURE_WITH_UNIT ( LENGTH_MEASURE( 0.02539999999999999897 ), #200 );
#289 = VERTEX_POINT ( 'NONE', #175 ) ;
#290 = FILL_AREA_STYLE_COLOUR ( '', #127 ) ;
#291 = FILL_AREA_STYLE ('',( #290 ) ) ;
#292 = CLOSED_SHELL ( 'NONE', ( #133, #94, #204, #72 ) ) ;
#293 = AXIS2_PLACEMENT_3D ( 'NONE', #9, #277, #249 ) ;
#294 = DIMENSIONAL_EXPONENTS ( 1.000000000000000000, 0.000000000000000000, 0.000000000000000000, 0.000000000000000000, 0.000000000000000000, 0.000000000000000000, 0.000000000000000000 ) ;
#295 = DIRECTION ( 'NONE',  ( -0.000000000000000000, -1.000000000000000000, -0.000000000000000000 ) ) ;
#296 = DIRECTION ( 'NONE',  ( -0.000000000000000000, -1.000000000000000000, -0.000000000000000000 ) ) ;
#297 = DIMENSIONAL_EXPONENTS ( 1.000000000000000000, 0.000000000000000000, 0.000000000000000000, 0.000000000000000000, 0.000000000000000000, 0.000000000000000000, 0.000000000000000000 ) ;
#298 = CARTESIAN_POINT ( 'NONE',  ( 0.000000000000000000, 0.000000000000000000, 0.000000000000000000 ) ) ;
#299 = DIRECTION ( 'NONE',  ( 0.000000000000000000, 0.000000000000000000, -1.000000000000000000 ) ) ;
#300 =( LENGTH_UNIT ( ) NAMED_UNIT ( * ) SI_UNIT ( $, .METRE. ) );
#301 = VERTEX_POINT ( 'NONE', #80 ) ;
#302 =( GEOMETRIC_REPRESENTATION_CONTEXT ( 3 ) GLOBAL_UNCERTAINTY_ASSIGNED_CONTEXT ( ( #65 ) ) GLOBAL_UNIT_ASSIGNED_CONTEXT ( ( #48, #170, #1 ) ) REPRESENTATION_CONTEXT ( 'NONE', 'WORKASPACE' ) );
#303 = AXIS2_PLACEMENT_3D ( 'NONE', #4, #179, #6 ) ;
#304 = UNCERTAINTY_MEASURE_WITH_UNIT (LENGTH_MEASURE( 1.000000000000000082E-05 ), #151, 'distance_accuracy_value', 'NONE');
#305 = ADVANCED_FACE ( 'NONE', ( #252 ), #99, .T. ) ;
#306 =( LENGTH_UNIT ( ) NAMED_UNIT ( * ) SI_UNIT ( $, .METRE. ) );
#307 = FILL_AREA_STYLE ('',( #114 ) ) ;
#308 = UNCERTAINTY_MEASURE_WITH_UNIT (LENGTH_MEASURE( 1.000000000000000082E-05 ), #66, 'distance_accuracy_value', 'NONE');
#309 = CARTESIAN_POINT ( 'NONE',  ( -0.5000000000000001110, 5.000000000000000000, 0.000000000000000000 ) ) ;
ENDSEC;
END-ISO-10303-21;
