ISO-10303-21;
HEADER;
FILE_DESCRIPTION (( 'STEP AP214' ),
    '1' );
FILE_NAME ('59544.STEP',
    '2023-07-24T15:10:06',
    ( '' ),
    ( '' ),
    'SwSTEP 2.0',
    'SolidWorks 2023',
    '' );
FILE_SCHEMA (( 'AUTOMOTIVE_DESIGN' ));
ENDSEC;

DATA;
#1 = AXIS2_PLACEMENT_3D ( 'NONE', #190, #355, #224 ) ;
#2 = ORIENTED_EDGE ( 'NONE', *, *, #335, .T. ) ;
#3 = VECTOR ( 'NONE', #302, 1000.000000000000000 ) ;
#4 = DIRECTION ( 'NONE',  ( 0.000000000000000000, 0.000000000000000000, -1.000000000000000000 ) ) ;
#5 = FILL_AREA_STYLE ('',( #64 ) ) ;
#6 = FACE_OUTER_BOUND ( 'NONE', #87, .T. ) ;
#7 = ORIENTED_EDGE ( 'NONE', *, *, #204, .T. ) ;
#8 = SURFACE_STYLE_USAGE ( .BOTH. , #103 ) ;
#9 = CARTESIAN_POINT ( 'NONE',  ( 0.000000000000000000, 24.00000000000000000, 0.000000000000000000 ) ) ;
#10 = AXIS2_PLACEMENT_3D ( 'NONE', #89, #21, #229 ) ;
#11 = FILL_AREA_STYLE ('',( #67 ) ) ;
#12 = PRODUCT_CONTEXT ( 'NONE', #189, 'mechanical' ) ;
#13 = AXIS2_PLACEMENT_3D ( 'NONE', #35, #66, #235 ) ;
#14 = PRODUCT_DEFINITION ( 'UNKNOWN', '', #282, #121 ) ;
#15 = COLOUR_RGB ( '',1.000000000000000000, 0.000000000000000000, 0.000000000000000000 ) ;
#16 = SURFACE_STYLE_FILL_AREA ( #74 ) ;
#17 =( GEOMETRIC_REPRESENTATION_CONTEXT ( 3 ) GLOBAL_UNCERTAINTY_ASSIGNED_CONTEXT ( ( #265 ) ) GLOBAL_UNIT_ASSIGNED_CONTEXT ( ( #179, #169, #88 ) ) REPRESENTATION_CONTEXT ( 'NONE', 'WORKASPACE' ) );
#18 = DIRECTION ( 'NONE',  ( -1.223542297630008506E-16, 1.000000000000000000, -0.000000000000000000 ) ) ;
#19 = ADVANCED_FACE ( 'NONE', ( #293 ), #319, .T. ) ;
#20 = MECHANICAL_DESIGN_GEOMETRIC_PRESENTATION_REPRESENTATION (  '', ( #287 ), #82 ) ;
#21 = DIRECTION ( 'NONE',  ( 1.000000000000000000, 0.000000000000000000, -1.224646799147353207E-16 ) ) ;
#22 = MANIFOLD_SOLID_BREP ( 'Revolve - Cutting Edge', #25 ) ;
#23 = PRODUCT_DEFINITION_SHAPE ( 'NONE', 'NONE',  #14 ) ;
#24 = ADVANCED_FACE ( 'NONE', ( #134 ), #341, .F. ) ;
#25 = CLOSED_SHELL ( 'NONE', ( #188, #81, #113, #214, #147, #365 ) ) ;
#26 = CIRCLE ( 'NONE', #225, 6.000000000000000000 ) ;
#27 = VERTEX_POINT ( 'NONE', #360 ) ;
#28 = EDGE_CURVE ( 'NONE', #238, #177, #200, .T. ) ;
#29 = EDGE_LOOP ( 'NONE', ( #345, #231 ) ) ;
#30 = SURFACE_SIDE_STYLE ('',( #246 ) ) ;
#31 =( NAMED_UNIT ( * ) PLANE_ANGLE_UNIT ( ) SI_UNIT ( $, .RADIAN. ) );
#32 = CIRCLE ( 'NONE', #250, 5.999999999999996447 ) ;
#33 = SURFACE_STYLE_FILL_AREA ( #5 ) ;
#34 = PRESENTATION_LAYER_ASSIGNMENT (  '', '', ( #324 ) ) ;
#35 = CARTESIAN_POINT ( 'NONE',  ( -1.469576158976823750E-15, 75.00000000000000000, 0.000000000000000000 ) ) ;
#36 = CARTESIAN_POINT ( 'NONE',  ( 5.999999999999996447, 75.00000000000000000, 7.347880794884117764E-16 ) ) ;
#37 = ORIENTED_EDGE ( 'NONE', *, *, #335, .F. ) ;
#38 = SURFACE_STYLE_USAGE ( .BOTH. , #41 ) ;
#39 = ORIENTED_EDGE ( 'NONE', *, *, #129, .F. ) ;
#40 = DIRECTION ( 'NONE',  ( -1.223542297630008506E-16, 1.000000000000000000, -0.000000000000000000 ) ) ;
#41 = SURFACE_SIDE_STYLE ('',( #153 ) ) ;
#42 = CARTESIAN_POINT ( 'NONE',  ( 4.770489558936219510E-15, 24.00000000000000000, 0.000000000000000000 ) ) ;
#43 = TOROIDAL_SURFACE ( 'NONE', #95, 5.500000000000000000, 0.5000000000000002220 ) ;
#44 = FACE_OUTER_BOUND ( 'NONE', #152, .T. ) ;
#45 = ADVANCED_FACE ( 'NONE', ( #332 ), #98, .T. ) ;
#46 = UNCERTAINTY_MEASURE_WITH_UNIT (LENGTH_MEASURE( 1.000000000000000082E-05 ), #353, 'distance_accuracy_value', 'NONE');
#47 = AXIS2_PLACEMENT_3D ( 'NONE', #124, #268, #145 ) ;
#48 = DIRECTION ( 'NONE',  ( -0.000000000000000000, -1.000000000000000000, -0.000000000000000000 ) ) ;
#49 = SURFACE_STYLE_USAGE ( .BOTH. , #183 ) ;
#50 = CARTESIAN_POINT ( 'NONE',  ( 0.000000000000000000, 0.000000000000000000, 0.000000000000000000 ) ) ;
#51 = DIRECTION ( 'NONE',  ( -1.000000000000000000, 0.000000000000000000, 0.000000000000000000 ) ) ;
#52 = STYLED_ITEM ( 'NONE', ( #328 ), #81 ) ;
#53 =( GEOMETRIC_REPRESENTATION_CONTEXT ( 3 ) GLOBAL_UNCERTAINTY_ASSIGNED_CONTEXT ( ( #186 ) ) GLOBAL_UNIT_ASSIGNED_CONTEXT ( ( #138, #219, #105 ) ) REPRESENTATION_CONTEXT ( 'NONE', 'WORKASPACE' ) );
#54 = PRESENTATION_STYLE_ASSIGNMENT (( #49 ) ) ;
#55 = DIRECTION ( 'NONE',  ( 1.000000000000000000, 0.000000000000000000, 0.000000000000000000 ) ) ;
#56 = SURFACE_SIDE_STYLE ('',( #284 ) ) ;
#57 = AXIS2_PLACEMENT_3D ( 'NONE', #326, #249, #127 ) ;
#58 = CIRCLE ( 'NONE', #262, 6.000000000000000000 ) ;
#59 = PRESENTATION_LAYER_ASSIGNMENT (  '', '', ( #197 ) ) ;
#60 = ORIENTED_EDGE ( 'NONE', *, *, #196, .F. ) ;
#61 = DIRECTION ( 'NONE',  ( -1.000000000000000000, 0.000000000000000000, 0.000000000000000000 ) ) ;
#62 = DIRECTION ( 'NONE',  ( -1.223542297630008506E-16, 1.000000000000000000, -0.000000000000000000 ) ) ;
#63 = PLANE ( 'NONE',  #151 ) ;
#64 = FILL_AREA_STYLE_COLOUR ( '', #109 ) ;
#65 = ORIENTED_EDGE ( 'NONE', *, *, #275, .F. ) ;
#66 = DIRECTION ( 'NONE',  ( -1.223542297630008506E-16, 1.000000000000000000, -0.000000000000000000 ) ) ;
#67 = FILL_AREA_STYLE_COLOUR ( '', #367 ) ;
#68 = VERTEX_POINT ( 'NONE', #72 ) ;
#69 = AXIS2_PLACEMENT_3D ( 'NONE', #272, #292, #208 ) ;
#70 = EDGE_LOOP ( 'NONE', ( #120, #144 ) ) ;
#71 = CARTESIAN_POINT ( 'NONE',  ( 7.347880794884119736E-16, 0.5000000000000000000, 6.000000000000000000 ) ) ;
#72 = CARTESIAN_POINT ( 'NONE',  ( 7.041719095097280880E-16, 0.000000000000000000, 5.500000000000000000 ) ) ;
#73 = DIRECTION ( 'NONE',  ( 0.000000000000000000, 0.000000000000000000, -1.000000000000000000 ) ) ;
#74 = FILL_AREA_STYLE ('',( #161 ) ) ;
#75 = VECTOR ( 'NONE', #40, 1000.000000000000000 ) ;
#76 = LINE ( 'NONE', #159, #237 ) ;
#77 = DIRECTION ( 'NONE',  ( 0.000000000000000000, 0.000000000000000000, 1.000000000000000000 ) ) ;
#78 = SURFACE_STYLE_FILL_AREA ( #107 ) ;
#79 = DIRECTION ( 'NONE',  ( 0.000000000000000000, 0.000000000000000000, 1.000000000000000000 ) ) ;
#80 = CIRCLE ( 'NONE', #86, 5.999999999999996447 ) ;
#81 = ADVANCED_FACE ( 'NONE', ( #359 ), #117, .T. ) ;
#82 =( GEOMETRIC_REPRESENTATION_CONTEXT ( 3 ) GLOBAL_UNCERTAINTY_ASSIGNED_CONTEXT ( ( #357 ) ) GLOBAL_UNIT_ASSIGNED_CONTEXT ( ( #100, #269, #274 ) ) REPRESENTATION_CONTEXT ( 'NONE', 'WORKASPACE' ) );
#83 = EDGE_LOOP ( 'NONE', ( #148, #114 ) ) ;
#84 = FACE_OUTER_BOUND ( 'NONE', #173, .T. ) ;
#85 = ORIENTED_EDGE ( 'NONE', *, *, #264, .F. ) ;
#86 = AXIS2_PLACEMENT_3D ( 'NONE', #281, #18, #61 ) ;
#87 = EDGE_LOOP ( 'NONE', ( #39, #115, #94, #60 ) ) ;
#88 =( NAMED_UNIT ( * ) SI_UNIT ( $, .STERADIAN. ) SOLID_ANGLE_UNIT ( ) );
#89 = CARTESIAN_POINT ( 'NONE',  ( 6.735557395310442023E-16, 0.5000000000000000000, 5.500000000000000000 ) ) ;
#90 = VERTEX_POINT ( 'NONE', #130 ) ;
#91 = EDGE_CURVE ( 'NONE', #255, #240, #32, .T. ) ;
#92 = DIRECTION ( 'NONE',  ( 0.000000000000000000, 0.000000000000000000, -1.000000000000000000 ) ) ;
#93 = SURFACE_SIDE_STYLE ('',( #349 ) ) ;
#94 = ORIENTED_EDGE ( 'NONE', *, *, #28, .T. ) ;
#95 = AXIS2_PLACEMENT_3D ( 'NONE', #327, #150, #73 ) ;
#96 = DIRECTION ( 'NONE',  ( -0.000000000000000000, -1.000000000000000000, -0.000000000000000000 ) ) ;
#97 = SURFACE_STYLE_USAGE ( .BOTH. , #93 ) ;
#98 = CYLINDRICAL_SURFACE ( 'NONE', #57, 5.999999999999998224 ) ;
#99 =( NAMED_UNIT ( * ) SI_UNIT ( $, .STERADIAN. ) SOLID_ANGLE_UNIT ( ) );
#100 =( LENGTH_UNIT ( ) NAMED_UNIT ( * ) SI_UNIT ( .MILLI., .METRE. ) );
#101 = UNCERTAINTY_MEASURE_WITH_UNIT (LENGTH_MEASURE( 1.000000000000000082E-05 ), #211, 'distance_accuracy_value', 'NONE');
#102 = CARTESIAN_POINT ( 'NONE',  ( 0.000000000000000000, 0.000000000000000000, 0.000000000000000000 ) ) ;
#103 = SURFACE_SIDE_STYLE ('',( #78 ) ) ;
#104 = CIRCLE ( 'NONE', #251, 6.000000000000000000 ) ;
#105 =( NAMED_UNIT ( * ) SI_UNIT ( $, .STERADIAN. ) SOLID_ANGLE_UNIT ( ) );
#106 = MECHANICAL_DESIGN_GEOMETRIC_PRESENTATION_REPRESENTATION (  '', ( #197 ), #340 ) ;
#107 = FILL_AREA_STYLE ('',( #303 ) ) ;
#108 = DIRECTION ( 'NONE',  ( 1.000000000000000000, 1.223542297630008506E-16, 0.000000000000000000 ) ) ;
#109 = COLOUR_RGB ( '',0.7921568627450980005, 0.8196078431372548767, 0.9333333333333333481 ) ;
#110 = SURFACE_SIDE_STYLE ('',( #362 ) ) ;
#111 = FILL_AREA_STYLE ('',( #364 ) ) ;
#112 = CIRCLE ( 'NONE', #10, 0.5000000000000004441 ) ;
#113 = ADVANCED_FACE ( 'NONE', ( #247 ), #276, .T. ) ;
#114 = ORIENTED_EDGE ( 'NONE', *, *, #91, .F. ) ;
#115 = ORIENTED_EDGE ( 'NONE', *, *, #233, .T. ) ;
#116 = CARTESIAN_POINT ( 'NONE',  ( 7.347880794884119736E-16, 24.00000000000000000, 6.000000000000000000 ) ) ;
#117 = TOROIDAL_SURFACE ( 'NONE', #1, 5.500000000000000000, 0.5000000000000002220 ) ;
#118 = DIRECTION ( 'NONE',  ( -1.000000000000000000, 0.000000000000000000, 0.000000000000000000 ) ) ;
#119 = SURFACE_STYLE_USAGE ( .BOTH. , #30 ) ;
#120 = ORIENTED_EDGE ( 'NONE', *, *, #305, .F. ) ;
#121 = PRODUCT_DEFINITION_CONTEXT ( 'detailed design', #193, 'design' ) ;
#122 = PLANE ( 'NONE',  #47 ) ;
#123 = EDGE_LOOP ( 'NONE', ( #338, #206, #85, #314 ) ) ;
#124 = CARTESIAN_POINT ( 'NONE',  ( 0.000000000000000000, 24.00000000000000000, 0.000000000000000000 ) ) ;
#125 = MECHANICAL_DESIGN_GEOMETRIC_PRESENTATION_REPRESENTATION (  '', ( #165 ), #337 ) ;
#126 =( GEOMETRIC_REPRESENTATION_CONTEXT ( 3 ) GLOBAL_UNCERTAINTY_ASSIGNED_CONTEXT ( ( #133 ) ) GLOBAL_UNIT_ASSIGNED_CONTEXT ( ( #143, #146, #141 ) ) REPRESENTATION_CONTEXT ( 'NONE', 'WORKASPACE' ) );
#127 = DIRECTION ( 'NONE',  ( -1.000000000000000000, 0.000000000000000000, 0.000000000000000000 ) ) ;
#128 = CARTESIAN_POINT ( 'NONE',  ( 0.000000000000000000, 0.5000000000000000000, 0.000000000000000000 ) ) ;
#129 = EDGE_CURVE ( 'NONE', #234, #68, #112, .T. ) ;
#130 = CARTESIAN_POINT ( 'NONE',  ( -6.000000000000003553, 75.00000000000000000, 0.000000000000000000 ) ) ;
#131 =( LENGTH_UNIT ( ) NAMED_UNIT ( * ) SI_UNIT ( .MILLI., .METRE. ) );
#132 = DIRECTION ( 'NONE',  ( -1.000000000000000000, -1.223542297630008506E-16, 0.000000000000000000 ) ) ;
#133 = UNCERTAINTY_MEASURE_WITH_UNIT (LENGTH_MEASURE( 1.000000000000000082E-05 ), #143, 'distance_accuracy_value', 'NONE');
#134 = FACE_OUTER_BOUND ( 'NONE', #83, .T. ) ;
#135 = STYLED_ITEM ( 'NONE', ( #54 ), #113 ) ;
#136 = AXIS2_PLACEMENT_3D ( 'NONE', #102, #221, #322 ) ;
#137 = EDGE_CURVE ( 'NONE', #240, #255, #80, .T. ) ;
#138 =( LENGTH_UNIT ( ) NAMED_UNIT ( * ) SI_UNIT ( .MILLI., .METRE. ) );
#139 = APPLICATION_PROTOCOL_DEFINITION ( 'draft international standard', 'automotive_design', 1998, #189 ) ;
#140 = SURFACE_STYLE_USAGE ( .BOTH. , #56 ) ;
#141 =( NAMED_UNIT ( * ) SI_UNIT ( $, .STERADIAN. ) SOLID_ANGLE_UNIT ( ) );
#142 = EDGE_LOOP ( 'NONE', ( #286, #289, #320, #368 ) ) ;
#143 =( LENGTH_UNIT ( ) NAMED_UNIT ( * ) SI_UNIT ( .MILLI., .METRE. ) );
#144 = ORIENTED_EDGE ( 'NONE', *, *, #256, .F. ) ;
#145 = DIRECTION ( 'NONE',  ( 0.000000000000000000, -0.000000000000000000, 1.000000000000000000 ) ) ;
#146 =( NAMED_UNIT ( * ) PLANE_ANGLE_UNIT ( ) SI_UNIT ( $, .RADIAN. ) );
#147 = ADVANCED_FACE ( 'NONE', ( #84 ), #342, .T. ) ;
#148 = ORIENTED_EDGE ( 'NONE', *, *, #137, .F. ) ;
#149 = LINE ( 'NONE', #346, #75 ) ;
#150 = DIRECTION ( 'NONE',  ( -0.000000000000000000, -1.000000000000000000, -0.000000000000000000 ) ) ;
#151 = AXIS2_PLACEMENT_3D ( 'NONE', #170, #288, #108 ) ;
#152 = EDGE_LOOP ( 'NONE', ( #257, #202, #65, #37 ) ) ;
#153 = SURFACE_STYLE_FILL_AREA ( #248 ) ;
#154 = PRESENTATION_STYLE_ASSIGNMENT (( #38 ) ) ;
#155 = EDGE_LOOP ( 'NONE', ( #339, #267 ) ) ;
#156 = CARTESIAN_POINT ( 'NONE',  ( 6.000000000000000000, 24.00000000000000000, 7.347880794884120722E-16 ) ) ;
#157 = AXIS2_PLACEMENT_3D ( 'NONE', #356, #278, #132 ) ;
#158 = FILL_AREA_STYLE_COLOUR ( '', #279 ) ;
#159 = CARTESIAN_POINT ( 'NONE',  ( 7.347880794884119736E-16, 0.000000000000000000, 6.000000000000000000 ) ) ;
#160 = SHAPE_DEFINITION_REPRESENTATION ( #23, #259 ) ;
#161 = FILL_AREA_STYLE_COLOUR ( '', #295 ) ;
#162 =( GEOMETRIC_REPRESENTATION_CONTEXT ( 3 ) GLOBAL_UNCERTAINTY_ASSIGNED_CONTEXT ( ( #226 ) ) GLOBAL_UNIT_ASSIGNED_CONTEXT ( ( #131, #31, #299 ) ) REPRESENTATION_CONTEXT ( 'NONE', 'WORKASPACE' ) );
#163 = CARTESIAN_POINT ( 'NONE',  ( 0.000000000000000000, 0.000000000000000000, -5.500000000000000000 ) ) ;
#164 = ADVANCED_FACE ( 'NONE', ( #318 ), #63, .F. ) ;
#165 = STYLED_ITEM ( 'NONE', ( #347 ), #22 ) ;
#166 = AXIS2_PLACEMENT_3D ( 'NONE', #218, #184, #307 ) ;
#167 = EDGE_LOOP ( 'NONE', ( #215, #7, #369, #181 ) ) ;
#168 = STYLED_ITEM ( 'NONE', ( #336 ), #178 ) ;
#169 =( NAMED_UNIT ( * ) PLANE_ANGLE_UNIT ( ) SI_UNIT ( $, .RADIAN. ) );
#170 = CARTESIAN_POINT ( 'NONE',  ( 6.000000000000000000, 75.00000000000000000, 0.000000000000000000 ) ) ;
#171 = CIRCLE ( 'NONE', #13, 6.000000000000001776 ) ;
#172 =( LENGTH_UNIT ( ) NAMED_UNIT ( * ) SI_UNIT ( .MILLI., .METRE. ) );
#173 = EDGE_LOOP ( 'NONE', ( #209, #270, #2, #343 ) ) ;
#174 = CARTESIAN_POINT ( 'NONE',  ( 0.000000000000000000, 0.5000000000000000000, -6.000000000000000000 ) ) ;
#175 = PRESENTATION_LAYER_ASSIGNMENT (  '', '', ( #135 ) ) ;
#176 = CIRCLE ( 'NONE', #69, 5.500000000000000000 ) ;
#177 = VERTEX_POINT ( 'NONE', #163 ) ;
#178 = MANIFOLD_SOLID_BREP ( 'Revolve - Tool Body (Straight Shanked)', #304 ) ;
#179 =( LENGTH_UNIT ( ) NAMED_UNIT ( * ) SI_UNIT ( .MILLI., .METRE. ) );
#180 =( NAMED_UNIT ( * ) PLANE_ANGLE_UNIT ( ) SI_UNIT ( $, .RADIAN. ) );
#181 = ORIENTED_EDGE ( 'NONE', *, *, #333, .F. ) ;
#182 = DIRECTION ( 'NONE',  ( 0.000000000000000000, 0.000000000000000000, -1.000000000000000000 ) ) ;
#183 = SURFACE_SIDE_STYLE ('',( #16 ) ) ;
#184 = DIRECTION ( 'NONE',  ( -1.223542297630008506E-16, 1.000000000000000000, -0.000000000000000000 ) ) ;
#185 = PRESENTATION_LAYER_ASSIGNMENT (  '', '', ( #168 ) ) ;
#186 = UNCERTAINTY_MEASURE_WITH_UNIT (LENGTH_MEASURE( 1.000000000000000082E-05 ), #138, 'distance_accuracy_value', 'NONE');
#187 = DIRECTION ( 'NONE',  ( -0.000000000000000000, -1.000000000000000000, -0.000000000000000000 ) ) ;
#188 = ADVANCED_FACE ( 'NONE', ( #44 ), #283, .T. ) ;
#189 = APPLICATION_CONTEXT ( 'automotive_design' ) ;
#190 = CARTESIAN_POINT ( 'NONE',  ( 0.000000000000000000, 0.5000000000000000000, 0.000000000000000000 ) ) ;
#191 = AXIS2_PLACEMENT_3D ( 'NONE', #128, #350, #239 ) ;
#192 = COLOUR_RGB ( '',0.7921568627450980005, 0.8196078431372548767, 0.9333333333333333481 ) ;
#193 = APPLICATION_CONTEXT ( 'automotive_design' ) ;
#194 = PRODUCT ( '59544', '59544', '', ( #12 ) ) ;
#195 = STYLED_ITEM ( 'NONE', ( #312 ), #147 ) ;
#196 = EDGE_CURVE ( 'NONE', #68, #177, #176, .T. ) ;
#197 = STYLED_ITEM ( 'NONE', ( #216 ), #365 ) ;
#198 = CARTESIAN_POINT ( 'NONE',  ( -1.469576158976823750E-15, 75.00000000000000000, 0.000000000000000000 ) ) ;
#199 = VECTOR ( 'NONE', #96, 1000.000000000000000 ) ;
#200 = CIRCLE ( 'NONE', #212, 0.5000000000000004441 ) ;
#201 = DIRECTION ( 'NONE',  ( -0.000000000000000000, -1.000000000000000000, -0.000000000000000000 ) ) ;
#202 = ORIENTED_EDGE ( 'NONE', *, *, #228, .T. ) ;
#203 = UNCERTAINTY_MEASURE_WITH_UNIT (LENGTH_MEASURE( 1.000000000000000082E-05 ), #354, 'distance_accuracy_value', 'NONE');
#204 = EDGE_CURVE ( 'NONE', #255, #300, #266, .T. ) ;
#205 = FILL_AREA_STYLE_COLOUR ( '', #213 ) ;
#206 = ORIENTED_EDGE ( 'NONE', *, *, #129, .T. ) ;
#207 =( NAMED_UNIT ( * ) PLANE_ANGLE_UNIT ( ) SI_UNIT ( $, .RADIAN. ) );
#208 = DIRECTION ( 'NONE',  ( 0.000000000000000000, 0.000000000000000000, -1.000000000000000000 ) ) ;
#209 = ORIENTED_EDGE ( 'NONE', *, *, #228, .F. ) ;
#210 = CARTESIAN_POINT ( 'NONE',  ( 0.000000000000000000, 0.000000000000000000, -6.000000000000000000 ) ) ;
#211 =( LENGTH_UNIT ( ) NAMED_UNIT ( * ) SI_UNIT ( .MILLI., .METRE. ) );
#212 = AXIS2_PLACEMENT_3D ( 'NONE', #245, #334, #77 ) ;
#213 = COLOUR_RGB ( '',1.000000000000000000, 0.000000000000000000, 0.000000000000000000 ) ;
#214 = ADVANCED_FACE ( 'NONE', ( #6 ), #43, .T. ) ;
#215 = ORIENTED_EDGE ( 'NONE', *, *, #137, .T. ) ;
#216 = PRESENTATION_STYLE_ASSIGNMENT (( #119 ) ) ;
#217 =( NAMED_UNIT ( * ) SI_UNIT ( $, .STERADIAN. ) SOLID_ANGLE_UNIT ( ) );
#218 = CARTESIAN_POINT ( 'NONE',  ( -1.469576158976823750E-15, 75.00000000000000000, 0.000000000000000000 ) ) ;
#219 =( NAMED_UNIT ( * ) PLANE_ANGLE_UNIT ( ) SI_UNIT ( $, .RADIAN. ) );
#220 = EDGE_CURVE ( 'NONE', #90, #300, #331, .T. ) ;
#221 = DIRECTION ( 'NONE',  ( -0.000000000000000000, -1.000000000000000000, -0.000000000000000000 ) ) ;
#222 = PRESENTATION_LAYER_ASSIGNMENT (  '', '', ( #165 ) ) ;
#223 = PRESENTATION_LAYER_ASSIGNMENT (  '', '', ( #287 ) ) ;
#224 = DIRECTION ( 'NONE',  ( 0.000000000000000000, 0.000000000000000000, -1.000000000000000000 ) ) ;
#225 = AXIS2_PLACEMENT_3D ( 'NONE', #298, #348, #182 ) ;
#226 = UNCERTAINTY_MEASURE_WITH_UNIT (LENGTH_MEASURE( 1.000000000000000082E-05 ), #131, 'distance_accuracy_value', 'NONE');
#227 = MECHANICAL_DESIGN_GEOMETRIC_PRESENTATION_REPRESENTATION (  '', ( #52 ), #236 ) ;
#228 = EDGE_CURVE ( 'NONE', #260, #234, #76, .T. ) ;
#229 = DIRECTION ( 'NONE',  ( -1.224646799147353454E-16, 0.000000000000000000, -1.000000000000000000 ) ) ;
#230 = SURFACE_STYLE_USAGE ( .BOTH. , #110 ) ;
#231 = ORIENTED_EDGE ( 'NONE', *, *, #196, .T. ) ;
#232 = CARTESIAN_POINT ( 'NONE',  ( 0.000000000000000000, 0.000000000000000000, 0.000000000000000000 ) ) ;
#233 = EDGE_CURVE ( 'NONE', #234, #238, #58, .T. ) ;
#234 = VERTEX_POINT ( 'NONE', #71 ) ;
#235 = DIRECTION ( 'NONE',  ( -1.000000000000000000, 0.000000000000000000, 0.000000000000000000 ) ) ;
#236 =( GEOMETRIC_REPRESENTATION_CONTEXT ( 3 ) GLOBAL_UNCERTAINTY_ASSIGNED_CONTEXT ( ( #46 ) ) GLOBAL_UNIT_ASSIGNED_CONTEXT ( ( #353, #280, #217 ) ) REPRESENTATION_CONTEXT ( 'NONE', 'WORKASPACE' ) );
#237 = VECTOR ( 'NONE', #48, 1000.000000000000000 ) ;
#238 = VERTEX_POINT ( 'NONE', #174 ) ;
#239 = DIRECTION ( 'NONE',  ( 0.000000000000000000, 0.000000000000000000, -1.000000000000000000 ) ) ;
#240 = VERTEX_POINT ( 'NONE', #258 ) ;
#241 = PRODUCT_RELATED_PRODUCT_CATEGORY ( 'part', '', ( #194 ) ) ;
#242 = SURFACE_STYLE_USAGE ( .BOTH. , #263 ) ;
#243 = DIRECTION ( 'NONE',  ( 0.000000000000000000, 0.000000000000000000, -1.000000000000000000 ) ) ;
#244 = MECHANICAL_DESIGN_GEOMETRIC_PRESENTATION_REPRESENTATION (  '', ( #168 ), #162 ) ;
#245 = CARTESIAN_POINT ( 'NONE',  ( 0.000000000000000000, 0.5000000000000000000, -5.500000000000000000 ) ) ;
#246 = SURFACE_STYLE_FILL_AREA ( #323 ) ;
#247 = FACE_OUTER_BOUND ( 'NONE', #29, .T. ) ;
#248 = FILL_AREA_STYLE ('',( #158 ) ) ;
#249 = DIRECTION ( 'NONE',  ( -1.223542297630008506E-16, 1.000000000000000000, -0.000000000000000000 ) ) ;
#250 = AXIS2_PLACEMENT_3D ( 'NONE', #42, #310, #51 ) ;
#251 = AXIS2_PLACEMENT_3D ( 'NONE', #9, #321, #243 ) ;
#252 = FILL_AREA_STYLE ('',( #205 ) ) ;
#253 = MECHANICAL_DESIGN_GEOMETRIC_PRESENTATION_REPRESENTATION (  '', ( #135 ), #53 ) ;
#254 = DIRECTION ( 'NONE',  ( 0.000000000000000000, 0.000000000000000000, -1.000000000000000000 ) ) ;
#255 = VERTEX_POINT ( 'NONE', #156 ) ;
#256 = EDGE_CURVE ( 'NONE', #260, #27, #104, .T. ) ;
#257 = ORIENTED_EDGE ( 'NONE', *, *, #305, .T. ) ;
#258 = CARTESIAN_POINT ( 'NONE',  ( -5.999999999999991118, 24.00000000000000000, 0.000000000000000000 ) ) ;
#259 = ADVANCED_BREP_SHAPE_REPRESENTATION ( '59544', ( #22, #178, #290 ), #17 ) ;
#260 = VERTEX_POINT ( 'NONE', #116 ) ;
#261 = FILL_AREA_STYLE_COLOUR ( '', #308 ) ;
#262 = AXIS2_PLACEMENT_3D ( 'NONE', #277, #187, #92 ) ;
#263 = SURFACE_SIDE_STYLE ('',( #33 ) ) ;
#264 = EDGE_CURVE ( 'NONE', #177, #68, #309, .T. ) ;
#265 = UNCERTAINTY_MEASURE_WITH_UNIT (LENGTH_MEASURE( 1.000000000000000082E-05 ), #179, 'distance_accuracy_value', 'NONE');
#266 = LINE ( 'NONE', #36, #3 ) ;
#267 = ORIENTED_EDGE ( 'NONE', *, *, #363, .T. ) ;
#268 = DIRECTION ( 'NONE',  ( 0.000000000000000000, 1.000000000000000000, 0.000000000000000000 ) ) ;
#269 =( NAMED_UNIT ( * ) PLANE_ANGLE_UNIT ( ) SI_UNIT ( $, .RADIAN. ) );
#270 = ORIENTED_EDGE ( 'NONE', *, *, #256, .T. ) ;
#271 = CARTESIAN_POINT ( 'NONE',  ( 0.000000000000000000, 0.000000000000000000, 0.000000000000000000 ) ) ;
#272 = CARTESIAN_POINT ( 'NONE',  ( 0.000000000000000000, 0.000000000000000000, 0.000000000000000000 ) ) ;
#273 = MECHANICAL_DESIGN_GEOMETRIC_PRESENTATION_REPRESENTATION (  '', ( #324 ), #285 ) ;
#274 =( NAMED_UNIT ( * ) SI_UNIT ( $, .STERADIAN. ) SOLID_ANGLE_UNIT ( ) );
#275 = EDGE_CURVE ( 'NONE', #238, #234, #351, .T. ) ;
#276 = PLANE ( 'NONE',  #317 ) ;
#277 = CARTESIAN_POINT ( 'NONE',  ( 0.000000000000000000, 0.5000000000000000000, 0.000000000000000000 ) ) ;
#278 = DIRECTION ( 'NONE',  ( -1.223542297630008506E-16, 1.000000000000000000, 0.000000000000000000 ) ) ;
#279 = COLOUR_RGB ( '',1.000000000000000000, 0.000000000000000000, 0.000000000000000000 ) ;
#280 =( NAMED_UNIT ( * ) PLANE_ANGLE_UNIT ( ) SI_UNIT ( $, .RADIAN. ) );
#281 = CARTESIAN_POINT ( 'NONE',  ( 4.770489558936219510E-15, 24.00000000000000000, 0.000000000000000000 ) ) ;
#282 = PRODUCT_DEFINITION_FORMATION_WITH_SPECIFIED_SOURCE ( 'ANY', '', #194, .NOT_KNOWN. ) ;
#283 = CYLINDRICAL_SURFACE ( 'NONE', #136, 6.000000000000000000 ) ;
#284 = SURFACE_STYLE_FILL_AREA ( #252 ) ;
#285 =( GEOMETRIC_REPRESENTATION_CONTEXT ( 3 ) GLOBAL_UNCERTAINTY_ASSIGNED_CONTEXT ( ( #101 ) ) GLOBAL_UNIT_ASSIGNED_CONTEXT ( ( #211, #180, #325 ) ) REPRESENTATION_CONTEXT ( 'NONE', 'WORKASPACE' ) );
#286 = ORIENTED_EDGE ( 'NONE', *, *, #204, .F. ) ;
#287 = STYLED_ITEM ( 'NONE', ( #154 ), #188 ) ;
#288 = DIRECTION ( 'NONE',  ( 1.223542297630008506E-16, -1.000000000000000000, 0.000000000000000000 ) ) ;
#289 = ORIENTED_EDGE ( 'NONE', *, *, #91, .T. ) ;
#290 = AXIS2_PLACEMENT_3D ( 'NONE', #50, #79, #55 ) ;
#291 = CARTESIAN_POINT ( 'NONE',  ( 0.000000000000000000, 0.000000000000000000, 0.000000000000000000 ) ) ;
#292 = DIRECTION ( 'NONE',  ( -0.000000000000000000, -1.000000000000000000, -0.000000000000000000 ) ) ;
#293 = FACE_OUTER_BOUND ( 'NONE', #142, .T. ) ;
#294 = DIRECTION ( 'NONE',  ( -0.000000000000000000, -1.000000000000000000, -0.000000000000000000 ) ) ;
#295 = COLOUR_RGB ( '',1.000000000000000000, 0.000000000000000000, 0.000000000000000000 ) ;
#296 = AXIS2_PLACEMENT_3D ( 'NONE', #271, #294, #4 ) ;
#297 =( NAMED_UNIT ( * ) PLANE_ANGLE_UNIT ( ) SI_UNIT ( $, .RADIAN. ) );
#298 = CARTESIAN_POINT ( 'NONE',  ( 0.000000000000000000, 24.00000000000000000, 0.000000000000000000 ) ) ;
#299 =( NAMED_UNIT ( * ) SI_UNIT ( $, .STERADIAN. ) SOLID_ANGLE_UNIT ( ) );
#300 = VERTEX_POINT ( 'NONE', #301 ) ;
#301 = CARTESIAN_POINT ( 'NONE',  ( 6.000000000000000000, 75.00000000000000000, 7.347880794884119736E-16 ) ) ;
#302 = DIRECTION ( 'NONE',  ( -1.223542297630008506E-16, 1.000000000000000000, -0.000000000000000000 ) ) ;
#303 = FILL_AREA_STYLE_COLOUR ( '', #15 ) ;
#304 = CLOSED_SHELL ( 'NONE', ( #45, #24, #19, #164 ) ) ;
#305 = EDGE_CURVE ( 'NONE', #27, #260, #26, .T. ) ;
#306 = PRESENTATION_LAYER_ASSIGNMENT (  '', '', ( #195 ) ) ;
#307 = DIRECTION ( 'NONE',  ( -1.000000000000000000, 0.000000000000000000, 0.000000000000000000 ) ) ;
#308 = COLOUR_RGB ( '',1.000000000000000000, 0.000000000000000000, 0.000000000000000000 ) ;
#309 = CIRCLE ( 'NONE', #296, 5.500000000000000000 ) ;
#310 = DIRECTION ( 'NONE',  ( -1.223542297630008506E-16, 1.000000000000000000, -0.000000000000000000 ) ) ;
#311 = APPLICATION_PROTOCOL_DEFINITION ( 'draft international standard', 'automotive_design', 1998, #193 ) ;
#312 = PRESENTATION_STYLE_ASSIGNMENT (( #140 ) ) ;
#313 = DIRECTION ( 'NONE',  ( 0.000000000000000000, 0.000000000000000000, -1.000000000000000000 ) ) ;
#314 = ORIENTED_EDGE ( 'NONE', *, *, #28, .F. ) ;
#315 = DIRECTION ( 'NONE',  ( 0.000000000000000000, -1.000000000000000000, -0.000000000000000000 ) ) ;
#316 =( NAMED_UNIT ( * ) SI_UNIT ( $, .STERADIAN. ) SOLID_ANGLE_UNIT ( ) );
#317 = AXIS2_PLACEMENT_3D ( 'NONE', #291, #315, #313 ) ;
#318 = FACE_OUTER_BOUND ( 'NONE', #155, .T. ) ;
#319 = CYLINDRICAL_SURFACE ( 'NONE', #366, 5.999999999999998224 ) ;
#320 = ORIENTED_EDGE ( 'NONE', *, *, #333, .T. ) ;
#321 = DIRECTION ( 'NONE',  ( -0.000000000000000000, -1.000000000000000000, -0.000000000000000000 ) ) ;
#322 = DIRECTION ( 'NONE',  ( 0.000000000000000000, 0.000000000000000000, -1.000000000000000000 ) ) ;
#323 = FILL_AREA_STYLE ('',( #261 ) ) ;
#324 = STYLED_ITEM ( 'NONE', ( #330 ), #214 ) ;
#325 =( NAMED_UNIT ( * ) SI_UNIT ( $, .STERADIAN. ) SOLID_ANGLE_UNIT ( ) );
#326 = CARTESIAN_POINT ( 'NONE',  ( -1.469576158976823750E-15, 75.00000000000000000, 0.000000000000000000 ) ) ;
#327 = CARTESIAN_POINT ( 'NONE',  ( 0.000000000000000000, 0.5000000000000000000, 0.000000000000000000 ) ) ;
#328 = PRESENTATION_STYLE_ASSIGNMENT (( #8 ) ) ;
#329 = UNCERTAINTY_MEASURE_WITH_UNIT (LENGTH_MEASURE( 1.000000000000000082E-05 ), #172, 'distance_accuracy_value', 'NONE');
#330 = PRESENTATION_STYLE_ASSIGNMENT (( #97 ) ) ;
#331 = CIRCLE ( 'NONE', #166, 6.000000000000001776 ) ;
#332 = FACE_OUTER_BOUND ( 'NONE', #167, .T. ) ;
#333 = EDGE_CURVE ( 'NONE', #240, #90, #149, .T. ) ;
#334 = DIRECTION ( 'NONE',  ( -1.000000000000000000, 0.000000000000000000, 0.000000000000000000 ) ) ;
#335 = EDGE_CURVE ( 'NONE', #27, #238, #370, .T. ) ;
#336 = PRESENTATION_STYLE_ASSIGNMENT (( #230 ) ) ;
#337 =( GEOMETRIC_REPRESENTATION_CONTEXT ( 3 ) GLOBAL_UNCERTAINTY_ASSIGNED_CONTEXT ( ( #329 ) ) GLOBAL_UNIT_ASSIGNED_CONTEXT ( ( #172, #297, #316 ) ) REPRESENTATION_CONTEXT ( 'NONE', 'WORKASPACE' ) );
#338 = ORIENTED_EDGE ( 'NONE', *, *, #275, .T. ) ;
#339 = ORIENTED_EDGE ( 'NONE', *, *, #220, .T. ) ;
#340 =( GEOMETRIC_REPRESENTATION_CONTEXT ( 3 ) GLOBAL_UNCERTAINTY_ASSIGNED_CONTEXT ( ( #203 ) ) GLOBAL_UNIT_ASSIGNED_CONTEXT ( ( #354, #207, #99 ) ) REPRESENTATION_CONTEXT ( 'NONE', 'WORKASPACE' ) );
#341 = PLANE ( 'NONE',  #157 ) ;
#342 = CYLINDRICAL_SURFACE ( 'NONE', #352, 6.000000000000000000 ) ;
#343 = ORIENTED_EDGE ( 'NONE', *, *, #233, .F. ) ;
#344 = FACE_OUTER_BOUND ( 'NONE', #70, .T. ) ;
#345 = ORIENTED_EDGE ( 'NONE', *, *, #264, .T. ) ;
#346 = CARTESIAN_POINT ( 'NONE',  ( -6.000000000000000000, 75.00000000000000000, 0.000000000000000000 ) ) ;
#347 = PRESENTATION_STYLE_ASSIGNMENT (( #242 ) ) ;
#348 = DIRECTION ( 'NONE',  ( -0.000000000000000000, -1.000000000000000000, -0.000000000000000000 ) ) ;
#349 = SURFACE_STYLE_FILL_AREA ( #11 ) ;
#350 = DIRECTION ( 'NONE',  ( -0.000000000000000000, -1.000000000000000000, -0.000000000000000000 ) ) ;
#351 = CIRCLE ( 'NONE', #191, 6.000000000000000000 ) ;
#352 = AXIS2_PLACEMENT_3D ( 'NONE', #232, #201, #254 ) ;
#353 =( LENGTH_UNIT ( ) NAMED_UNIT ( * ) SI_UNIT ( .MILLI., .METRE. ) );
#354 =( LENGTH_UNIT ( ) NAMED_UNIT ( * ) SI_UNIT ( .MILLI., .METRE. ) );
#355 = DIRECTION ( 'NONE',  ( -0.000000000000000000, -1.000000000000000000, -0.000000000000000000 ) ) ;
#356 = CARTESIAN_POINT ( 'NONE',  ( 4.770489558936219510E-15, 24.00000000000000000, 0.000000000000000000 ) ) ;
#357 = UNCERTAINTY_MEASURE_WITH_UNIT (LENGTH_MEASURE( 1.000000000000000082E-05 ), #100, 'distance_accuracy_value', 'NONE');
#358 = PRESENTATION_LAYER_ASSIGNMENT (  '', '', ( #52 ) ) ;
#359 = FACE_OUTER_BOUND ( 'NONE', #123, .T. ) ;
#360 = CARTESIAN_POINT ( 'NONE',  ( 0.000000000000000000, 24.00000000000000000, -6.000000000000000000 ) ) ;
#361 = MECHANICAL_DESIGN_GEOMETRIC_PRESENTATION_REPRESENTATION (  '', ( #195 ), #126 ) ;
#362 = SURFACE_STYLE_FILL_AREA ( #111 ) ;
#363 = EDGE_CURVE ( 'NONE', #300, #90, #171, .T. ) ;
#364 = FILL_AREA_STYLE_COLOUR ( '', #192 ) ;
#365 = ADVANCED_FACE ( 'NONE', ( #344 ), #122, .T. ) ;
#366 = AXIS2_PLACEMENT_3D ( 'NONE', #198, #62, #118 ) ;
#367 = COLOUR_RGB ( '',1.000000000000000000, 0.000000000000000000, 0.000000000000000000 ) ;
#368 = ORIENTED_EDGE ( 'NONE', *, *, #363, .F. ) ;
#369 = ORIENTED_EDGE ( 'NONE', *, *, #220, .F. ) ;
#370 = LINE ( 'NONE', #210, #199 ) ;
ENDSEC;
END-ISO-10303-21;
