ISO-10303-21;
HEADER;
FILE_DESCRIPTION (( 'STEP AP214' ),
    '1' );
FILE_NAME ('Micro_RDD-80.STEP',
    '2021-08-31T15:21:01',
    ( '' ),
    ( '' ),
    'SwSTEP 2.0',
    'SolidWorks 2020',
    '' );
FILE_SCHEMA (( 'AUTOMOTIVE_DESIGN' ));
ENDSEC;

DATA;
#1 =( NAMED_UNIT ( * ) SI_UNIT ( $, .STERADIAN. ) SOLID_ANGLE_UNIT ( ) );
#2 = VECTOR ( 'NONE', #80, 39.37007874015748143 ) ;
#3 = AXIS2_PLACEMENT_3D ( 'NONE', #113, #214, #85 ) ;
#4 = FACE_OUTER_BOUND ( 'NONE', #319, .T. ) ;
#5 = APPLICATION_CONTEXT ( 'automotive_design' ) ;
#6 = CARTESIAN_POINT ( 'NONE',  ( 1.224646799147353454E-16, 0.0000000000000000000, 1.000000000000000000 ) ) ;
#7 = SURFACE_SIDE_STYLE ('',( #208 ) ) ;
#8 = STYLED_ITEM ( 'NONE', ( #309 ), #100 ) ;
#9 = SURFACE_STYLE_USAGE ( .BOTH. , #7 ) ;
#10 = CARTESIAN_POINT ( 'NONE',  ( -0.1248750000000000276, 0.0000000000000000000, 1.529277690435257783E-17 ) ) ;
#11 = CARTESIAN_POINT ( 'NONE',  ( 0.0000000000000000000, 0.0000000000000000000, 0.0000000000000000000 ) ) ;
#12 = DIRECTION ( 'NONE',  ( 1.224646799147353454E-16, 0.0000000000000000000, 1.000000000000000000 ) ) ;
#13 = PRODUCT_DEFINITION_FORMATION_WITH_SPECIFIED_SOURCE ( 'ANY', '', #110, .NOT_KNOWN. ) ;
#14 = EDGE_LOOP ( 'NONE', ( #221, #254, #35, #120 ) ) ;
#15 = DIRECTION ( 'NONE',  ( -1.224646799147353454E-16, -0.0000000000000000000, -1.000000000000000000 ) ) ;
#16 = ORIENTED_EDGE ( 'NONE', *, *, #139, .T. ) ;
#17 = DIRECTION ( 'NONE',  ( 1.224646799147353454E-16, 0.0000000000000000000, 1.000000000000000000 ) ) ;
#18 =( NAMED_UNIT ( * ) PLANE_ANGLE_UNIT ( ) SI_UNIT ( $, .RADIAN. ) );
#19 = ADVANCED_FACE ( 'NONE', ( #4 ), #271, .T. ) ;
#20 = SURFACE_STYLE_USAGE ( .BOTH. , #253 ) ;
#21 = ORIENTED_EDGE ( 'NONE', *, *, #238, .F. ) ;
#22 = DIRECTION ( 'NONE',  ( 1.000000000000000000, 0.0000000000000000000, 0.0000000000000000000 ) ) ;
#23 = VERTEX_POINT ( 'NONE', #237 ) ;
#24 = ORIENTED_EDGE ( 'NONE', *, *, #178, .T. ) ;
#25 = FACE_OUTER_BOUND ( 'NONE', #96, .T. ) ;
#26 = VECTOR ( 'NONE', #182, 39.37007874015748854 ) ;
#27 = CONICAL_SURFACE ( 'NONE', #55, 0.1248750000000000276, 0.1745329251994338360 ) ;
#28 = CARTESIAN_POINT ( 'NONE',  ( 0.0000000000000000000, 0.0000000000000000000, 3.000000000000000444 ) ) ;
#29 = PLANE ( 'NONE',  #87 ) ;
#30 = FACE_OUTER_BOUND ( 'NONE', #256, .T. ) ;
#31 = CONICAL_SURFACE ( 'NONE', #222, 95.04777804618574066, 1.178097245096175749 ) ;
#32 = DIRECTION ( 'NONE',  ( 1.000000000000000000, 0.0000000000000000000, -1.379608302175842567E-16 ) ) ;
#33 = DIRECTION ( 'NONE',  ( -1.224646799147353454E-16, -0.0000000000000000000, -1.000000000000000000 ) ) ;
#34 = FACE_OUTER_BOUND ( 'NONE', #269, .T. ) ;
#35 = ORIENTED_EDGE ( 'NONE', *, *, #58, .F. ) ;
#36 = LINE ( 'NONE', #168, #216 ) ;
#37 = ORIENTED_EDGE ( 'NONE', *, *, #203, .F. ) ;
#38 = AXIS2_PLACEMENT_3D ( 'NONE', #137, #242, #39 ) ;
#39 = DIRECTION ( 'NONE',  ( -1.000000000000000000, 0.0000000000000000000, 0.0000000000000000000 ) ) ;
#40 = DIRECTION ( 'NONE',  ( -1.224646799147353454E-16, -0.0000000000000000000, -1.000000000000000000 ) ) ;
#41 = DIRECTION ( 'NONE',  ( 0.0000000000000000000, 0.0000000000000000000, 1.000000000000000000 ) ) ;
#42 = PRODUCT_RELATED_PRODUCT_CATEGORY ( 'part', '', ( #110 ) ) ;
#43 = DIRECTION ( 'NONE',  ( -0.0000000000000000000, -0.0000000000000000000, -1.000000000000000000 ) ) ;
#44 = EDGE_LOOP ( 'NONE', ( #302, #180, #16, #258 ) ) ;
#45 = VECTOR ( 'NONE', #111, 39.37007874015748143 ) ;
#46 = ORIENTED_EDGE ( 'NONE', *, *, #118, .F. ) ;
#47 = EDGE_CURVE ( 'NONE', #116, #114, #53, .T. ) ;
#48 = CARTESIAN_POINT ( 'NONE',  ( 1.225514963788285454E-16, 0.0000000000000000000, 1.000708910227452009 ) ) ;
#49 = ORIENTED_EDGE ( 'NONE', *, *, #261, .F. ) ;
#50 = CIRCLE ( 'NONE', #107, 0.1248749999999999999 ) ;
#51 = AXIS2_PLACEMENT_3D ( 'NONE', #98, #201, #156 ) ;
#52 = DIRECTION ( 'NONE',  ( -1.000000000000000000, 0.0000000000000000000, 1.367291288120251888E-16 ) ) ;
#53 = LINE ( 'NONE', #233, #119 ) ;
#54 = CONICAL_SURFACE ( 'NONE', #181, 0.1248750000000000276, 0.1745329251994338360 ) ;
#55 = AXIS2_PLACEMENT_3D ( 'NONE', #131, #12, #240 ) ;
#56 = LENGTH_MEASURE_WITH_UNIT ( LENGTH_MEASURE( 0.02539999999999999897 ), #185 );
#57 = DIRECTION ( 'NONE',  ( 1.000000000000000000, 0.0000000000000000000, 0.0000000000000000000 ) ) ;
#58 = EDGE_CURVE ( 'NONE', #147, #202, #50, .T. ) ;
#59 = FACE_OUTER_BOUND ( 'NONE', #44, .T. ) ;
#60 = CARTESIAN_POINT ( 'NONE',  ( -0.1248749999999999027, 1.529277690435257783E-17, 1.000000000000000000 ) ) ;
#61 = CARTESIAN_POINT ( 'NONE',  ( 0.0000000000000000000, 0.0000000000000000000, 3.000000000000000444 ) ) ;
#62 = DIMENSIONAL_EXPONENTS ( 1.000000000000000000, 0.0000000000000000000, 0.0000000000000000000, 0.0000000000000000000, 0.0000000000000000000, 0.0000000000000000000, 0.0000000000000000000 ) ;
#63 = EDGE_CURVE ( 'NONE', #244, #279, #71, .T. ) ;
#64 = EDGE_LOOP ( 'NONE', ( #281, #91, #74, #46 ) ) ;
#65 = CYLINDRICAL_SURFACE ( 'NONE', #251, 0.1248750000000000276 ) ;
#66 = ORIENTED_EDGE ( 'NONE', *, *, #298, .T. ) ;
#67 = CARTESIAN_POINT ( 'NONE',  ( 4.821444091131313077E-15, 0.0000000000000000000, 39.37007874015748143 ) ) ;
#68 = ADVANCED_FACE ( 'NONE', ( #30 ), #29, .T. ) ;
#69 = FILL_AREA_STYLE_COLOUR ( '', #122 ) ;
#70 = ORIENTED_EDGE ( 'NONE', *, *, #167, .F. ) ;
#71 = CIRCLE ( 'NONE', #284, 0.1248750000000000276 ) ;
#72 =( CONVERSION_BASED_UNIT ( 'INCH', #170 ) LENGTH_UNIT ( ) NAMED_UNIT ( #223 ) );
#73 = VERTEX_POINT ( 'NONE', #259 ) ;
#74 = ORIENTED_EDGE ( 'NONE', *, *, #167, .T. ) ;
#75 = CARTESIAN_POINT ( 'NONE',  ( 0.1250000000000000000, 1.530808498934191201E-17, 2.985000000000001208 ) ) ;
#76 = CIRCLE ( 'NONE', #127, 0.1250000000000000000 ) ;
#77 = CARTESIAN_POINT ( 'NONE',  ( -0.1100000000000004446, 0.0000000000000000000, 3.000000000000000444 ) ) ;
#78 = EDGE_CURVE ( 'NONE', #202, #147, #277, .T. ) ;
#79 = FILL_AREA_STYLE_COLOUR ( '', #152 ) ;
#80 = DIRECTION ( 'NONE',  ( -1.224646799147353454E-16, -0.0000000000000000000, -1.000000000000000000 ) ) ;
#81 = CLOSED_SHELL ( 'NONE', ( #262, #129, #224, #19, #212, #171, #68, #290, #104, #162, #199 ) ) ;
#82 = AXIS2_PLACEMENT_3D ( 'NONE', #188, #83, #32 ) ;
#83 = DIRECTION ( 'NONE',  ( 1.224646799147353454E-16, 0.0000000000000000000, 1.000000000000000000 ) ) ;
#84 = UNCERTAINTY_MEASURE_WITH_UNIT (LENGTH_MEASURE( 1.000000000000000082E-05 ), #153, 'distance_accuracy_value', 'NONE');
#85 = DIRECTION ( 'NONE',  ( 1.000000000000000000, 0.0000000000000000000, 0.0000000000000000000 ) ) ;
#86 = EDGE_CURVE ( 'NONE', #279, #202, #239, .T. ) ;
#87 = AXIS2_PLACEMENT_3D ( 'NONE', #207, #260, #308 ) ;
#88 = CYLINDRICAL_SURFACE ( 'NONE', #300, 0.1250000000000000000 ) ;
#89 = VECTOR ( 'NONE', #211, 39.37007874015748854 ) ;
#90 = DIRECTION ( 'NONE',  ( -0.1736481776669311639, 2.126576849575782392E-17, 0.9848077530122080203 ) ) ;
#91 = ORIENTED_EDGE ( 'NONE', *, *, #261, .T. ) ;
#92 = DIRECTION ( 'NONE',  ( -1.224646799147353454E-16, -0.0000000000000000000, -1.000000000000000000 ) ) ;
#93 = DIRECTION ( 'NONE',  ( -1.000000000000000000, 0.0000000000000000000, 0.0000000000000000000 ) ) ;
#94 = DIMENSIONAL_EXPONENTS ( 1.000000000000000000, 0.0000000000000000000, 0.0000000000000000000, 0.0000000000000000000, 0.0000000000000000000, 0.0000000000000000000, 0.0000000000000000000 ) ;
#95 = LENGTH_MEASURE_WITH_UNIT ( LENGTH_MEASURE( 0.02539999999999999897 ), #296 );
#96 = EDGE_LOOP ( 'NONE', ( #49, #177, #247, #123 ) ) ;
#97 = CIRCLE ( 'NONE', #191, 0.1250000000000000000 ) ;
#98 = CARTESIAN_POINT ( 'NONE',  ( 0.0000000000000000000, 0.0000000000000000000, 0.0000000000000000000 ) ) ;
#99 = ORIENTED_EDGE ( 'NONE', *, *, #133, .T. ) ;
#100 = MANIFOLD_SOLID_BREP ( 'Cut-Revolve1', #81 ) ;
#101 = EDGE_LOOP ( 'NONE', ( #230, #226, #176 ) ) ;
#102 =( NAMED_UNIT ( * ) PLANE_ANGLE_UNIT ( ) SI_UNIT ( $, .RADIAN. ) );
#103 = VECTOR ( 'NONE', #33, 39.37007874015748143 ) ;
#104 = ADVANCED_FACE ( 'NONE', ( #25 ), #54, .T. ) ;
#105 = CARTESIAN_POINT ( 'NONE',  ( 6.334475600128814406E-18, 0.0000000000000000000, 0.05172491860133976438 ) ) ;
#106 = FILL_AREA_STYLE ('',( #79 ) ) ;
#107 = AXIS2_PLACEMENT_3D ( 'NONE', #105, #232, #52 ) ;
#108 = AXIS2_PLACEMENT_3D ( 'NONE', #316, #92, #215 ) ;
#109 = DIRECTION ( 'NONE',  ( 0.0000000000000000000, 0.0000000000000000000, -1.000000000000000000 ) ) ;
#110 = PRODUCT ( 'Micro_RDD-80', 'Micro_RDD-80', '', ( #179 ) ) ;
#111 = DIRECTION ( 'NONE',  ( -0.0000000000000000000, -0.0000000000000000000, -1.000000000000000000 ) ) ;
#112 = CIRCLE ( 'NONE', #136, 0.1100000000000004446 ) ;
#113 = CARTESIAN_POINT ( 'NONE',  ( 0.0000000000000000000, 0.0000000000000000000, 3.000000000000000444 ) ) ;
#114 = VERTEX_POINT ( 'NONE', #263 ) ;
#115 = LINE ( 'NONE', #11, #89 ) ;
#116 = VERTEX_POINT ( 'NONE', #77 ) ;
#117 = PRESENTATION_STYLE_ASSIGNMENT (( #20 ) ) ;
#118 = EDGE_CURVE ( 'NONE', #279, #126, #130, .T. ) ;
#119 = VECTOR ( 'NONE', #235, 39.37007874015748854 ) ;
#120 = ORIENTED_EDGE ( 'NONE', *, *, #139, .F. ) ;
#121 = VERTEX_POINT ( 'NONE', #75 ) ;
#122 = COLOUR_RGB ( '',0.7921568627450980005, 0.8196078431372548767, 0.9333333333333333481 ) ;
#123 = ORIENTED_EDGE ( 'NONE', *, *, #323, .T. ) ;
#124 = DIRECTION ( 'NONE',  ( -1.224646799147353454E-16, -0.0000000000000000000, -1.000000000000000000 ) ) ;
#125 = EDGE_CURVE ( 'NONE', #73, #202, #154, .T. ) ;
#126 = VERTEX_POINT ( 'NONE', #132 ) ;
#127 = AXIS2_PLACEMENT_3D ( 'NONE', #193, #189, #289 ) ;
#128 = DIRECTION ( 'NONE',  ( -1.000000000000000000, 0.0000000000000000000, 0.0000000000000000000 ) ) ;
#129 = ADVANCED_FACE ( 'NONE', ( #267 ), #31, .T. ) ;
#130 = LINE ( 'NONE', #205, #169 ) ;
#131 = CARTESIAN_POINT ( 'NONE',  ( 1.224646799147353454E-16, 0.0000000000000000000, 1.000000000000000000 ) ) ;
#132 = CARTESIAN_POINT ( 'NONE',  ( 0.1250000000000001110, 1.530808498934192433E-17, 1.000708910227452009 ) ) ;
#133 = EDGE_CURVE ( 'NONE', #23, #121, #36, .T. ) ;
#134 = CYLINDRICAL_SURFACE ( 'NONE', #38, 0.1250000000000000000 ) ;
#135 = EDGE_LOOP ( 'NONE', ( #283, #173, #70, #200 ) ) ;
#136 = AXIS2_PLACEMENT_3D ( 'NONE', #225, #41, #282 ) ;
#137 = CARTESIAN_POINT ( 'NONE',  ( 0.0000000000000000000, 0.0000000000000000000, 3.000000000000000444 ) ) ;
#138 = ORIENTED_EDGE ( 'NONE', *, *, #183, .F. ) ;
#139 = EDGE_CURVE ( 'NONE', #244, #147, #246, .T. ) ;
#140 = CIRCLE ( 'NONE', #236, 0.1250000000000000000 ) ;
#141 = LINE ( 'NONE', #243, #45 ) ;
#142 = SURFACE_STYLE_FILL_AREA ( #146 ) ;
#143 = CARTESIAN_POINT ( 'NONE',  ( 1.224646799147353454E-16, 0.0000000000000000000, 1.000000000000000000 ) ) ;
#144 =( GEOMETRIC_REPRESENTATION_CONTEXT ( 3 ) GLOBAL_UNCERTAINTY_ASSIGNED_CONTEXT ( ( #84 ) ) GLOBAL_UNIT_ASSIGNED_CONTEXT ( ( #153, #102, #1 ) ) REPRESENTATION_CONTEXT ( 'NONE', 'WORKASPACE' ) );
#145 =( GEOMETRIC_REPRESENTATION_CONTEXT ( 3 ) GLOBAL_UNCERTAINTY_ASSIGNED_CONTEXT ( ( #155 ) ) GLOBAL_UNIT_ASSIGNED_CONTEXT ( ( #72, #175, #150 ) ) REPRESENTATION_CONTEXT ( 'NONE', 'WORKASPACE' ) );
#146 = FILL_AREA_STYLE ('',( #69 ) ) ;
#147 = VERTEX_POINT ( 'NONE', #248 ) ;
#148 =( CONVERSION_BASED_UNIT ( 'INCH', #95 ) LENGTH_UNIT ( ) NAMED_UNIT ( #94 ) );
#149 = ORIENTED_EDGE ( 'NONE', *, *, #227, .F. ) ;
#150 =( NAMED_UNIT ( * ) SI_UNIT ( $, .STERADIAN. ) SOLID_ANGLE_UNIT ( ) );
#151 = ORIENTED_EDGE ( 'NONE', *, *, #305, .T. ) ;
#152 = COLOUR_RGB ( '',0.7921568627450980005, 0.8196078431372548767, 0.9333333333333333481 ) ;
#153 =( CONVERSION_BASED_UNIT ( 'INCH', #56 ) LENGTH_UNIT ( ) NAMED_UNIT ( #62 ) );
#154 = LINE ( 'NONE', #307, #26 ) ;
#155 = UNCERTAINTY_MEASURE_WITH_UNIT (LENGTH_MEASURE( 1.000000000000000082E-05 ), #72, 'distance_accuracy_value', 'NONE');
#156 = DIRECTION ( 'NONE',  ( 1.000000000000000000, 0.0000000000000000000, 0.0000000000000000000 ) ) ;
#157 = CARTESIAN_POINT ( 'NONE',  ( 0.1248750000000000276, 1.529277690435257783E-17, -1.529277690435257783E-17 ) ) ;
#158 = DIRECTION ( 'NONE',  ( -1.000000000000000000, 0.0000000000000000000, 1.367291288120251888E-16 ) ) ;
#159 = ORIENTED_EDGE ( 'NONE', *, *, #133, .F. ) ;
#160 = CYLINDRICAL_SURFACE ( 'NONE', #108, 0.1248750000000000276 ) ;
#161 = CIRCLE ( 'NONE', #3, 0.1100000000000004446 ) ;
#162 = ADVANCED_FACE ( 'NONE', ( #312 ), #172, .T. ) ;
#163 = CARTESIAN_POINT ( 'NONE',  ( 0.0000000000000000000, 0.0000000000000000000, 0.0000000000000000000 ) ) ;
#164 = DIRECTION ( 'NONE',  ( 0.7071067811865566766, 8.659560562355046257E-17, -0.7071067811865382469 ) ) ;
#165 = VERTEX_POINT ( 'NONE', #274 ) ;
#166 = DIRECTION ( 'NONE',  ( -1.224646799147353454E-16, -0.0000000000000000000, -1.000000000000000000 ) ) ;
#167 = EDGE_CURVE ( 'NONE', #165, #126, #97, .T. ) ;
#168 = CARTESIAN_POINT ( 'NONE',  ( 0.1100000000000004446, 1.347111479062094019E-17, 3.000000000000000444 ) ) ;
#169 = VECTOR ( 'NONE', #304, 39.37007874015748143 ) ;
#170 = LENGTH_MEASURE_WITH_UNIT ( LENGTH_MEASURE( 0.02539999999999999897 ), #303 );
#171 = ADVANCED_FACE ( 'NONE', ( #34 ), #134, .T. ) ;
#172 = CONICAL_SURFACE ( 'NONE', #82, 95.04777804618574066, 1.178097245096175749 ) ;
#173 = ORIENTED_EDGE ( 'NONE', *, *, #183, .T. ) ;
#174 = APPLICATION_CONTEXT ( 'automotive_design' ) ;
#175 =( NAMED_UNIT ( * ) PLANE_ANGLE_UNIT ( ) SI_UNIT ( $, .RADIAN. ) );
#176 = ORIENTED_EDGE ( 'NONE', *, *, #78, .T. ) ;
#177 = ORIENTED_EDGE ( 'NONE', *, *, #317, .F. ) ;
#178 = EDGE_CURVE ( 'NONE', #73, #147, #115, .T. ) ;
#179 = PRODUCT_CONTEXT ( 'NONE', #174, 'mechanical' ) ;
#180 = ORIENTED_EDGE ( 'NONE', *, *, #317, .T. ) ;
#181 = AXIS2_PLACEMENT_3D ( 'NONE', #6, #187, #57 ) ;
#182 = DIRECTION ( 'NONE',  ( 0.9238795325112879597, 0.0000000000000000000, 0.3826834323650865621 ) ) ;
#183 = EDGE_CURVE ( 'NONE', #121, #126, #141, .T. ) ;
#184 = CARTESIAN_POINT ( 'NONE',  ( 6.334475600128814406E-18, 0.0000000000000000000, 0.05172491860133976438 ) ) ;
#185 =( LENGTH_UNIT ( ) NAMED_UNIT ( * ) SI_UNIT ( $, .METRE. ) );
#186 = CIRCLE ( 'NONE', #229, 0.1248750000000000276 ) ;
#187 = DIRECTION ( 'NONE',  ( 1.224646799147353454E-16, 0.0000000000000000000, 1.000000000000000000 ) ) ;
#188 = CARTESIAN_POINT ( 'NONE',  ( 4.821444091131313077E-15, 0.0000000000000000000, 39.37007874015748143 ) ) ;
#189 = DIRECTION ( 'NONE',  ( 0.0000000000000000000, 0.0000000000000000000, -1.000000000000000000 ) ) ;
#190 = APPLICATION_PROTOCOL_DEFINITION ( 'draft international standard', 'automotive_design', 1998, #5 ) ;
#191 = AXIS2_PLACEMENT_3D ( 'NONE', #288, #15, #220 ) ;
#192 = FACE_OUTER_BOUND ( 'NONE', #64, .T. ) ;
#193 = CARTESIAN_POINT ( 'NONE',  ( 0.0000000000000000000, 0.0000000000000000000, 2.985000000000001208 ) ) ;
#194 = ORIENTED_EDGE ( 'NONE', *, *, #298, .F. ) ;
#195 = CARTESIAN_POINT ( 'NONE',  ( 0.0000000000000000000, 0.0000000000000000000, 2.985000000000001208 ) ) ;
#196 = CARTESIAN_POINT ( 'NONE',  ( -0.1250000000000000000, 0.0000000000000000000, 3.000000000000000444 ) ) ;
#197 =( GEOMETRIC_REPRESENTATION_CONTEXT ( 3 ) GLOBAL_UNCERTAINTY_ASSIGNED_CONTEXT ( ( #213 ) ) GLOBAL_UNIT_ASSIGNED_CONTEXT ( ( #148, #18, #297 ) ) REPRESENTATION_CONTEXT ( 'NONE', 'WORKASPACE' ) );
#198 = DIRECTION ( 'NONE',  ( -1.000000000000000000, 0.0000000000000000000, 0.0000000000000000000 ) ) ;
#199 = ADVANCED_FACE ( 'NONE', ( #59 ), #160, .T. ) ;
#200 = ORIENTED_EDGE ( 'NONE', *, *, #305, .F. ) ;
#201 = DIRECTION ( 'NONE',  ( 0.0000000000000000000, 0.0000000000000000000, 1.000000000000000000 ) ) ;
#202 = VERTEX_POINT ( 'NONE', #311 ) ;
#203 = EDGE_CURVE ( 'NONE', #121, #114, #140, .T. ) ;
#204 = ORIENTED_EDGE ( 'NONE', *, *, #227, .T. ) ;
#205 = CARTESIAN_POINT ( 'NONE',  ( 0.1248750000000001387, 0.0000000000000000000, 1.000000000000000000 ) ) ;
#206 = PRESENTATION_LAYER_ASSIGNMENT (  '', '', ( #245 ) ) ;
#207 = CARTESIAN_POINT ( 'NONE',  ( 0.0000000000000000000, 0.0000000000000000000, 3.000000000000000444 ) ) ;
#208 = SURFACE_STYLE_FILL_AREA ( #106 ) ;
#209 = PRODUCT_DEFINITION_CONTEXT ( 'detailed design', #5, 'design' ) ;
#210 = AXIS2_PLACEMENT_3D ( 'NONE', #48, #280, #22 ) ;
#211 = DIRECTION ( 'NONE',  ( -0.9238795325112879597, 1.131426112287701740E-16, 0.3826834323650867842 ) ) ;
#212 = ADVANCED_FACE ( 'NONE', ( #294 ), #88, .T. ) ;
#213 = UNCERTAINTY_MEASURE_WITH_UNIT (LENGTH_MEASURE( 1.000000000000000082E-05 ), #148, 'distance_accuracy_value', 'NONE');
#214 = DIRECTION ( 'NONE',  ( 0.0000000000000000000, 0.0000000000000000000, 1.000000000000000000 ) ) ;
#215 = DIRECTION ( 'NONE',  ( -1.000000000000000000, 0.0000000000000000000, 1.224646799147353207E-16 ) ) ;
#216 = VECTOR ( 'NONE', #164, 39.37007874015748854 ) ;
#217 = AXIS2_PLACEMENT_3D ( 'NONE', #276, #301, #93 ) ;
#218 = CARTESIAN_POINT ( 'NONE',  ( -0.1248749999999999027, 1.530043094684724646E-17, 1.000000000000000000 ) ) ;
#219 = ORIENTED_EDGE ( 'NONE', *, *, #125, .F. ) ;
#220 = DIRECTION ( 'NONE',  ( 1.000000000000000000, 0.0000000000000000000, 0.0000000000000000000 ) ) ;
#221 = ORIENTED_EDGE ( 'NONE', *, *, #63, .T. ) ;
#222 = AXIS2_PLACEMENT_3D ( 'NONE', #67, #17, #266 ) ;
#223 = DIMENSIONAL_EXPONENTS ( 1.000000000000000000, 0.0000000000000000000, 0.0000000000000000000, 0.0000000000000000000, 0.0000000000000000000, 0.0000000000000000000, 0.0000000000000000000 ) ;
#224 = ADVANCED_FACE ( 'NONE', ( #192 ), #27, .T. ) ;
#225 = CARTESIAN_POINT ( 'NONE',  ( 0.0000000000000000000, 0.0000000000000000000, 3.000000000000000444 ) ) ;
#226 = ORIENTED_EDGE ( 'NONE', *, *, #125, .T. ) ;
#227 = EDGE_CURVE ( 'NONE', #116, #23, #161, .T. ) ;
#228 = LINE ( 'NONE', #196, #320 ) ;
#229 = AXIS2_PLACEMENT_3D ( 'NONE', #143, #40, #198 ) ;
#230 = ORIENTED_EDGE ( 'NONE', *, *, #178, .F. ) ;
#231 = ORIENTED_EDGE ( 'NONE', *, *, #47, .F. ) ;
#232 = DIRECTION ( 'NONE',  ( -1.224646799147353454E-16, -0.0000000000000000000, -1.000000000000000000 ) ) ;
#233 = CARTESIAN_POINT ( 'NONE',  ( -0.1100000000000004446, 0.0000000000000000000, 3.000000000000000444 ) ) ;
#234 = MECHANICAL_DESIGN_GEOMETRIC_PRESENTATION_REPRESENTATION (  '', ( #245 ), #197 ) ;
#235 = DIRECTION ( 'NONE',  ( -0.7071067811865566766, 0.0000000000000000000, -0.7071067811865382469 ) ) ;
#236 = AXIS2_PLACEMENT_3D ( 'NONE', #195, #109, #313 ) ;
#237 = CARTESIAN_POINT ( 'NONE',  ( 0.1100000000000004446, 1.438959988998142687E-17, 3.000000000000000444 ) ) ;
#238 = EDGE_CURVE ( 'NONE', #114, #121, #76, .T. ) ;
#239 = LINE ( 'NONE', #157, #2 ) ;
#240 = DIRECTION ( 'NONE',  ( 1.000000000000000000, 0.0000000000000000000, 0.0000000000000000000 ) ) ;
#241 = ADVANCED_BREP_SHAPE_REPRESENTATION ( 'Micro_RDD-80', ( #100, #51 ), #145 ) ;
#242 = DIRECTION ( 'NONE',  ( -0.0000000000000000000, -0.0000000000000000000, -1.000000000000000000 ) ) ;
#243 = CARTESIAN_POINT ( 'NONE',  ( 0.1250000000000000000, 1.530808498934191201E-17, 3.000000000000000444 ) ) ;
#244 = VERTEX_POINT ( 'NONE', #218 ) ;
#245 = STYLED_ITEM ( 'NONE', ( #117 ), #241 ) ;
#246 = LINE ( 'NONE', #10, #103 ) ;
#247 = ORIENTED_EDGE ( 'NONE', *, *, #118, .T. ) ;
#248 = CARTESIAN_POINT ( 'NONE',  ( -0.1248749999999999999, 1.529277690435257475E-17, 0.05172491860133978520 ) ) ;
#249 = APPLICATION_PROTOCOL_DEFINITION ( 'draft international standard', 'automotive_design', 1998, #174 ) ;
#250 = MECHANICAL_DESIGN_GEOMETRIC_PRESENTATION_REPRESENTATION (  '', ( #8 ), #144 ) ;
#251 = AXIS2_PLACEMENT_3D ( 'NONE', #163, #166, #270 ) ;
#252 = CARTESIAN_POINT ( 'NONE',  ( 0.1248750000000001387, 0.0000000000000000000, 1.000000000000000000 ) ) ;
#253 = SURFACE_SIDE_STYLE ('',( #142 ) ) ;
#254 = ORIENTED_EDGE ( 'NONE', *, *, #86, .T. ) ;
#255 = SHAPE_DEFINITION_REPRESENTATION ( #268, #241 ) ;
#256 = EDGE_LOOP ( 'NONE', ( #204, #66 ) ) ;
#257 = AXIS2_PLACEMENT_3D ( 'NONE', #28, #310, #128 ) ;
#258 = ORIENTED_EDGE ( 'NONE', *, *, #78, .F. ) ;
#259 = CARTESIAN_POINT ( 'NONE',  ( 0.0000000000000000000, 0.0000000000000000000, 0.0000000000000000000 ) ) ;
#260 = DIRECTION ( 'NONE',  ( 0.0000000000000000000, 0.0000000000000000000, 1.000000000000000000 ) ) ;
#261 = EDGE_CURVE ( 'NONE', #244, #165, #314, .T. ) ;
#262 = ADVANCED_FACE ( 'NONE', ( #292 ), #65, .T. ) ;
#263 = CARTESIAN_POINT ( 'NONE',  ( -0.1250000000000000000, 0.0000000000000000000, 2.985000000000001208 ) ) ;
#264 = DIRECTION ( 'NONE',  ( -1.000000000000000000, 0.0000000000000000000, 0.0000000000000000000 ) ) ;
#265 = VECTOR ( 'NONE', #90, 39.37007874015747433 ) ;
#266 = DIRECTION ( 'NONE',  ( 1.000000000000000000, 0.0000000000000000000, -1.379608302175842567E-16 ) ) ;
#267 = FACE_OUTER_BOUND ( 'NONE', #293, .T. ) ;
#268 = PRODUCT_DEFINITION_SHAPE ( 'NONE', 'NONE',  #275 ) ;
#269 = EDGE_LOOP ( 'NONE', ( #138, #321, #151, #315 ) ) ;
#270 = DIRECTION ( 'NONE',  ( -1.000000000000000000, 0.0000000000000000000, 1.224646799147353207E-16 ) ) ;
#271 = CONICAL_SURFACE ( 'NONE', #257, 0.1100000000000004446, 0.7853981633974613796 ) ;
#272 = ORIENTED_EDGE ( 'NONE', *, *, #47, .T. ) ;
#273 = CIRCLE ( 'NONE', #210, 0.1250000000000000000 ) ;
#274 = CARTESIAN_POINT ( 'NONE',  ( -0.1249999999999998751, 0.0000000000000000000, 1.000708910227452009 ) ) ;
#275 = PRODUCT_DEFINITION ( 'UNKNOWN', '', #13, #209 ) ;
#276 = CARTESIAN_POINT ( 'NONE',  ( 0.0000000000000000000, 0.0000000000000000000, 3.000000000000000444 ) ) ;
#277 = CIRCLE ( 'NONE', #295, 0.1248749999999999999 ) ;
#278 = CONICAL_SURFACE ( 'NONE', #217, 0.1100000000000004446, 0.7853981633974613796 ) ;
#279 = VERTEX_POINT ( 'NONE', #252 ) ;
#280 = DIRECTION ( 'NONE',  ( -1.224646799147353454E-16, -0.0000000000000000000, -1.000000000000000000 ) ) ;
#281 = ORIENTED_EDGE ( 'NONE', *, *, #63, .F. ) ;
#282 = DIRECTION ( 'NONE',  ( 1.000000000000000000, 0.0000000000000000000, 0.0000000000000000000 ) ) ;
#283 = ORIENTED_EDGE ( 'NONE', *, *, #238, .T. ) ;
#284 = AXIS2_PLACEMENT_3D ( 'NONE', #285, #124, #287 ) ;
#285 = CARTESIAN_POINT ( 'NONE',  ( 1.224646799147353454E-16, 0.0000000000000000000, 1.000000000000000000 ) ) ;
#286 = DIRECTION ( 'NONE',  ( -1.224646799147353454E-16, -0.0000000000000000000, -1.000000000000000000 ) ) ;
#287 = DIRECTION ( 'NONE',  ( -1.000000000000000000, 0.0000000000000000000, 0.0000000000000000000 ) ) ;
#288 = CARTESIAN_POINT ( 'NONE',  ( 1.225514963788285454E-16, 0.0000000000000000000, 1.000708910227452009 ) ) ;
#289 = DIRECTION ( 'NONE',  ( 1.000000000000000000, 0.0000000000000000000, 0.0000000000000000000 ) ) ;
#290 = ADVANCED_FACE ( 'NONE', ( #318 ), #278, .T. ) ;
#291 = DIRECTION ( 'NONE',  ( -0.0000000000000000000, -0.0000000000000000000, -1.000000000000000000 ) ) ;
#292 = FACE_OUTER_BOUND ( 'NONE', #14, .T. ) ;
#293 = EDGE_LOOP ( 'NONE', ( #219, #24, #322 ) ) ;
#294 = FACE_OUTER_BOUND ( 'NONE', #135, .T. ) ;
#295 = AXIS2_PLACEMENT_3D ( 'NONE', #184, #286, #158 ) ;
#296 =( LENGTH_UNIT ( ) NAMED_UNIT ( * ) SI_UNIT ( $, .METRE. ) );
#297 =( NAMED_UNIT ( * ) SI_UNIT ( $, .STERADIAN. ) SOLID_ANGLE_UNIT ( ) );
#298 = EDGE_CURVE ( 'NONE', #23, #116, #112, .T. ) ;
#299 = EDGE_LOOP ( 'NONE', ( #159, #149, #272, #37 ) ) ;
#300 = AXIS2_PLACEMENT_3D ( 'NONE', #61, #291, #264 ) ;
#301 = DIRECTION ( 'NONE',  ( 0.0000000000000000000, 0.0000000000000000000, -1.000000000000000000 ) ) ;
#302 = ORIENTED_EDGE ( 'NONE', *, *, #86, .F. ) ;
#303 =( LENGTH_UNIT ( ) NAMED_UNIT ( * ) SI_UNIT ( $, .METRE. ) );
#304 = DIRECTION ( 'NONE',  ( 0.1736481776669313304, 0.0000000000000000000, 0.9848077530122077983 ) ) ;
#305 = EDGE_CURVE ( 'NONE', #114, #165, #228, .T. ) ;
#306 = PRESENTATION_LAYER_ASSIGNMENT (  '', '', ( #8 ) ) ;
#307 = CARTESIAN_POINT ( 'NONE',  ( 0.0000000000000000000, 0.0000000000000000000, 0.0000000000000000000 ) ) ;
#308 = DIRECTION ( 'NONE',  ( 1.000000000000000000, 0.0000000000000000000, -0.0000000000000000000 ) ) ;
#309 = PRESENTATION_STYLE_ASSIGNMENT (( #9 ) ) ;
#310 = DIRECTION ( 'NONE',  ( 0.0000000000000000000, 0.0000000000000000000, -1.000000000000000000 ) ) ;
#311 = CARTESIAN_POINT ( 'NONE',  ( 0.1248749999999999999, 0.0000000000000000000, 0.05172491860133975050 ) ) ;
#312 = FACE_OUTER_BOUND ( 'NONE', #101, .T. ) ;
#313 = DIRECTION ( 'NONE',  ( 1.000000000000000000, 0.0000000000000000000, 0.0000000000000000000 ) ) ;
#314 = LINE ( 'NONE', #60, #265 ) ;
#315 = ORIENTED_EDGE ( 'NONE', *, *, #323, .F. ) ;
#316 = CARTESIAN_POINT ( 'NONE',  ( 0.0000000000000000000, 0.0000000000000000000, 0.0000000000000000000 ) ) ;
#317 = EDGE_CURVE ( 'NONE', #279, #244, #186, .T. ) ;
#318 = FACE_OUTER_BOUND ( 'NONE', #299, .T. ) ;
#319 = EDGE_LOOP ( 'NONE', ( #194, #99, #21, #231 ) ) ;
#320 = VECTOR ( 'NONE', #43, 39.37007874015748143 ) ;
#321 = ORIENTED_EDGE ( 'NONE', *, *, #203, .T. ) ;
#322 = ORIENTED_EDGE ( 'NONE', *, *, #58, .T. ) ;
#323 = EDGE_CURVE ( 'NONE', #126, #165, #273, .T. ) ;
ENDSEC;
END-ISO-10303-21;
