ISO-10303-21;
HEADER;
FILE_DESCRIPTION (( 'STEP AP214' ),
    '1' );
FILE_NAME ('48760.STEP',
    '2023-06-22T22:04:42',
    ( '' ),
    ( '' ),
    'SwSTEP 2.0',
    'SolidWorks 2023',
    '' );
FILE_SCHEMA (( 'AUTOMOTIVE_DESIGN' ));
ENDSEC;

DATA;
#1 = DIMENSIONAL_EXPONENTS ( 1.000000000000000000, 0.000000000000000000, 0.000000000000000000, 0.000000000000000000, 0.000000000000000000, 0.000000000000000000, 0.000000000000000000 ) ;
#2 =( CONVERSION_BASED_UNIT ( 'INCH', #52 ) LENGTH_UNIT ( ) NAMED_UNIT ( #242 ) );
#3 =( GEOMETRIC_REPRESENTATION_CONTEXT ( 3 ) GLOBAL_UNCERTAINTY_ASSIGNED_CONTEXT ( ( #15 ) ) GLOBAL_UNIT_ASSIGNED_CONTEXT ( ( #196, #223, #281 ) ) REPRESENTATION_CONTEXT ( 'NONE', 'WORKASPACE' ) );
#4 = VECTOR ( 'NONE', #59, 39.37007874015748143 ) ;
#5 = CARTESIAN_POINT ( 'NONE',  ( 0.000000000000000000, 0.000000000000000000, 0.000000000000000000 ) ) ;
#6 = ORIENTED_EDGE ( 'NONE', *, *, #207, .F. ) ;
#7 = APPLICATION_PROTOCOL_DEFINITION ( 'draft international standard', 'automotive_design', 1998, #14 ) ;
#8 = DIRECTION ( 'NONE',  ( -1.000000000000000000, 0.000000000000000000, 0.000000000000000000 ) ) ;
#9 = STYLED_ITEM ( 'NONE', ( #273 ), #40 ) ;
#10 =( GEOMETRIC_REPRESENTATION_CONTEXT ( 3 ) GLOBAL_UNCERTAINTY_ASSIGNED_CONTEXT ( ( #87 ) ) GLOBAL_UNIT_ASSIGNED_CONTEXT ( ( #184, #92, #30 ) ) REPRESENTATION_CONTEXT ( 'NONE', 'WORKASPACE' ) );
#11 = PRESENTATION_STYLE_ASSIGNMENT (( #147 ) ) ;
#12 = DIRECTION ( 'NONE',  ( -0.000000000000000000, -1.000000000000000000, -0.000000000000000000 ) ) ;
#13 = ADVANCED_BREP_SHAPE_REPRESENTATION ( '48760', ( #133, #40, #136 ), #160 ) ;
#14 = APPLICATION_CONTEXT ( 'automotive_design' ) ;
#15 = UNCERTAINTY_MEASURE_WITH_UNIT (LENGTH_MEASURE( 1.000000000000000082E-05 ), #196, 'distance_accuracy_value', 'NONE');
#16 =( GEOMETRIC_REPRESENTATION_CONTEXT ( 3 ) GLOBAL_UNCERTAINTY_ASSIGNED_CONTEXT ( ( #239 ) ) GLOBAL_UNIT_ASSIGNED_CONTEXT ( ( #183, #303, #28 ) ) REPRESENTATION_CONTEXT ( 'NONE', 'WORKASPACE' ) );
#17 = AXIS2_PLACEMENT_3D ( 'NONE', #18, #90, #64 ) ;
#18 = CARTESIAN_POINT ( 'NONE',  ( 0.000000000000000000, 0.000000000000000000, 0.000000000000000000 ) ) ;
#19 =( CONVERSION_BASED_UNIT ( 'INCH', #234 ) LENGTH_UNIT ( ) NAMED_UNIT ( #76 ) );
#20 = CARTESIAN_POINT ( 'NONE',  ( -0.5000000000000002220, 6.000000000000000888, 0.000000000000000000 ) ) ;
#21 = EDGE_CURVE ( 'NONE', #100, #182, #209, .T. ) ;
#22 = CARTESIAN_POINT ( 'NONE',  ( 0.4999999999999999445, 6.000000000000000888, 6.123233995736767268E-17 ) ) ;
#23 =( NAMED_UNIT ( * ) SI_UNIT ( $, .STERADIAN. ) SOLID_ANGLE_UNIT ( ) );
#24 = ORIENTED_EDGE ( 'NONE', *, *, #110, .T. ) ;
#25 = APPLICATION_CONTEXT ( 'automotive_design' ) ;
#26 = FACE_OUTER_BOUND ( 'NONE', #140, .T. ) ;
#27 = STYLED_ITEM ( 'NONE', ( #11 ), #129 ) ;
#28 =( NAMED_UNIT ( * ) SI_UNIT ( $, .STERADIAN. ) SOLID_ANGLE_UNIT ( ) );
#29 = FILL_AREA_STYLE_COLOUR ( '', #186 ) ;
#30 =( NAMED_UNIT ( * ) SI_UNIT ( $, .STERADIAN. ) SOLID_ANGLE_UNIT ( ) );
#31 = COLOUR_RGB ( '',1.000000000000000000, 0.000000000000000000, 0.000000000000000000 ) ;
#32 = VECTOR ( 'NONE', #206, 39.37007874015748143 ) ;
#33 = CARTESIAN_POINT ( 'NONE',  ( 0.000000000000000000, 3.250000000000000000, 0.000000000000000000 ) ) ;
#34 = ORIENTED_EDGE ( 'NONE', *, *, #279, .T. ) ;
#35 = CARTESIAN_POINT ( 'NONE',  ( 0.000000000000000000, 3.250000000000000000, 0.000000000000000000 ) ) ;
#36 = FACE_OUTER_BOUND ( 'NONE', #117, .T. ) ;
#37 = DIRECTION ( 'NONE',  ( -1.000000000000000000, 0.000000000000000000, 0.000000000000000000 ) ) ;
#38 = LENGTH_MEASURE_WITH_UNIT ( LENGTH_MEASURE( 0.02539999999999999897 ), #108 );
#39 = COLOUR_RGB ( '',1.000000000000000000, 0.000000000000000000, 0.000000000000000000 ) ;
#40 = MANIFOLD_SOLID_BREP ( 'Revolve - Tool Body (Straight Shanked)', #165 ) ;
#41 = CARTESIAN_POINT ( 'NONE',  ( 0.000000000000000000, 3.250000000000000000, 0.000000000000000000 ) ) ;
#42 = LENGTH_MEASURE_WITH_UNIT ( LENGTH_MEASURE( 0.02539999999999999897 ), #93 );
#43 = PRESENTATION_LAYER_ASSIGNMENT (  '', '', ( #181 ) ) ;
#44 = PRODUCT_DEFINITION_FORMATION_WITH_SPECIFIED_SOURCE ( 'ANY', '', #214, .NOT_KNOWN. ) ;
#45 = ADVANCED_FACE ( 'NONE', ( #26 ), #159, .T. ) ;
#46 = AXIS2_PLACEMENT_3D ( 'NONE', #5, #194, #127 ) ;
#47 = VERTEX_POINT ( 'NONE', #289 ) ;
#48 = CARTESIAN_POINT ( 'NONE',  ( -0.5000000000000002220, 6.000000000000000888, 0.000000000000000000 ) ) ;
#49 = FILL_AREA_STYLE ('',( #258 ) ) ;
#50 = EDGE_LOOP ( 'NONE', ( #102, #243 ) ) ;
#51 = SURFACE_STYLE_FILL_AREA ( #260 ) ;
#52 = LENGTH_MEASURE_WITH_UNIT ( LENGTH_MEASURE( 0.02539999999999999897 ), #178 );
#53 = ORIENTED_EDGE ( 'NONE', *, *, #104, .F. ) ;
#54 =( GEOMETRIC_REPRESENTATION_CONTEXT ( 3 ) GLOBAL_UNCERTAINTY_ASSIGNED_CONTEXT ( ( #89 ) ) GLOBAL_UNIT_ASSIGNED_CONTEXT ( ( #2, #267, #176 ) ) REPRESENTATION_CONTEXT ( 'NONE', 'WORKASPACE' ) );
#55 = CIRCLE ( 'NONE', #67, 0.5000000000000000000 ) ;
#56 = VERTEX_POINT ( 'NONE', #101 ) ;
#57 = PRESENTATION_STYLE_ASSIGNMENT (( #293 ) ) ;
#58 = LINE ( 'NONE', #79, #4 ) ;
#59 = DIRECTION ( 'NONE',  ( -0.000000000000000000, -1.000000000000000000, -0.000000000000000000 ) ) ;
#60 = DIRECTION ( 'NONE',  ( -4.453261087808560759E-17, 1.000000000000000000, -0.000000000000000000 ) ) ;
#61 = PRESENTATION_LAYER_ASSIGNMENT (  '', '', ( #9 ) ) ;
#62 = DIRECTION ( 'NONE',  ( -4.453261087808560759E-17, 1.000000000000000000, -0.000000000000000000 ) ) ;
#63 = ORIENTED_EDGE ( 'NONE', *, *, #295, .F. ) ;
#64 = DIRECTION ( 'NONE',  ( 0.000000000000000000, 0.000000000000000000, -1.000000000000000000 ) ) ;
#65 = CLOSED_SHELL ( 'NONE', ( #129, #157, #122, #261 ) ) ;
#66 = FILL_AREA_STYLE_COLOUR ( '', #98 ) ;
#67 = AXIS2_PLACEMENT_3D ( 'NONE', #33, #124, #221 ) ;
#68 = ORIENTED_EDGE ( 'NONE', *, *, #170, .F. ) ;
#69 =( LENGTH_UNIT ( ) NAMED_UNIT ( * ) SI_UNIT ( $, .METRE. ) );
#70 = SURFACE_STYLE_FILL_AREA ( #278 ) ;
#71 = AXIS2_PLACEMENT_3D ( 'NONE', #271, #153, #245 ) ;
#72 = PRESENTATION_LAYER_ASSIGNMENT (  '', '', ( #253 ) ) ;
#73 = CARTESIAN_POINT ( 'NONE',  ( 4.957883579047472087E-34, 3.250000000000000000, 0.000000000000000000 ) ) ;
#74 = VERTEX_POINT ( 'NONE', #173 ) ;
#75 = AXIS2_PLACEMENT_3D ( 'NONE', #272, #179, #246 ) ;
#76 = DIMENSIONAL_EXPONENTS ( 1.000000000000000000, 0.000000000000000000, 0.000000000000000000, 0.000000000000000000, 0.000000000000000000, 0.000000000000000000, 0.000000000000000000 ) ;
#77 = DIRECTION ( 'NONE',  ( 0.000000000000000000, 0.000000000000000000, 1.000000000000000000 ) ) ;
#78 = ORIENTED_EDGE ( 'NONE', *, *, #198, .F. ) ;
#79 = CARTESIAN_POINT ( 'NONE',  ( 0.000000000000000000, 0.000000000000000000, -0.5000000000000000000 ) ) ;
#80 = MECHANICAL_DESIGN_GEOMETRIC_PRESENTATION_REPRESENTATION (  '', ( #9 ), #16 ) ;
#81 = UNCERTAINTY_MEASURE_WITH_UNIT (LENGTH_MEASURE( 1.000000000000000082E-05 ), #135, 'distance_accuracy_value', 'NONE');
#82 = SURFACE_STYLE_FILL_AREA ( #201 ) ;
#83 = CARTESIAN_POINT ( 'NONE',  ( 0.000000000000000000, 0.000000000000000000, 0.000000000000000000 ) ) ;
#84 = DIRECTION ( 'NONE',  ( 0.000000000000000000, 0.000000000000000000, -1.000000000000000000 ) ) ;
#85 = AXIS2_PLACEMENT_3D ( 'NONE', #276, #62, #227 ) ;
#86 = CIRCLE ( 'NONE', #114, 0.5000000000000000000 ) ;
#87 = UNCERTAINTY_MEASURE_WITH_UNIT (LENGTH_MEASURE( 1.000000000000000082E-05 ), #184, 'distance_accuracy_value', 'NONE');
#88 = DIRECTION ( 'NONE',  ( -0.000000000000000000, -1.000000000000000000, -0.000000000000000000 ) ) ;
#89 = UNCERTAINTY_MEASURE_WITH_UNIT (LENGTH_MEASURE( 1.000000000000000082E-05 ), #2, 'distance_accuracy_value', 'NONE');
#90 = DIRECTION ( 'NONE',  ( 0.000000000000000000, -1.000000000000000000, -0.000000000000000000 ) ) ;
#91 = MECHANICAL_DESIGN_GEOMETRIC_PRESENTATION_REPRESENTATION (  '', ( #253 ), #257 ) ;
#92 =( NAMED_UNIT ( * ) PLANE_ANGLE_UNIT ( ) SI_UNIT ( $, .RADIAN. ) );
#93 =( LENGTH_UNIT ( ) NAMED_UNIT ( * ) SI_UNIT ( $, .METRE. ) );
#94 = DIRECTION ( 'NONE',  ( 0.000000000000000000, 0.000000000000000000, -1.000000000000000000 ) ) ;
#95 = VERTEX_POINT ( 'NONE', #191 ) ;
#96 = ORIENTED_EDGE ( 'NONE', *, *, #241, .T. ) ;
#97 = FILL_AREA_STYLE_COLOUR ( '', #39 ) ;
#98 = COLOUR_RGB ( '',0.7921568627450980005, 0.8196078431372548767, 0.9333333333333333481 ) ;
#99 = AXIS2_PLACEMENT_3D ( 'NONE', #149, #240, #37 ) ;
#100 = VERTEX_POINT ( 'NONE', #211 ) ;
#101 = CARTESIAN_POINT ( 'NONE',  ( 0.000000000000000000, 0.000000000000000000, -0.5000000000000000000 ) ) ;
#102 = ORIENTED_EDGE ( 'NONE', *, *, #170, .T. ) ;
#103 = AXIS2_PLACEMENT_3D ( 'NONE', #130, #225, #8 ) ;
#104 = EDGE_CURVE ( 'NONE', #95, #74, #247, .T. ) ;
#105 = FILL_AREA_STYLE_COLOUR ( '', #232 ) ;
#106 = PLANE ( 'NONE',  #228 ) ;
#107 = DIMENSIONAL_EXPONENTS ( 1.000000000000000000, 0.000000000000000000, 0.000000000000000000, 0.000000000000000000, 0.000000000000000000, 0.000000000000000000, 0.000000000000000000 ) ;
#108 =( LENGTH_UNIT ( ) NAMED_UNIT ( * ) SI_UNIT ( $, .METRE. ) );
#109 = MECHANICAL_DESIGN_GEOMETRIC_PRESENTATION_REPRESENTATION (  '', ( #181 ), #10 ) ;
#110 = EDGE_CURVE ( 'NONE', #47, #100, #283, .T. ) ;
#111 = LENGTH_MEASURE_WITH_UNIT ( LENGTH_MEASURE( 0.02539999999999999897 ), #69 );
#112 = FACE_OUTER_BOUND ( 'NONE', #190, .T. ) ;
#113 = CARTESIAN_POINT ( 'NONE',  ( 6.123233995736766036E-17, 0.000000000000000000, 0.5000000000000000000 ) ) ;
#114 = AXIS2_PLACEMENT_3D ( 'NONE', #142, #12, #84 ) ;
#115 = SURFACE_SIDE_STYLE ('',( #70 ) ) ;
#116 = CYLINDRICAL_SURFACE ( 'NONE', #71, 0.5000000000000000000 ) ;
#117 = EDGE_LOOP ( 'NONE', ( #203, #217, #68, #251 ) ) ;
#118 = ADVANCED_FACE ( 'NONE', ( #307 ), #284, .F. ) ;
#119 = VECTOR ( 'NONE', #88, 39.37007874015748143 ) ;
#120 = DIRECTION ( 'NONE',  ( -4.453261087808560759E-17, 1.000000000000000000, -0.000000000000000000 ) ) ;
#121 = PRODUCT_DEFINITION_CONTEXT ( 'detailed design', #25, 'design' ) ;
#122 = ADVANCED_FACE ( 'NONE', ( #168 ), #116, .T. ) ;
#123 = SHAPE_DEFINITION_REPRESENTATION ( #254, #13 ) ;
#124 = DIRECTION ( 'NONE',  ( -0.000000000000000000, -1.000000000000000000, -0.000000000000000000 ) ) ;
#125 = CARTESIAN_POINT ( 'NONE',  ( 0.000000000000000000, 0.000000000000000000, 0.000000000000000000 ) ) ;
#126 =( LENGTH_UNIT ( ) NAMED_UNIT ( * ) SI_UNIT ( $, .METRE. ) );
#127 = DIRECTION ( 'NONE',  ( 0.000000000000000000, 0.000000000000000000, -1.000000000000000000 ) ) ;
#128 = CYLINDRICAL_SURFACE ( 'NONE', #218, 0.5000000000000000000 ) ;
#129 = ADVANCED_FACE ( 'NONE', ( #36 ), #128, .T. ) ;
#130 = CARTESIAN_POINT ( 'NONE',  ( 0.000000000000000000, 3.250000000000000000, 0.000000000000000000 ) ) ;
#131 = DIRECTION ( 'NONE',  ( 1.000000000000000000, 0.000000000000000000, 0.000000000000000000 ) ) ;
#132 = DIMENSIONAL_EXPONENTS ( 1.000000000000000000, 0.000000000000000000, 0.000000000000000000, 0.000000000000000000, 0.000000000000000000, 0.000000000000000000, 0.000000000000000000 ) ;
#133 = MANIFOLD_SOLID_BREP ( 'Revolve - Cutting Edge', #65 ) ;
#134 = ORIENTED_EDGE ( 'NONE', *, *, #166, .F. ) ;
#135 =( CONVERSION_BASED_UNIT ( 'INCH', #42 ) LENGTH_UNIT ( ) NAMED_UNIT ( #1 ) );
#136 = AXIS2_PLACEMENT_3D ( 'NONE', #125, #77, #131 ) ;
#137 =( LENGTH_UNIT ( ) NAMED_UNIT ( * ) SI_UNIT ( $, .METRE. ) );
#138 = SURFACE_SIDE_STYLE ('',( #301 ) ) ;
#139 = LINE ( 'NONE', #20, #32 ) ;
#140 = EDGE_LOOP ( 'NONE', ( #224, #270, #34, #169 ) ) ;
#141 = VERTEX_POINT ( 'NONE', #215 ) ;
#142 = CARTESIAN_POINT ( 'NONE',  ( 0.000000000000000000, 0.000000000000000000, 0.000000000000000000 ) ) ;
#143 = DIRECTION ( 'NONE',  ( -1.000000000000000000, -4.453261087808560759E-17, 0.000000000000000000 ) ) ;
#144 = ORIENTED_EDGE ( 'NONE', *, *, #166, .T. ) ;
#145 = SURFACE_SIDE_STYLE ('',( #51 ) ) ;
#146 = EDGE_LOOP ( 'NONE', ( #235, #262 ) ) ;
#147 = SURFACE_STYLE_USAGE ( .BOTH. , #219 ) ;
#148 = DIRECTION ( 'NONE',  ( 0.000000000000000000, 1.000000000000000000, 0.000000000000000000 ) ) ;
#149 = CARTESIAN_POINT ( 'NONE',  ( -1.224646799147354440E-16, 6.000000000000000888, 0.000000000000000000 ) ) ;
#150 = ORIENTED_EDGE ( 'NONE', *, *, #185, .F. ) ;
#151 = APPLICATION_PROTOCOL_DEFINITION ( 'draft international standard', 'automotive_design', 1998, #25 ) ;
#152 = SURFACE_STYLE_USAGE ( .BOTH. , #138 ) ;
#153 = DIRECTION ( 'NONE',  ( -0.000000000000000000, -1.000000000000000000, -0.000000000000000000 ) ) ;
#154 = COLOUR_RGB ( '',1.000000000000000000, 0.000000000000000000, 0.000000000000000000 ) ;
#155 = DIMENSIONAL_EXPONENTS ( 1.000000000000000000, 0.000000000000000000, 0.000000000000000000, 0.000000000000000000, 0.000000000000000000, 0.000000000000000000, 0.000000000000000000 ) ;
#156 = CARTESIAN_POINT ( 'NONE',  ( 0.5000000000000000000, 6.000000000000000888, 0.000000000000000000 ) ) ;
#157 = ADVANCED_FACE ( 'NONE', ( #112 ), #212, .T. ) ;
#158 = PRESENTATION_STYLE_ASSIGNMENT (( #200 ) ) ;
#159 = CYLINDRICAL_SURFACE ( 'NONE', #171, 0.5000000000000001110 ) ;
#160 =( GEOMETRIC_REPRESENTATION_CONTEXT ( 3 ) GLOBAL_UNCERTAINTY_ASSIGNED_CONTEXT ( ( #292 ) ) GLOBAL_UNIT_ASSIGNED_CONTEXT ( ( #19, #208, #304 ) ) REPRESENTATION_CONTEXT ( 'NONE', 'WORKASPACE' ) );
#161 = FILL_AREA_STYLE ('',( #66 ) ) ;
#162 = EDGE_CURVE ( 'NONE', #182, #100, #238, .T. ) ;
#163 = CARTESIAN_POINT ( 'NONE',  ( -1.224646799147354440E-16, 6.000000000000000888, 0.000000000000000000 ) ) ;
#164 = PLANE ( 'NONE',  #17 ) ;
#165 = CLOSED_SHELL ( 'NONE', ( #180, #118, #45, #236 ) ) ;
#166 = EDGE_CURVE ( 'NONE', #74, #95, #55, .T. ) ;
#167 = MECHANICAL_DESIGN_GEOMETRIC_PRESENTATION_REPRESENTATION (  '', ( #188 ), #193 ) ;
#168 = FACE_OUTER_BOUND ( 'NONE', #195, .T. ) ;
#169 = ORIENTED_EDGE ( 'NONE', *, *, #21, .F. ) ;
#170 = EDGE_CURVE ( 'NONE', #56, #285, #199, .T. ) ;
#171 = AXIS2_PLACEMENT_3D ( 'NONE', #163, #120, #192 ) ;
#172 = UNCERTAINTY_MEASURE_WITH_UNIT (LENGTH_MEASURE( 1.000000000000000082E-05 ), #298, 'distance_accuracy_value', 'NONE');
#173 = CARTESIAN_POINT ( 'NONE',  ( 6.123233995736766036E-17, 3.250000000000000000, 0.5000000000000000000 ) ) ;
#174 =( NAMED_UNIT ( * ) SI_UNIT ( $, .STERADIAN. ) SOLID_ANGLE_UNIT ( ) );
#175 = SURFACE_SIDE_STYLE ('',( #263 ) ) ;
#176 =( NAMED_UNIT ( * ) SI_UNIT ( $, .STERADIAN. ) SOLID_ANGLE_UNIT ( ) );
#177 = PRODUCT_DEFINITION ( 'UNKNOWN', '', #44, #121 ) ;
#178 =( LENGTH_UNIT ( ) NAMED_UNIT ( * ) SI_UNIT ( $, .METRE. ) );
#179 = DIRECTION ( 'NONE',  ( -4.453261087808560759E-17, 1.000000000000000000, -0.000000000000000000 ) ) ;
#180 = ADVANCED_FACE ( 'NONE', ( #197 ), #294, .T. ) ;
#181 = STYLED_ITEM ( 'NONE', ( #158 ), #133 ) ;
#182 = VERTEX_POINT ( 'NONE', #48 ) ;
#183 =( CONVERSION_BASED_UNIT ( 'INCH', #256 ) LENGTH_UNIT ( ) NAMED_UNIT ( #107 ) );
#184 =( CONVERSION_BASED_UNIT ( 'INCH', #111 ) LENGTH_UNIT ( ) NAMED_UNIT ( #288 ) );
#185 = EDGE_CURVE ( 'NONE', #47, #141, #248, .T. ) ;
#186 = COLOUR_RGB ( '',0.7921568627450980005, 0.8196078431372548767, 0.9333333333333333481 ) ;
#187 = SURFACE_STYLE_USAGE ( .BOTH. , #115 ) ;
#188 = STYLED_ITEM ( 'NONE', ( #226 ), #157 ) ;
#189 = DIRECTION ( 'NONE',  ( -4.453261087808560759E-17, 1.000000000000000000, 0.000000000000000000 ) ) ;
#190 = EDGE_LOOP ( 'NONE', ( #53, #134 ) ) ;
#191 = CARTESIAN_POINT ( 'NONE',  ( 0.000000000000000000, 3.250000000000000000, -0.5000000000000000000 ) ) ;
#192 = DIRECTION ( 'NONE',  ( -1.000000000000000000, 0.000000000000000000, 0.000000000000000000 ) ) ;
#193 =( GEOMETRIC_REPRESENTATION_CONTEXT ( 3 ) GLOBAL_UNCERTAINTY_ASSIGNED_CONTEXT ( ( #172 ) ) GLOBAL_UNIT_ASSIGNED_CONTEXT ( ( #298, #296, #174 ) ) REPRESENTATION_CONTEXT ( 'NONE', 'WORKASPACE' ) );
#194 = DIRECTION ( 'NONE',  ( -0.000000000000000000, -1.000000000000000000, -0.000000000000000000 ) ) ;
#195 = EDGE_LOOP ( 'NONE', ( #63, #144, #96, #78 ) ) ;
#196 =( CONVERSION_BASED_UNIT ( 'INCH', #244 ) LENGTH_UNIT ( ) NAMED_UNIT ( #132 ) );
#197 = FACE_OUTER_BOUND ( 'NONE', #266, .T. ) ;
#198 = EDGE_CURVE ( 'NONE', #285, #56, #86, .T. ) ;
#199 = CIRCLE ( 'NONE', #46, 0.5000000000000000000 ) ;
#200 = SURFACE_STYLE_USAGE ( .BOTH. , #175 ) ;
#201 = FILL_AREA_STYLE ('',( #105 ) ) ;
#202 =( LENGTH_UNIT ( ) NAMED_UNIT ( * ) SI_UNIT ( $, .METRE. ) );
#203 = ORIENTED_EDGE ( 'NONE', *, *, #104, .T. ) ;
#204 = FACE_OUTER_BOUND ( 'NONE', #146, .T. ) ;
#205 = MECHANICAL_DESIGN_GEOMETRIC_PRESENTATION_REPRESENTATION (  '', ( #282 ), #54 ) ;
#206 = DIRECTION ( 'NONE',  ( -4.453261087808560759E-17, 1.000000000000000000, -0.000000000000000000 ) ) ;
#207 = EDGE_CURVE ( 'NONE', #141, #47, #291, .T. ) ;
#208 =( NAMED_UNIT ( * ) PLANE_ANGLE_UNIT ( ) SI_UNIT ( $, .RADIAN. ) );
#209 = CIRCLE ( 'NONE', #85, 0.5000000000000001110 ) ;
#210 = AXIS2_PLACEMENT_3D ( 'NONE', #35, #148, #265 ) ;
#211 = CARTESIAN_POINT ( 'NONE',  ( 0.5000000000000000000, 6.000000000000000888, 6.123233995736767268E-17 ) ) ;
#212 = PLANE ( 'NONE',  #210 ) ;
#213 = DIRECTION ( 'NONE',  ( -4.453261087808560759E-17, 1.000000000000000000, -0.000000000000000000 ) ) ;
#214 = PRODUCT ( '48760', '48760', '', ( #222 ) ) ;
#215 = CARTESIAN_POINT ( 'NONE',  ( -0.5000000000000000000, 3.250000000000000000, 0.000000000000000000 ) ) ;
#216 = SURFACE_STYLE_FILL_AREA ( #49 ) ;
#217 = ORIENTED_EDGE ( 'NONE', *, *, #295, .T. ) ;
#218 = AXIS2_PLACEMENT_3D ( 'NONE', #83, #275, #252 ) ;
#219 = SURFACE_SIDE_STYLE ('',( #82 ) ) ;
#220 = AXIS2_PLACEMENT_3D ( 'NONE', #73, #189, #143 ) ;
#221 = DIRECTION ( 'NONE',  ( 0.000000000000000000, 0.000000000000000000, -1.000000000000000000 ) ) ;
#222 = PRODUCT_CONTEXT ( 'NONE', #14, 'mechanical' ) ;
#223 =( NAMED_UNIT ( * ) PLANE_ANGLE_UNIT ( ) SI_UNIT ( $, .RADIAN. ) );
#224 = ORIENTED_EDGE ( 'NONE', *, *, #110, .F. ) ;
#225 = DIRECTION ( 'NONE',  ( -4.453261087808560759E-17, 1.000000000000000000, -0.000000000000000000 ) ) ;
#226 = PRESENTATION_STYLE_ASSIGNMENT (( #229 ) ) ;
#227 = DIRECTION ( 'NONE',  ( -1.000000000000000000, 0.000000000000000000, 0.000000000000000000 ) ) ;
#228 = AXIS2_PLACEMENT_3D ( 'NONE', #156, #250, #297 ) ;
#229 = SURFACE_STYLE_USAGE ( .BOTH. , #145 ) ;
#230 = ORIENTED_EDGE ( 'NONE', *, *, #162, .F. ) ;
#231 = DIRECTION ( 'NONE',  ( -1.000000000000000000, 0.000000000000000000, 0.000000000000000000 ) ) ;
#232 = COLOUR_RGB ( '',1.000000000000000000, 0.000000000000000000, 0.000000000000000000 ) ;
#233 = DIRECTION ( 'NONE',  ( -0.000000000000000000, -1.000000000000000000, -0.000000000000000000 ) ) ;
#234 = LENGTH_MEASURE_WITH_UNIT ( LENGTH_MEASURE( 0.02539999999999999897 ), #137 );
#235 = ORIENTED_EDGE ( 'NONE', *, *, #162, .T. ) ;
#236 = ADVANCED_FACE ( 'NONE', ( #204 ), #106, .F. ) ;
#237 = VECTOR ( 'NONE', #213, 39.37007874015748143 ) ;
#238 = CIRCLE ( 'NONE', #99, 0.5000000000000001110 ) ;
#239 = UNCERTAINTY_MEASURE_WITH_UNIT (LENGTH_MEASURE( 1.000000000000000082E-05 ), #183, 'distance_accuracy_value', 'NONE');
#240 = DIRECTION ( 'NONE',  ( -4.453261087808560759E-17, 1.000000000000000000, -0.000000000000000000 ) ) ;
#241 = EDGE_CURVE ( 'NONE', #95, #56, #58, .T. ) ;
#242 = DIMENSIONAL_EXPONENTS ( 1.000000000000000000, 0.000000000000000000, 0.000000000000000000, 0.000000000000000000, 0.000000000000000000, 0.000000000000000000, 0.000000000000000000 ) ;
#243 = ORIENTED_EDGE ( 'NONE', *, *, #198, .T. ) ;
#244 = LENGTH_MEASURE_WITH_UNIT ( LENGTH_MEASURE( 0.02539999999999999897 ), #202 );
#245 = DIRECTION ( 'NONE',  ( 0.000000000000000000, 0.000000000000000000, -1.000000000000000000 ) ) ;
#246 = DIRECTION ( 'NONE',  ( -1.000000000000000000, 0.000000000000000000, 0.000000000000000000 ) ) ;
#247 = CIRCLE ( 'NONE', #299, 0.5000000000000000000 ) ;
#248 = CIRCLE ( 'NONE', #103, 0.5000000000000000000 ) ;
#249 = FACE_OUTER_BOUND ( 'NONE', #50, .T. ) ;
#250 = DIRECTION ( 'NONE',  ( 4.453261087808560759E-17, -1.000000000000000000, 0.000000000000000000 ) ) ;
#251 = ORIENTED_EDGE ( 'NONE', *, *, #241, .F. ) ;
#252 = DIRECTION ( 'NONE',  ( 0.000000000000000000, 0.000000000000000000, -1.000000000000000000 ) ) ;
#253 = STYLED_ITEM ( 'NONE', ( #255 ), #261 ) ;
#254 = PRODUCT_DEFINITION_SHAPE ( 'NONE', 'NONE',  #177 ) ;
#255 = PRESENTATION_STYLE_ASSIGNMENT (( #187 ) ) ;
#256 = LENGTH_MEASURE_WITH_UNIT ( LENGTH_MEASURE( 0.02539999999999999897 ), #126 );
#257 =( GEOMETRIC_REPRESENTATION_CONTEXT ( 3 ) GLOBAL_UNCERTAINTY_ASSIGNED_CONTEXT ( ( #81 ) ) GLOBAL_UNIT_ASSIGNED_CONTEXT ( ( #135, #280, #23 ) ) REPRESENTATION_CONTEXT ( 'NONE', 'WORKASPACE' ) );
#258 = FILL_AREA_STYLE_COLOUR ( '', #31 ) ;
#259 = ORIENTED_EDGE ( 'NONE', *, *, #207, .T. ) ;
#260 = FILL_AREA_STYLE ('',( #97 ) ) ;
#261 = ADVANCED_FACE ( 'NONE', ( #249 ), #164, .T. ) ;
#262 = ORIENTED_EDGE ( 'NONE', *, *, #21, .T. ) ;
#263 = SURFACE_STYLE_FILL_AREA ( #308 ) ;
#264 = PRESENTATION_LAYER_ASSIGNMENT (  '', '', ( #282 ) ) ;
#265 = DIRECTION ( 'NONE',  ( 0.000000000000000000, -0.000000000000000000, 1.000000000000000000 ) ) ;
#266 = EDGE_LOOP ( 'NONE', ( #259, #24, #230, #274 ) ) ;
#267 =( NAMED_UNIT ( * ) PLANE_ANGLE_UNIT ( ) SI_UNIT ( $, .RADIAN. ) );
#268 = MECHANICAL_DESIGN_GEOMETRIC_PRESENTATION_REPRESENTATION (  '', ( #27 ), #3 ) ;
#269 = AXIS2_PLACEMENT_3D ( 'NONE', #41, #60, #231 ) ;
#270 = ORIENTED_EDGE ( 'NONE', *, *, #185, .T. ) ;
#271 = CARTESIAN_POINT ( 'NONE',  ( 0.000000000000000000, 0.000000000000000000, 0.000000000000000000 ) ) ;
#272 = CARTESIAN_POINT ( 'NONE',  ( -1.224646799147354440E-16, 6.000000000000000888, 0.000000000000000000 ) ) ;
#273 = PRESENTATION_STYLE_ASSIGNMENT (( #152 ) ) ;
#274 = ORIENTED_EDGE ( 'NONE', *, *, #279, .F. ) ;
#275 = DIRECTION ( 'NONE',  ( -0.000000000000000000, -1.000000000000000000, -0.000000000000000000 ) ) ;
#276 = CARTESIAN_POINT ( 'NONE',  ( -1.224646799147354440E-16, 6.000000000000000888, 0.000000000000000000 ) ) ;
#277 = FILL_AREA_STYLE_COLOUR ( '', #154 ) ;
#278 = FILL_AREA_STYLE ('',( #277 ) ) ;
#279 = EDGE_CURVE ( 'NONE', #141, #182, #139, .T. ) ;
#280 =( NAMED_UNIT ( * ) PLANE_ANGLE_UNIT ( ) SI_UNIT ( $, .RADIAN. ) );
#281 =( NAMED_UNIT ( * ) SI_UNIT ( $, .STERADIAN. ) SOLID_ANGLE_UNIT ( ) );
#282 = STYLED_ITEM ( 'NONE', ( #57 ), #122 ) ;
#283 = LINE ( 'NONE', #22, #237 ) ;
#284 = PLANE ( 'NONE',  #220 ) ;
#285 = VERTEX_POINT ( 'NONE', #113 ) ;
#286 = SURFACE_SIDE_STYLE ('',( #216 ) ) ;
#287 = EDGE_LOOP ( 'NONE', ( #6, #150 ) ) ;
#288 = DIMENSIONAL_EXPONENTS ( 1.000000000000000000, 0.000000000000000000, 0.000000000000000000, 0.000000000000000000, 0.000000000000000000, 0.000000000000000000, 0.000000000000000000 ) ;
#289 = CARTESIAN_POINT ( 'NONE',  ( 0.5000000000000000000, 3.250000000000000000, 6.123233995736767268E-17 ) ) ;
#290 = PRESENTATION_LAYER_ASSIGNMENT (  '', '', ( #27 ) ) ;
#291 = CIRCLE ( 'NONE', #269, 0.5000000000000000000 ) ;
#292 = UNCERTAINTY_MEASURE_WITH_UNIT (LENGTH_MEASURE( 1.000000000000000082E-05 ), #19, 'distance_accuracy_value', 'NONE');
#293 = SURFACE_STYLE_USAGE ( .BOTH. , #286 ) ;
#294 = CYLINDRICAL_SURFACE ( 'NONE', #75, 0.5000000000000001110 ) ;
#295 = EDGE_CURVE ( 'NONE', #74, #285, #306, .T. ) ;
#296 =( NAMED_UNIT ( * ) PLANE_ANGLE_UNIT ( ) SI_UNIT ( $, .RADIAN. ) );
#297 = DIRECTION ( 'NONE',  ( 1.000000000000000000, 4.453261087808560759E-17, 0.000000000000000000 ) ) ;
#298 =( CONVERSION_BASED_UNIT ( 'INCH', #38 ) LENGTH_UNIT ( ) NAMED_UNIT ( #155 ) );
#299 = AXIS2_PLACEMENT_3D ( 'NONE', #305, #233, #94 ) ;
#300 = PRESENTATION_LAYER_ASSIGNMENT (  '', '', ( #188 ) ) ;
#301 = SURFACE_STYLE_FILL_AREA ( #161 ) ;
#302 = CARTESIAN_POINT ( 'NONE',  ( 6.123233995736766036E-17, 0.000000000000000000, 0.5000000000000000000 ) ) ;
#303 =( NAMED_UNIT ( * ) PLANE_ANGLE_UNIT ( ) SI_UNIT ( $, .RADIAN. ) );
#304 =( NAMED_UNIT ( * ) SI_UNIT ( $, .STERADIAN. ) SOLID_ANGLE_UNIT ( ) );
#305 = CARTESIAN_POINT ( 'NONE',  ( 0.000000000000000000, 3.250000000000000000, 0.000000000000000000 ) ) ;
#306 = LINE ( 'NONE', #302, #119 ) ;
#307 = FACE_OUTER_BOUND ( 'NONE', #287, .T. ) ;
#308 = FILL_AREA_STYLE ('',( #29 ) ) ;
#309 = PRODUCT_RELATED_PRODUCT_CATEGORY ( 'part', '', ( #214 ) ) ;
ENDSEC;
END-ISO-10303-21;
