ISO-10303-21;
HEADER;
FILE_DESCRIPTION (( 'STEP AP214' ),
    '1' );
FILE_NAME ('00780.STEP',
    '2023-06-22T14:16:26',
    ( '' ),
    ( '' ),
    'SwSTEP 2.0',
    'SolidWorks 2023',
    '' );
FILE_SCHEMA (( 'AUTOMOTIVE_DESIGN' ));
ENDSEC;

DATA;
#1 = CARTESIAN_POINT ( 'NONE',  ( 4.957883579047472087E-34, 3.250000000000000000, 0.000000000000000000 ) ) ;
#2 = CARTESIAN_POINT ( 'NONE',  ( -0.5000000000000002220, 6.000000000000000888, 0.000000000000000000 ) ) ;
#3 = FILL_AREA_STYLE_COLOUR ( '', #47 ) ;
#4 = EDGE_CURVE ( 'NONE', #175, #300, #218, .T. ) ;
#5 = ORIENTED_EDGE ( 'NONE', *, *, #62, .F. ) ;
#6 = ORIENTED_EDGE ( 'NONE', *, *, #36, .F. ) ;
#7 = LINE ( 'NONE', #222, #153 ) ;
#8 = ORIENTED_EDGE ( 'NONE', *, *, #287, .F. ) ;
#9 =( GEOMETRIC_REPRESENTATION_CONTEXT ( 3 ) GLOBAL_UNCERTAINTY_ASSIGNED_CONTEXT ( ( #170 ) ) GLOBAL_UNIT_ASSIGNED_CONTEXT ( ( #20, #150, #168 ) ) REPRESENTATION_CONTEXT ( 'NONE', 'WORKASPACE' ) );
#10 = SURFACE_STYLE_USAGE ( .BOTH. , #99 ) ;
#11 = DIRECTION ( 'NONE',  ( 0.000000000000000000, 0.000000000000000000, -1.000000000000000000 ) ) ;
#12 =( CONVERSION_BASED_UNIT ( 'INCH', #134 ) LENGTH_UNIT ( ) NAMED_UNIT ( #209 ) );
#13 = CLOSED_SHELL ( 'NONE', ( #245, #204, #70, #165 ) ) ;
#14 = DIRECTION ( 'NONE',  ( -4.453261087808560759E-17, 1.000000000000000000, -0.000000000000000000 ) ) ;
#15 =( NAMED_UNIT ( * ) PLANE_ANGLE_UNIT ( ) SI_UNIT ( $, .RADIAN. ) );
#16 =( CONVERSION_BASED_UNIT ( 'INCH', #133 ) LENGTH_UNIT ( ) NAMED_UNIT ( #259 ) );
#17 = SURFACE_STYLE_USAGE ( .BOTH. , #260 ) ;
#18 = CARTESIAN_POINT ( 'NONE',  ( 0.000000000000000000, 0.000000000000000000, -0.5000000000000000000 ) ) ;
#19 = PRODUCT_RELATED_PRODUCT_CATEGORY ( 'part', '', ( #53 ) ) ;
#20 =( CONVERSION_BASED_UNIT ( 'INCH', #249 ) LENGTH_UNIT ( ) NAMED_UNIT ( #21 ) );
#21 = DIMENSIONAL_EXPONENTS ( 1.000000000000000000, 0.000000000000000000, 0.000000000000000000, 0.000000000000000000, 0.000000000000000000, 0.000000000000000000, 0.000000000000000000 ) ;
#22 = PRESENTATION_STYLE_ASSIGNMENT (( #96 ) ) ;
#23 = UNCERTAINTY_MEASURE_WITH_UNIT (LENGTH_MEASURE( 1.000000000000000082E-05 ), #16, 'distance_accuracy_value', 'NONE');
#24 = CARTESIAN_POINT ( 'NONE',  ( 0.5000000000000000000, 6.000000000000000888, 6.123233995736767268E-17 ) ) ;
#25 = LENGTH_MEASURE_WITH_UNIT ( LENGTH_MEASURE( 0.02539999999999999897 ), #126 );
#26 = ORIENTED_EDGE ( 'NONE', *, *, #232, .T. ) ;
#27 = AXIS2_PLACEMENT_3D ( 'NONE', #261, #234, #141 ) ;
#28 = AXIS2_PLACEMENT_3D ( 'NONE', #283, #280, #138 ) ;
#29 = DIRECTION ( 'NONE',  ( -1.000000000000000000, 0.000000000000000000, 0.000000000000000000 ) ) ;
#30 = SURFACE_STYLE_FILL_AREA ( #128 ) ;
#31 = ORIENTED_EDGE ( 'NONE', *, *, #4, .F. ) ;
#32 = ORIENTED_EDGE ( 'NONE', *, *, #39, .F. ) ;
#33 = MECHANICAL_DESIGN_GEOMETRIC_PRESENTATION_REPRESENTATION (  '', ( #130 ), #302 ) ;
#34 = DIRECTION ( 'NONE',  ( 0.000000000000000000, 0.000000000000000000, -1.000000000000000000 ) ) ;
#35 = EDGE_LOOP ( 'NONE', ( #276, #155 ) ) ;
#36 = EDGE_CURVE ( 'NONE', #76, #254, #242, .T. ) ;
#37 = APPLICATION_PROTOCOL_DEFINITION ( 'draft international standard', 'automotive_design', 1998, #79 ) ;
#38 = CARTESIAN_POINT ( 'NONE',  ( 0.000000000000000000, 3.250000000000000000, 0.000000000000000000 ) ) ;
#39 = EDGE_CURVE ( 'NONE', #300, #123, #163, .T. ) ;
#40 = LENGTH_MEASURE_WITH_UNIT ( LENGTH_MEASURE( 0.02539999999999999897 ), #87 );
#41 =( CONVERSION_BASED_UNIT ( 'INCH', #107 ) LENGTH_UNIT ( ) NAMED_UNIT ( #187 ) );
#42 = PRESENTATION_LAYER_ASSIGNMENT (  '', '', ( #131 ) ) ;
#43 = DIRECTION ( 'NONE',  ( -4.453261087808560759E-17, 1.000000000000000000, -0.000000000000000000 ) ) ;
#44 = ADVANCED_FACE ( 'NONE', ( #210 ), #161, .T. ) ;
#45 = COLOUR_RGB ( '',1.000000000000000000, 0.000000000000000000, 0.000000000000000000 ) ;
#46 = CARTESIAN_POINT ( 'NONE',  ( 0.5000000000000000000, 3.250000000000000000, 6.123233995736767268E-17 ) ) ;
#47 = COLOUR_RGB ( '',0.7921568627450980005, 0.8196078431372548767, 0.9333333333333333481 ) ;
#48 = AXIS2_PLACEMENT_3D ( 'NONE', #169, #271, #256 ) ;
#49 = PRODUCT_DEFINITION_SHAPE ( 'NONE', 'NONE',  #241 ) ;
#50 = LINE ( 'NONE', #81, #143 ) ;
#51 = CIRCLE ( 'NONE', #137, 0.5000000000000000000 ) ;
#52 =( GEOMETRIC_REPRESENTATION_CONTEXT ( 3 ) GLOBAL_UNCERTAINTY_ASSIGNED_CONTEXT ( ( #23 ) ) GLOBAL_UNIT_ASSIGNED_CONTEXT ( ( #16, #139, #211 ) ) REPRESENTATION_CONTEXT ( 'NONE', 'WORKASPACE' ) );
#53 = PRODUCT ( '00780', '00780', '', ( #66 ) ) ;
#54 =( NAMED_UNIT ( * ) SI_UNIT ( $, .STERADIAN. ) SOLID_ANGLE_UNIT ( ) );
#55 = ORIENTED_EDGE ( 'NONE', *, *, #296, .F. ) ;
#56 = CARTESIAN_POINT ( 'NONE',  ( 0.000000000000000000, 0.000000000000000000, 0.000000000000000000 ) ) ;
#57 = EDGE_CURVE ( 'NONE', #300, #175, #59, .T. ) ;
#58 = EDGE_LOOP ( 'NONE', ( #157, #257, #84, #32 ) ) ;
#59 = CIRCLE ( 'NONE', #247, 0.5000000000000000000 ) ;
#60 = ORIENTED_EDGE ( 'NONE', *, *, #83, .T. ) ;
#61 = SURFACE_STYLE_USAGE ( .BOTH. , #117 ) ;
#62 = EDGE_CURVE ( 'NONE', #254, #76, #51, .T. ) ;
#63 = CARTESIAN_POINT ( 'NONE',  ( -0.5000000000000002220, 6.000000000000000888, 0.000000000000000000 ) ) ;
#64 = CIRCLE ( 'NONE', #208, 0.5000000000000001110 ) ;
#65 = STYLED_ITEM ( 'NONE', ( #297 ), #291 ) ;
#66 = PRODUCT_CONTEXT ( 'NONE', #92, 'mechanical' ) ;
#67 = DIRECTION ( 'NONE',  ( -1.000000000000000000, 0.000000000000000000, 0.000000000000000000 ) ) ;
#68 = LENGTH_MEASURE_WITH_UNIT ( LENGTH_MEASURE( 0.02539999999999999897 ), #263 );
#69 = FACE_OUTER_BOUND ( 'NONE', #304, .T. ) ;
#70 = ADVANCED_FACE ( 'NONE', ( #309 ), #91, .T. ) ;
#71 = FILL_AREA_STYLE ('',( #267 ) ) ;
#72 = SURFACE_STYLE_USAGE ( .BOTH. , #121 ) ;
#73 = COLOUR_RGB ( '',0.7921568627450980005, 0.8196078431372548767, 0.9333333333333333481 ) ;
#74 = FILL_AREA_STYLE ('',( #199 ) ) ;
#75 = CYLINDRICAL_SURFACE ( 'NONE', #125, 0.5000000000000001110 ) ;
#76 = VERTEX_POINT ( 'NONE', #240 ) ;
#77 = SURFACE_STYLE_USAGE ( .BOTH. , #219 ) ;
#78 = CARTESIAN_POINT ( 'NONE',  ( 0.000000000000000000, 3.250000000000000000, 0.000000000000000000 ) ) ;
#79 = APPLICATION_CONTEXT ( 'automotive_design' ) ;
#80 = AXIS2_PLACEMENT_3D ( 'NONE', #1, #145, #243 ) ;
#81 = CARTESIAN_POINT ( 'NONE',  ( 0.000000000000000000, 0.000000000000000000, -0.5000000000000000000 ) ) ;
#82 = DIRECTION ( 'NONE',  ( -0.000000000000000000, -1.000000000000000000, -0.000000000000000000 ) ) ;
#83 = EDGE_CURVE ( 'NONE', #123, #182, #64, .T. ) ;
#84 = ORIENTED_EDGE ( 'NONE', *, *, #83, .F. ) ;
#85 = PRESENTATION_STYLE_ASSIGNMENT (( #61 ) ) ;
#86 = CARTESIAN_POINT ( 'NONE',  ( 0.000000000000000000, 0.000000000000000000, 0.000000000000000000 ) ) ;
#87 =( LENGTH_UNIT ( ) NAMED_UNIT ( * ) SI_UNIT ( $, .METRE. ) );
#88 = PRESENTATION_STYLE_ASSIGNMENT (( #17 ) ) ;
#89 =( CONVERSION_BASED_UNIT ( 'INCH', #40 ) LENGTH_UNIT ( ) NAMED_UNIT ( #160 ) );
#90 = MECHANICAL_DESIGN_GEOMETRIC_PRESENTATION_REPRESENTATION (  '', ( #131 ), #116 ) ;
#91 = CYLINDRICAL_SURFACE ( 'NONE', #27, 0.5000000000000001110 ) ;
#92 = APPLICATION_CONTEXT ( 'automotive_design' ) ;
#93 = CYLINDRICAL_SURFACE ( 'NONE', #213, 0.5000000000000000000 ) ;
#94 = SURFACE_STYLE_FILL_AREA ( #295 ) ;
#95 =( NAMED_UNIT ( * ) SI_UNIT ( $, .STERADIAN. ) SOLID_ANGLE_UNIT ( ) );
#96 = SURFACE_STYLE_USAGE ( .BOTH. , #294 ) ;
#97 = FACE_OUTER_BOUND ( 'NONE', #306, .T. ) ;
#98 = STYLED_ITEM ( 'NONE', ( #85 ), #112 ) ;
#99 = SURFACE_SIDE_STYLE ('',( #30 ) ) ;
#100 = ORIENTED_EDGE ( 'NONE', *, *, #251, .F. ) ;
#101 = PLANE ( 'NONE',  #248 ) ;
#102 = EDGE_LOOP ( 'NONE', ( #223, #26, #55, #100 ) ) ;
#103 = DIRECTION ( 'NONE',  ( -0.000000000000000000, -1.000000000000000000, -0.000000000000000000 ) ) ;
#104 = ORIENTED_EDGE ( 'NONE', *, *, #4, .T. ) ;
#105 = FACE_OUTER_BOUND ( 'NONE', #200, .T. ) ;
#106 = VERTEX_POINT ( 'NONE', #18 ) ;
#107 = LENGTH_MEASURE_WITH_UNIT ( LENGTH_MEASURE( 0.02539999999999999897 ), #191 );
#108 = COLOUR_RGB ( '',1.000000000000000000, 0.000000000000000000, 0.000000000000000000 ) ;
#109 = PRODUCT_DEFINITION_FORMATION_WITH_SPECIFIED_SOURCE ( 'ANY', '', #53, .NOT_KNOWN. ) ;
#110 = DIRECTION ( 'NONE',  ( 0.000000000000000000, 0.000000000000000000, 1.000000000000000000 ) ) ;
#111 = CARTESIAN_POINT ( 'NONE',  ( -1.224646799147354440E-16, 6.000000000000000888, 0.000000000000000000 ) ) ;
#112 = MANIFOLD_SOLID_BREP ( 'Revolve - Cutting Edge', #195 ) ;
#113 = FILL_AREA_STYLE_COLOUR ( '', #264 ) ;
#114 = DIRECTION ( 'NONE',  ( 1.000000000000000000, 0.000000000000000000, 0.000000000000000000 ) ) ;
#115 = PRESENTATION_LAYER_ASSIGNMENT (  '', '', ( #130 ) ) ;
#116 =( GEOMETRIC_REPRESENTATION_CONTEXT ( 3 ) GLOBAL_UNCERTAINTY_ASSIGNED_CONTEXT ( ( #285 ) ) GLOBAL_UNIT_ASSIGNED_CONTEXT ( ( #89, #188, #162 ) ) REPRESENTATION_CONTEXT ( 'NONE', 'WORKASPACE' ) );
#117 = SURFACE_SIDE_STYLE ('',( #281 ) ) ;
#118 =( NAMED_UNIT ( * ) PLANE_ANGLE_UNIT ( ) SI_UNIT ( $, .RADIAN. ) );
#119 = UNCERTAINTY_MEASURE_WITH_UNIT (LENGTH_MEASURE( 1.000000000000000082E-05 ), #12, 'distance_accuracy_value', 'NONE');
#120 = FACE_OUTER_BOUND ( 'NONE', #183, .T. ) ;
#121 = SURFACE_SIDE_STYLE ('',( #94 ) ) ;
#122 = CARTESIAN_POINT ( 'NONE',  ( -0.5000000000000000000, 3.250000000000000000, 0.000000000000000000 ) ) ;
#123 = VERTEX_POINT ( 'NONE', #2 ) ;
#124 = PRESENTATION_LAYER_ASSIGNMENT (  '', '', ( #142 ) ) ;
#125 = AXIS2_PLACEMENT_3D ( 'NONE', #132, #154, #29 ) ;
#126 =( LENGTH_UNIT ( ) NAMED_UNIT ( * ) SI_UNIT ( $, .METRE. ) );
#127 = ORIENTED_EDGE ( 'NONE', *, *, #62, .T. ) ;
#128 = FILL_AREA_STYLE ('',( #173 ) ) ;
#129 = ORIENTED_EDGE ( 'NONE', *, *, #251, .T. ) ;
#130 = STYLED_ITEM ( 'NONE', ( #246 ), #224 ) ;
#131 = STYLED_ITEM ( 'NONE', ( #176 ), #301 ) ;
#132 = CARTESIAN_POINT ( 'NONE',  ( -1.224646799147354440E-16, 6.000000000000000888, 0.000000000000000000 ) ) ;
#133 = LENGTH_MEASURE_WITH_UNIT ( LENGTH_MEASURE( 0.02539999999999999897 ), #233 );
#134 = LENGTH_MEASURE_WITH_UNIT ( LENGTH_MEASURE( 0.02539999999999999897 ), #237 );
#135 = SHAPE_DEFINITION_REPRESENTATION ( #49, #184 ) ;
#136 = DIRECTION ( 'NONE',  ( -0.000000000000000000, -1.000000000000000000, -0.000000000000000000 ) ) ;
#137 = AXIS2_PLACEMENT_3D ( 'NONE', #282, #136, #166 ) ;
#138 = DIRECTION ( 'NONE',  ( 0.000000000000000000, -0.000000000000000000, 1.000000000000000000 ) ) ;
#139 =( NAMED_UNIT ( * ) PLANE_ANGLE_UNIT ( ) SI_UNIT ( $, .RADIAN. ) );
#140 = ADVANCED_FACE ( 'NONE', ( #97 ), #93, .T. ) ;
#141 = DIRECTION ( 'NONE',  ( -1.000000000000000000, 0.000000000000000000, 0.000000000000000000 ) ) ;
#142 = STYLED_ITEM ( 'NONE', ( #88 ), #44 ) ;
#143 = VECTOR ( 'NONE', #103, 39.37007874015748143 ) ;
#144 = CARTESIAN_POINT ( 'NONE',  ( 0.5000000000000000000, 6.000000000000000888, 0.000000000000000000 ) ) ;
#145 = DIRECTION ( 'NONE',  ( -4.453261087808560759E-17, 1.000000000000000000, 0.000000000000000000 ) ) ;
#146 = UNCERTAINTY_MEASURE_WITH_UNIT (LENGTH_MEASURE( 1.000000000000000082E-05 ), #255, 'distance_accuracy_value', 'NONE');
#147 =( CONVERSION_BASED_UNIT ( 'INCH', #68 ) LENGTH_UNIT ( ) NAMED_UNIT ( #238 ) );
#148 = CARTESIAN_POINT ( 'NONE',  ( 6.123233995736766036E-17, 0.000000000000000000, 0.5000000000000000000 ) ) ;
#149 = CIRCLE ( 'NONE', #227, 0.5000000000000000000 ) ;
#150 =( NAMED_UNIT ( * ) PLANE_ANGLE_UNIT ( ) SI_UNIT ( $, .RADIAN. ) );
#151 = DIRECTION ( 'NONE',  ( -0.000000000000000000, -1.000000000000000000, -0.000000000000000000 ) ) ;
#152 = STYLED_ITEM ( 'NONE', ( #22 ), #140 ) ;
#153 = VECTOR ( 'NONE', #303, 39.37007874015748143 ) ;
#154 = DIRECTION ( 'NONE',  ( -4.453261087808560759E-17, 1.000000000000000000, -0.000000000000000000 ) ) ;
#155 = ORIENTED_EDGE ( 'NONE', *, *, #287, .T. ) ;
#156 =( NAMED_UNIT ( * ) SI_UNIT ( $, .STERADIAN. ) SOLID_ANGLE_UNIT ( ) );
#157 = ORIENTED_EDGE ( 'NONE', *, *, #57, .T. ) ;
#158 = DIRECTION ( 'NONE',  ( -0.000000000000000000, -1.000000000000000000, -0.000000000000000000 ) ) ;
#159 = AXIS2_PLACEMENT_3D ( 'NONE', #225, #82, #180 ) ;
#160 = DIMENSIONAL_EXPONENTS ( 1.000000000000000000, 0.000000000000000000, 0.000000000000000000, 0.000000000000000000, 0.000000000000000000, 0.000000000000000000, 0.000000000000000000 ) ;
#161 = CYLINDRICAL_SURFACE ( 'NONE', #307, 0.5000000000000000000 ) ;
#162 =( NAMED_UNIT ( * ) SI_UNIT ( $, .STERADIAN. ) SOLID_ANGLE_UNIT ( ) );
#163 = LINE ( 'NONE', #63, #278 ) ;
#164 = PRESENTATION_LAYER_ASSIGNMENT (  '', '', ( #65 ) ) ;
#165 = ADVANCED_FACE ( 'NONE', ( #120 ), #217, .F. ) ;
#166 = DIRECTION ( 'NONE',  ( 0.000000000000000000, 0.000000000000000000, -1.000000000000000000 ) ) ;
#167 = DIRECTION ( 'NONE',  ( -0.000000000000000000, -1.000000000000000000, -0.000000000000000000 ) ) ;
#168 =( NAMED_UNIT ( * ) SI_UNIT ( $, .STERADIAN. ) SOLID_ANGLE_UNIT ( ) );
#169 = CARTESIAN_POINT ( 'NONE',  ( -1.224646799147354440E-16, 6.000000000000000888, 0.000000000000000000 ) ) ;
#170 = UNCERTAINTY_MEASURE_WITH_UNIT (LENGTH_MEASURE( 1.000000000000000082E-05 ), #20, 'distance_accuracy_value', 'NONE');
#171 = SURFACE_STYLE_FILL_AREA ( #71 ) ;
#172 = PRESENTATION_LAYER_ASSIGNMENT (  '', '', ( #98 ) ) ;
#173 = FILL_AREA_STYLE_COLOUR ( '', #45 ) ;
#174 = CARTESIAN_POINT ( 'NONE',  ( 6.123233995736766036E-17, 3.250000000000000000, 0.5000000000000000000 ) ) ;
#175 = VERTEX_POINT ( 'NONE', #46 ) ;
#176 = PRESENTATION_STYLE_ASSIGNMENT (( #77 ) ) ;
#177 = DIRECTION ( 'NONE',  ( -4.453261087808560759E-17, 1.000000000000000000, -0.000000000000000000 ) ) ;
#178 = MECHANICAL_DESIGN_GEOMETRIC_PRESENTATION_REPRESENTATION (  '', ( #142 ), #189 ) ;
#179 = CARTESIAN_POINT ( 'NONE',  ( 0.000000000000000000, 0.000000000000000000, 0.000000000000000000 ) ) ;
#180 = DIRECTION ( 'NONE',  ( 0.000000000000000000, 0.000000000000000000, -1.000000000000000000 ) ) ;
#181 = DIRECTION ( 'NONE',  ( 0.000000000000000000, -1.000000000000000000, -0.000000000000000000 ) ) ;
#182 = VERTEX_POINT ( 'NONE', #24 ) ;
#183 = EDGE_LOOP ( 'NONE', ( #60, #275 ) ) ;
#184 = ADVANCED_BREP_SHAPE_REPRESENTATION ( '00780', ( #112, #224, #190 ), #52 ) ;
#185 = FILL_AREA_STYLE ('',( #258 ) ) ;
#186 = DIRECTION ( 'NONE',  ( -4.453261087808560759E-17, 1.000000000000000000, -0.000000000000000000 ) ) ;
#187 = DIMENSIONAL_EXPONENTS ( 1.000000000000000000, 0.000000000000000000, 0.000000000000000000, 0.000000000000000000, 0.000000000000000000, 0.000000000000000000, 0.000000000000000000 ) ;
#188 =( NAMED_UNIT ( * ) PLANE_ANGLE_UNIT ( ) SI_UNIT ( $, .RADIAN. ) );
#189 =( GEOMETRIC_REPRESENTATION_CONTEXT ( 3 ) GLOBAL_UNCERTAINTY_ASSIGNED_CONTEXT ( ( #266 ) ) GLOBAL_UNIT_ASSIGNED_CONTEXT ( ( #41, #207, #290 ) ) REPRESENTATION_CONTEXT ( 'NONE', 'WORKASPACE' ) );
#190 = AXIS2_PLACEMENT_3D ( 'NONE', #288, #110, #114 ) ;
#191 =( LENGTH_UNIT ( ) NAMED_UNIT ( * ) SI_UNIT ( $, .METRE. ) );
#192 = AXIS2_PLACEMENT_3D ( 'NONE', #78, #177, #274 ) ;
#193 = DIRECTION ( 'NONE',  ( 0.000000000000000000, 0.000000000000000000, -1.000000000000000000 ) ) ;
#194 =( LENGTH_UNIT ( ) NAMED_UNIT ( * ) SI_UNIT ( $, .METRE. ) );
#195 = CLOSED_SHELL ( 'NONE', ( #44, #301, #140, #291 ) ) ;
#196 = PLANE ( 'NONE',  #80 ) ;
#197 = FACE_OUTER_BOUND ( 'NONE', #58, .T. ) ;
#198 = ORIENTED_EDGE ( 'NONE', *, *, #232, .F. ) ;
#199 = FILL_AREA_STYLE_COLOUR ( '', #236 ) ;
#200 = EDGE_LOOP ( 'NONE', ( #6, #5 ) ) ;
#201 =( NAMED_UNIT ( * ) PLANE_ANGLE_UNIT ( ) SI_UNIT ( $, .RADIAN. ) );
#202 = PRESENTATION_LAYER_ASSIGNMENT (  '', '', ( #152 ) ) ;
#203 = ORIENTED_EDGE ( 'NONE', *, *, #228, .F. ) ;
#204 = ADVANCED_FACE ( 'NONE', ( #69 ), #196, .F. ) ;
#205 = PLANE ( 'NONE',  #28 ) ;
#206 = ORIENTED_EDGE ( 'NONE', *, *, #262, .F. ) ;
#207 =( NAMED_UNIT ( * ) PLANE_ANGLE_UNIT ( ) SI_UNIT ( $, .RADIAN. ) );
#208 = AXIS2_PLACEMENT_3D ( 'NONE', #111, #14, #67 ) ;
#209 = DIMENSIONAL_EXPONENTS ( 1.000000000000000000, 0.000000000000000000, 0.000000000000000000, 0.000000000000000000, 0.000000000000000000, 0.000000000000000000, 0.000000000000000000 ) ;
#210 = FACE_OUTER_BOUND ( 'NONE', #102, .T. ) ;
#211 =( NAMED_UNIT ( * ) SI_UNIT ( $, .STERADIAN. ) SOLID_ANGLE_UNIT ( ) );
#212 = CARTESIAN_POINT ( 'NONE',  ( 0.000000000000000000, 0.000000000000000000, 0.000000000000000000 ) ) ;
#213 = AXIS2_PLACEMENT_3D ( 'NONE', #212, #244, #193 ) ;
#214 = AXIS2_PLACEMENT_3D ( 'NONE', #144, #250, #215 ) ;
#215 = DIRECTION ( 'NONE',  ( 1.000000000000000000, 4.453261087808560759E-17, 0.000000000000000000 ) ) ;
#216 = PRODUCT_DEFINITION_CONTEXT ( 'detailed design', #79, 'design' ) ;
#217 = PLANE ( 'NONE',  #214 ) ;
#218 = CIRCLE ( 'NONE', #192, 0.5000000000000000000 ) ;
#219 = SURFACE_SIDE_STYLE ('',( #272 ) ) ;
#220 = AXIS2_PLACEMENT_3D ( 'NONE', #56, #158, #11 ) ;
#221 = VERTEX_POINT ( 'NONE', #148 ) ;
#222 = CARTESIAN_POINT ( 'NONE',  ( 6.123233995736766036E-17, 0.000000000000000000, 0.5000000000000000000 ) ) ;
#223 = ORIENTED_EDGE ( 'NONE', *, *, #36, .T. ) ;
#224 = MANIFOLD_SOLID_BREP ( 'Revolve - Tool Body (Straight Shanked)', #13 ) ;
#225 = CARTESIAN_POINT ( 'NONE',  ( 0.000000000000000000, 3.250000000000000000, 0.000000000000000000 ) ) ;
#226 = LINE ( 'NONE', #253, #270 ) ;
#227 = AXIS2_PLACEMENT_3D ( 'NONE', #179, #151, #34 ) ;
#228 = EDGE_CURVE ( 'NONE', #182, #123, #286, .T. ) ;
#229 = DIRECTION ( 'NONE',  ( -4.453261087808560759E-17, 1.000000000000000000, -0.000000000000000000 ) ) ;
#230 = DIMENSIONAL_EXPONENTS ( 1.000000000000000000, 0.000000000000000000, 0.000000000000000000, 0.000000000000000000, 0.000000000000000000, 0.000000000000000000, 0.000000000000000000 ) ;
#231 = SURFACE_STYLE_FILL_AREA ( #289 ) ;
#232 = EDGE_CURVE ( 'NONE', #254, #221, #7, .T. ) ;
#233 =( LENGTH_UNIT ( ) NAMED_UNIT ( * ) SI_UNIT ( $, .METRE. ) );
#234 = DIRECTION ( 'NONE',  ( -4.453261087808560759E-17, 1.000000000000000000, -0.000000000000000000 ) ) ;
#235 = MECHANICAL_DESIGN_GEOMETRIC_PRESENTATION_REPRESENTATION (  '', ( #152 ), #9 ) ;
#236 = COLOUR_RGB ( '',1.000000000000000000, 0.000000000000000000, 0.000000000000000000 ) ;
#237 =( LENGTH_UNIT ( ) NAMED_UNIT ( * ) SI_UNIT ( $, .METRE. ) );
#238 = DIMENSIONAL_EXPONENTS ( 1.000000000000000000, 0.000000000000000000, 0.000000000000000000, 0.000000000000000000, 0.000000000000000000, 0.000000000000000000, 0.000000000000000000 ) ;
#239 = DIRECTION ( 'NONE',  ( 0.000000000000000000, 0.000000000000000000, -1.000000000000000000 ) ) ;
#240 = CARTESIAN_POINT ( 'NONE',  ( 0.000000000000000000, 3.250000000000000000, -0.5000000000000000000 ) ) ;
#241 = PRODUCT_DEFINITION ( 'UNKNOWN', '', #109, #216 ) ;
#242 = CIRCLE ( 'NONE', #159, 0.5000000000000000000 ) ;
#243 = DIRECTION ( 'NONE',  ( -1.000000000000000000, -4.453261087808560759E-17, 0.000000000000000000 ) ) ;
#244 = DIRECTION ( 'NONE',  ( -0.000000000000000000, -1.000000000000000000, -0.000000000000000000 ) ) ;
#245 = ADVANCED_FACE ( 'NONE', ( #197 ), #75, .T. ) ;
#246 = PRESENTATION_STYLE_ASSIGNMENT (( #72 ) ) ;
#247 = AXIS2_PLACEMENT_3D ( 'NONE', #38, #43, #284 ) ;
#248 = AXIS2_PLACEMENT_3D ( 'NONE', #299, #181, #305 ) ;
#249 = LENGTH_MEASURE_WITH_UNIT ( LENGTH_MEASURE( 0.02539999999999999897 ), #194 );
#250 = DIRECTION ( 'NONE',  ( 4.453261087808560759E-17, -1.000000000000000000, 0.000000000000000000 ) ) ;
#251 = EDGE_CURVE ( 'NONE', #76, #106, #50, .T. ) ;
#252 = FACE_OUTER_BOUND ( 'NONE', #35, .T. ) ;
#253 = CARTESIAN_POINT ( 'NONE',  ( 0.4999999999999999445, 6.000000000000000888, 6.123233995736767268E-17 ) ) ;
#254 = VERTEX_POINT ( 'NONE', #174 ) ;
#255 =( CONVERSION_BASED_UNIT ( 'INCH', #25 ) LENGTH_UNIT ( ) NAMED_UNIT ( #230 ) );
#256 = DIRECTION ( 'NONE',  ( -1.000000000000000000, 0.000000000000000000, 0.000000000000000000 ) ) ;
#257 = ORIENTED_EDGE ( 'NONE', *, *, #262, .T. ) ;
#258 = FILL_AREA_STYLE_COLOUR ( '', #73 ) ;
#259 = DIMENSIONAL_EXPONENTS ( 1.000000000000000000, 0.000000000000000000, 0.000000000000000000, 0.000000000000000000, 0.000000000000000000, 0.000000000000000000, 0.000000000000000000 ) ;
#260 = SURFACE_SIDE_STYLE ('',( #231 ) ) ;
#261 = CARTESIAN_POINT ( 'NONE',  ( -1.224646799147354440E-16, 6.000000000000000888, 0.000000000000000000 ) ) ;
#262 = EDGE_CURVE ( 'NONE', #175, #182, #226, .T. ) ;
#263 =( LENGTH_UNIT ( ) NAMED_UNIT ( * ) SI_UNIT ( $, .METRE. ) );
#264 = COLOUR_RGB ( '',1.000000000000000000, 0.000000000000000000, 0.000000000000000000 ) ;
#265 = CIRCLE ( 'NONE', #220, 0.5000000000000000000 ) ;
#266 = UNCERTAINTY_MEASURE_WITH_UNIT (LENGTH_MEASURE( 1.000000000000000082E-05 ), #41, 'distance_accuracy_value', 'NONE');
#267 = FILL_AREA_STYLE_COLOUR ( '', #108 ) ;
#268 = UNCERTAINTY_MEASURE_WITH_UNIT (LENGTH_MEASURE( 1.000000000000000082E-05 ), #147, 'distance_accuracy_value', 'NONE');
#269 =( GEOMETRIC_REPRESENTATION_CONTEXT ( 3 ) GLOBAL_UNCERTAINTY_ASSIGNED_CONTEXT ( ( #119 ) ) GLOBAL_UNIT_ASSIGNED_CONTEXT ( ( #12, #15, #95 ) ) REPRESENTATION_CONTEXT ( 'NONE', 'WORKASPACE' ) );
#270 = VECTOR ( 'NONE', #229, 39.37007874015748143 ) ;
#271 = DIRECTION ( 'NONE',  ( -4.453261087808560759E-17, 1.000000000000000000, -0.000000000000000000 ) ) ;
#272 = SURFACE_STYLE_FILL_AREA ( #74 ) ;
#273 = ORIENTED_EDGE ( 'NONE', *, *, #57, .F. ) ;
#274 = DIRECTION ( 'NONE',  ( -1.000000000000000000, 0.000000000000000000, 0.000000000000000000 ) ) ;
#275 = ORIENTED_EDGE ( 'NONE', *, *, #228, .T. ) ;
#276 = ORIENTED_EDGE ( 'NONE', *, *, #296, .T. ) ;
#277 = APPLICATION_PROTOCOL_DEFINITION ( 'draft international standard', 'automotive_design', 1998, #92 ) ;
#278 = VECTOR ( 'NONE', #186, 39.37007874015748143 ) ;
#279 = ORIENTED_EDGE ( 'NONE', *, *, #39, .T. ) ;
#280 = DIRECTION ( 'NONE',  ( 0.000000000000000000, 1.000000000000000000, 0.000000000000000000 ) ) ;
#281 = SURFACE_STYLE_FILL_AREA ( #185 ) ;
#282 = CARTESIAN_POINT ( 'NONE',  ( 0.000000000000000000, 3.250000000000000000, 0.000000000000000000 ) ) ;
#283 = CARTESIAN_POINT ( 'NONE',  ( 0.000000000000000000, 3.250000000000000000, 0.000000000000000000 ) ) ;
#284 = DIRECTION ( 'NONE',  ( -1.000000000000000000, 0.000000000000000000, 0.000000000000000000 ) ) ;
#285 = UNCERTAINTY_MEASURE_WITH_UNIT (LENGTH_MEASURE( 1.000000000000000082E-05 ), #89, 'distance_accuracy_value', 'NONE');
#286 = CIRCLE ( 'NONE', #48, 0.5000000000000001110 ) ;
#287 = EDGE_CURVE ( 'NONE', #221, #106, #149, .T. ) ;
#288 = CARTESIAN_POINT ( 'NONE',  ( 0.000000000000000000, 0.000000000000000000, 0.000000000000000000 ) ) ;
#289 = FILL_AREA_STYLE ('',( #113 ) ) ;
#290 =( NAMED_UNIT ( * ) SI_UNIT ( $, .STERADIAN. ) SOLID_ANGLE_UNIT ( ) );
#291 = ADVANCED_FACE ( 'NONE', ( #252 ), #101, .T. ) ;
#292 = MECHANICAL_DESIGN_GEOMETRIC_PRESENTATION_REPRESENTATION (  '', ( #98 ), #269 ) ;
#293 = MECHANICAL_DESIGN_GEOMETRIC_PRESENTATION_REPRESENTATION (  '', ( #65 ), #308 ) ;
#294 = SURFACE_SIDE_STYLE ('',( #171 ) ) ;
#295 = FILL_AREA_STYLE ('',( #3 ) ) ;
#296 = EDGE_CURVE ( 'NONE', #106, #221, #265, .T. ) ;
#297 = PRESENTATION_STYLE_ASSIGNMENT (( #10 ) ) ;
#298 = EDGE_LOOP ( 'NONE', ( #206, #104, #279, #203 ) ) ;
#299 = CARTESIAN_POINT ( 'NONE',  ( 0.000000000000000000, 0.000000000000000000, 0.000000000000000000 ) ) ;
#300 = VERTEX_POINT ( 'NONE', #122 ) ;
#301 = ADVANCED_FACE ( 'NONE', ( #105 ), #205, .T. ) ;
#302 =( GEOMETRIC_REPRESENTATION_CONTEXT ( 3 ) GLOBAL_UNCERTAINTY_ASSIGNED_CONTEXT ( ( #268 ) ) GLOBAL_UNIT_ASSIGNED_CONTEXT ( ( #147, #118, #156 ) ) REPRESENTATION_CONTEXT ( 'NONE', 'WORKASPACE' ) );
#303 = DIRECTION ( 'NONE',  ( -0.000000000000000000, -1.000000000000000000, -0.000000000000000000 ) ) ;
#304 = EDGE_LOOP ( 'NONE', ( #273, #31 ) ) ;
#305 = DIRECTION ( 'NONE',  ( 0.000000000000000000, 0.000000000000000000, -1.000000000000000000 ) ) ;
#306 = EDGE_LOOP ( 'NONE', ( #198, #127, #129, #8 ) ) ;
#307 = AXIS2_PLACEMENT_3D ( 'NONE', #86, #167, #239 ) ;
#308 =( GEOMETRIC_REPRESENTATION_CONTEXT ( 3 ) GLOBAL_UNCERTAINTY_ASSIGNED_CONTEXT ( ( #146 ) ) GLOBAL_UNIT_ASSIGNED_CONTEXT ( ( #255, #201, #54 ) ) REPRESENTATION_CONTEXT ( 'NONE', 'WORKASPACE' ) );
#309 = FACE_OUTER_BOUND ( 'NONE', #298, .T. ) ;
ENDSEC;
END-ISO-10303-21;
