ISO-10303-21;
HEADER;
FILE_DESCRIPTION (( 'STEP AP214' ),
    '1' );
FILE_NAME ('44212W.STEP',
    '2023-06-22T19:40:25',
    ( '' ),
    ( '' ),
    'SwSTEP 2.0',
    'SolidWorks 2023',
    '' );
FILE_SCHEMA (( 'AUTOMOTIVE_DESIGN' ));
ENDSEC;

DATA;
#1 = SURFACE_STYLE_USAGE ( .BOTH. , #190 ) ;
#2 = ADVANCED_FACE ( 'NONE', ( #121 ), #236, .T. ) ;
#3 = EDGE_LOOP ( 'NONE', ( #189, #255 ) ) ;
#4 = CYLINDRICAL_SURFACE ( 'NONE', #182, 0.1875000000000000555 ) ;
#5 = AXIS2_PLACEMENT_3D ( 'NONE', #252, #138, #41 ) ;
#6 = DIRECTION ( 'NONE',  ( -0.000000000000000000, -1.000000000000000000, -0.000000000000000000 ) ) ;
#7 = FILL_AREA_STYLE ('',( #150 ) ) ;
#8 = AXIS2_PLACEMENT_3D ( 'NONE', #306, #31, #281 ) ;
#9 = CYLINDRICAL_SURFACE ( 'NONE', #276, 0.1875000000000000555 ) ;
#10 = SHAPE_DEFINITION_REPRESENTATION ( #32, #291 ) ;
#11 = ADVANCED_FACE ( 'NONE', ( #88 ), #25, .T. ) ;
#12 =( LENGTH_UNIT ( ) NAMED_UNIT ( * ) SI_UNIT ( $, .METRE. ) );
#13 =( CONVERSION_BASED_UNIT ( 'INCH', #172 ) LENGTH_UNIT ( ) NAMED_UNIT ( #18 ) );
#14 = CARTESIAN_POINT ( 'NONE',  ( 0.000000000000000000, 0.000000000000000000, 0.000000000000000000 ) ) ;
#15 = UNCERTAINTY_MEASURE_WITH_UNIT (LENGTH_MEASURE( 1.000000000000000082E-05 ), #13, 'distance_accuracy_value', 'NONE');
#16 = PRESENTATION_LAYER_ASSIGNMENT (  '', '', ( #124 ) ) ;
#17 = SURFACE_SIDE_STYLE ('',( #228 ) ) ;
#18 = DIMENSIONAL_EXPONENTS ( 1.000000000000000000, 0.000000000000000000, 0.000000000000000000, 0.000000000000000000, 0.000000000000000000, 0.000000000000000000, 0.000000000000000000 ) ;
#19 = EDGE_LOOP ( 'NONE', ( #191, #163, #234, #50 ) ) ;
#20 = CARTESIAN_POINT ( 'NONE',  ( 0.000000000000000000, 0.5000000000000001110, 0.000000000000000000 ) ) ;
#21 = CARTESIAN_POINT ( 'NONE',  ( 0.1875000000000000555, 2.000000000000000000, 0.000000000000000000 ) ) ;
#22 = MECHANICAL_DESIGN_GEOMETRIC_PRESENTATION_REPRESENTATION (  '', ( #256 ), #308 ) ;
#23 = UNCERTAINTY_MEASURE_WITH_UNIT (LENGTH_MEASURE( 1.000000000000000082E-05 ), #43, 'distance_accuracy_value', 'NONE');
#24 = ORIENTED_EDGE ( 'NONE', *, *, #132, .T. ) ;
#25 = PLANE ( 'NONE',  #296 ) ;
#26 = EDGE_CURVE ( 'NONE', #307, #280, #295, .T. ) ;
#27 = COLOUR_RGB ( '',1.000000000000000000, 0.000000000000000000, 0.000000000000000000 ) ;
#28 = FILL_AREA_STYLE ('',( #217 ) ) ;
#29 = APPLICATION_CONTEXT ( 'automotive_design' ) ;
#30 = FILL_AREA_STYLE ('',( #235 ) ) ;
#31 = DIRECTION ( 'NONE',  ( 8.164311994315692567E-17, 1.000000000000000000, -0.000000000000000000 ) ) ;
#32 = PRODUCT_DEFINITION_SHAPE ( 'NONE', 'NONE',  #259 ) ;
#33 = LENGTH_MEASURE_WITH_UNIT ( LENGTH_MEASURE( 0.02539999999999999897 ), #12 );
#34 = PRESENTATION_LAYER_ASSIGNMENT (  '', '', ( #200 ) ) ;
#35 = EDGE_CURVE ( 'NONE', #309, #280, #58, .T. ) ;
#36 = DIRECTION ( 'NONE',  ( -0.000000000000000000, -1.000000000000000000, -0.000000000000000000 ) ) ;
#37 =( CONVERSION_BASED_UNIT ( 'INCH', #199 ) LENGTH_UNIT ( ) NAMED_UNIT ( #305 ) );
#38 = FILL_AREA_STYLE_COLOUR ( '', #140 ) ;
#39 = AXIS2_PLACEMENT_3D ( 'NONE', #21, #184, #104 ) ;
#40 = CARTESIAN_POINT ( 'NONE',  ( -0.1875000000000000555, 0.5000000000000001110, 0.000000000000000000 ) ) ;
#41 = DIRECTION ( 'NONE',  ( -1.000000000000000000, 0.000000000000000000, 0.000000000000000000 ) ) ;
#42 = CYLINDRICAL_SURFACE ( 'NONE', #193, 0.1874999999999999722 ) ;
#43 =( CONVERSION_BASED_UNIT ( 'INCH', #227 ) LENGTH_UNIT ( ) NAMED_UNIT ( #103 ) );
#44 = EDGE_CURVE ( 'NONE', #164, #278, #101, .T. ) ;
#45 = EDGE_LOOP ( 'NONE', ( #144, #230 ) ) ;
#46 = SURFACE_STYLE_FILL_AREA ( #28 ) ;
#47 =( CONVERSION_BASED_UNIT ( 'INCH', #237 ) LENGTH_UNIT ( ) NAMED_UNIT ( #78 ) );
#48 = ORIENTED_EDGE ( 'NONE', *, *, #220, .T. ) ;
#49 = VECTOR ( 'NONE', #99, 39.37007874015748143 ) ;
#50 = ORIENTED_EDGE ( 'NONE', *, *, #120, .F. ) ;
#51 = FACE_OUTER_BOUND ( 'NONE', #117, .T. ) ;
#52 = CARTESIAN_POINT ( 'NONE',  ( -0.1874999999999998335, 2.000000000000000000, 0.000000000000000000 ) ) ;
#53 = CIRCLE ( 'NONE', #89, 0.1875000000000000555 ) ;
#54 =( NAMED_UNIT ( * ) PLANE_ANGLE_UNIT ( ) SI_UNIT ( $, .RADIAN. ) );
#55 = CARTESIAN_POINT ( 'NONE',  ( 0.000000000000000000, 0.000000000000000000, 0.000000000000000000 ) ) ;
#56 = DIRECTION ( 'NONE',  ( -1.000000000000000000, 0.000000000000000000, 0.000000000000000000 ) ) ;
#57 =( NAMED_UNIT ( * ) PLANE_ANGLE_UNIT ( ) SI_UNIT ( $, .RADIAN. ) );
#58 = CIRCLE ( 'NONE', #162, 0.1875000000000000278 ) ;
#59 = UNCERTAINTY_MEASURE_WITH_UNIT (LENGTH_MEASURE( 1.000000000000000082E-05 ), #142, 'distance_accuracy_value', 'NONE');
#60 = CARTESIAN_POINT ( 'NONE',  ( 0.000000000000000000, 0.000000000000000000, 0.000000000000000000 ) ) ;
#61 = DIRECTION ( 'NONE',  ( -0.000000000000000000, -1.000000000000000000, -0.000000000000000000 ) ) ;
#62 = MECHANICAL_DESIGN_GEOMETRIC_PRESENTATION_REPRESENTATION (  '', ( #113 ), #102 ) ;
#63 =( LENGTH_UNIT ( ) NAMED_UNIT ( * ) SI_UNIT ( $, .METRE. ) );
#64 = EDGE_CURVE ( 'NONE', #68, #278, #79, .T. ) ;
#65 = CARTESIAN_POINT ( 'NONE',  ( 6.248999094424416107E-34, 0.5000000000000000000, 0.000000000000000000 ) ) ;
#66 = ORIENTED_EDGE ( 'NONE', *, *, #35, .T. ) ;
#67 = SURFACE_SIDE_STYLE ('',( #46 ) ) ;
#68 = VERTEX_POINT ( 'NONE', #40 ) ;
#69 = LENGTH_MEASURE_WITH_UNIT ( LENGTH_MEASURE( 0.02539999999999999897 ), #146 );
#70 = COLOUR_RGB ( '',0.7921568627450980005, 0.8196078431372548767, 0.9333333333333333481 ) ;
#71 =( CONVERSION_BASED_UNIT ( 'INCH', #288 ) LENGTH_UNIT ( ) NAMED_UNIT ( #134 ) );
#72 = PRESENTATION_STYLE_ASSIGNMENT (( #1 ) ) ;
#73 = FILL_AREA_STYLE_COLOUR ( '', #27 ) ;
#74 = SURFACE_SIDE_STYLE ('',( #223 ) ) ;
#75 = CIRCLE ( 'NONE', #250, 0.1875000000000000278 ) ;
#76 =( NAMED_UNIT ( * ) SI_UNIT ( $, .STERADIAN. ) SOLID_ANGLE_UNIT ( ) );
#77 = SURFACE_STYLE_USAGE ( .BOTH. , #202 ) ;
#78 = DIMENSIONAL_EXPONENTS ( 1.000000000000000000, 0.000000000000000000, 0.000000000000000000, 0.000000000000000000, 0.000000000000000000, 0.000000000000000000, 0.000000000000000000 ) ;
#79 = LINE ( 'NONE', #52, #49 ) ;
#80 =( GEOMETRIC_REPRESENTATION_CONTEXT ( 3 ) GLOBAL_UNCERTAINTY_ASSIGNED_CONTEXT ( ( #15 ) ) GLOBAL_UNIT_ASSIGNED_CONTEXT ( ( #13, #57, #105 ) ) REPRESENTATION_CONTEXT ( 'NONE', 'WORKASPACE' ) );
#81 = CARTESIAN_POINT ( 'NONE',  ( 0.000000000000000000, 0.5000000000000000000, -0.1875000000000000555 ) ) ;
#82 = ADVANCED_FACE ( 'NONE', ( #268 ), #9, .T. ) ;
#83 = PRODUCT_DEFINITION_CONTEXT ( 'detailed design', #29, 'design' ) ;
#84 = LINE ( 'NONE', #155, #209 ) ;
#85 = DIRECTION ( 'NONE',  ( -1.000000000000000000, 8.164311994315692567E-17, 0.000000000000000000 ) ) ;
#86 = DIRECTION ( 'NONE',  ( 0.000000000000000000, 0.000000000000000000, -1.000000000000000000 ) ) ;
#87 = DIRECTION ( 'NONE',  ( 8.164311994315692567E-17, 1.000000000000000000, -0.000000000000000000 ) ) ;
#88 = FACE_OUTER_BOUND ( 'NONE', #3, .T. ) ;
#89 = AXIS2_PLACEMENT_3D ( 'NONE', #274, #210, #86 ) ;
#90 = PRESENTATION_STYLE_ASSIGNMENT (( #213 ) ) ;
#91 = ADVANCED_FACE ( 'NONE', ( #154 ), #151, .T. ) ;
#92 = ORIENTED_EDGE ( 'NONE', *, *, #64, .F. ) ;
#93 = EDGE_LOOP ( 'NONE', ( #24, #238, #118, #92 ) ) ;
#94 = DIRECTION ( 'NONE',  ( 0.000000000000000000, 0.000000000000000000, -1.000000000000000000 ) ) ;
#95 = ADVANCED_FACE ( 'NONE', ( #207 ), #114, .F. ) ;
#96 = ORIENTED_EDGE ( 'NONE', *, *, #120, .T. ) ;
#97 = DIRECTION ( 'NONE',  ( 8.164311994315692567E-17, 1.000000000000000000, -0.000000000000000000 ) ) ;
#98 = SURFACE_STYLE_FILL_AREA ( #196 ) ;
#99 = DIRECTION ( 'NONE',  ( 8.164311994315692567E-17, 1.000000000000000000, -0.000000000000000000 ) ) ;
#100 = DIRECTION ( 'NONE',  ( 0.000000000000000000, -0.000000000000000000, 1.000000000000000000 ) ) ;
#101 = CIRCLE ( 'NONE', #270, 0.1874999999999999167 ) ;
#102 =( GEOMETRIC_REPRESENTATION_CONTEXT ( 3 ) GLOBAL_UNCERTAINTY_ASSIGNED_CONTEXT ( ( #211 ) ) GLOBAL_UNIT_ASSIGNED_CONTEXT ( ( #47, #54, #260 ) ) REPRESENTATION_CONTEXT ( 'NONE', 'WORKASPACE' ) );
#103 = DIMENSIONAL_EXPONENTS ( 1.000000000000000000, 0.000000000000000000, 0.000000000000000000, 0.000000000000000000, 0.000000000000000000, 0.000000000000000000, 0.000000000000000000 ) ;
#104 = DIRECTION ( 'NONE',  ( 1.000000000000000000, -8.164311994315692567E-17, 0.000000000000000000 ) ) ;
#105 =( NAMED_UNIT ( * ) SI_UNIT ( $, .STERADIAN. ) SOLID_ANGLE_UNIT ( ) );
#106 = CLOSED_SHELL ( 'NONE', ( #82, #11, #283, #91 ) ) ;
#107 = FACE_OUTER_BOUND ( 'NONE', #109, .T. ) ;
#108 = DIRECTION ( 'NONE',  ( -1.000000000000000000, 0.000000000000000000, 0.000000000000000000 ) ) ;
#109 = EDGE_LOOP ( 'NONE', ( #284, #195 ) ) ;
#110 = EDGE_CURVE ( 'NONE', #145, #164, #84, .T. ) ;
#111 = PLANE ( 'NONE',  #135 ) ;
#112 = AXIS2_PLACEMENT_3D ( 'NONE', #20, #179, #108 ) ;
#113 = STYLED_ITEM ( 'NONE', ( #167 ), #263 ) ;
#114 = PLANE ( 'NONE',  #39 ) ;
#115 = ORIENTED_EDGE ( 'NONE', *, *, #272, .T. ) ;
#116 = ORIENTED_EDGE ( 'NONE', *, *, #136, .T. ) ;
#117 = EDGE_LOOP ( 'NONE', ( #254, #116, #96, #143 ) ) ;
#118 = ORIENTED_EDGE ( 'NONE', *, *, #149, .F. ) ;
#119 = CARTESIAN_POINT ( 'NONE',  ( 0.000000000000000000, 0.000000000000000000, 0.000000000000000000 ) ) ;
#120 = EDGE_CURVE ( 'NONE', #258, #309, #183, .T. ) ;
#121 = FACE_OUTER_BOUND ( 'NONE', #212, .T. ) ;
#122 =( NAMED_UNIT ( * ) PLANE_ANGLE_UNIT ( ) SI_UNIT ( $, .RADIAN. ) );
#123 =( CONVERSION_BASED_UNIT ( 'INCH', #33 ) LENGTH_UNIT ( ) NAMED_UNIT ( #245 ) );
#124 = STYLED_ITEM ( 'NONE', ( #90 ), #11 ) ;
#125 =( GEOMETRIC_REPRESENTATION_CONTEXT ( 3 ) GLOBAL_UNCERTAINTY_ASSIGNED_CONTEXT ( ( #23 ) ) GLOBAL_UNIT_ASSIGNED_CONTEXT ( ( #43, #122, #289 ) ) REPRESENTATION_CONTEXT ( 'NONE', 'WORKASPACE' ) );
#126 = DIRECTION ( 'NONE',  ( 0.000000000000000000, 0.000000000000000000, -1.000000000000000000 ) ) ;
#127 =( NAMED_UNIT ( * ) PLANE_ANGLE_UNIT ( ) SI_UNIT ( $, .RADIAN. ) );
#128 =( GEOMETRIC_REPRESENTATION_CONTEXT ( 3 ) GLOBAL_UNCERTAINTY_ASSIGNED_CONTEXT ( ( #139 ) ) GLOBAL_UNIT_ASSIGNED_CONTEXT ( ( #123, #137, #133 ) ) REPRESENTATION_CONTEXT ( 'NONE', 'WORKASPACE' ) );
#129 =( GEOMETRIC_REPRESENTATION_CONTEXT ( 3 ) GLOBAL_UNCERTAINTY_ASSIGNED_CONTEXT ( ( #59 ) ) GLOBAL_UNIT_ASSIGNED_CONTEXT ( ( #142, #127, #224 ) ) REPRESENTATION_CONTEXT ( 'NONE', 'WORKASPACE' ) );
#130 = DIMENSIONAL_EXPONENTS ( 1.000000000000000000, 0.000000000000000000, 0.000000000000000000, 0.000000000000000000, 0.000000000000000000, 0.000000000000000000, 0.000000000000000000 ) ;
#131 = PRESENTATION_STYLE_ASSIGNMENT (( #77 ) ) ;
#132 = EDGE_CURVE ( 'NONE', #68, #145, #243, .T. ) ;
#133 =( NAMED_UNIT ( * ) SI_UNIT ( $, .STERADIAN. ) SOLID_ANGLE_UNIT ( ) );
#134 = DIMENSIONAL_EXPONENTS ( 1.000000000000000000, 0.000000000000000000, 0.000000000000000000, 0.000000000000000000, 0.000000000000000000, 0.000000000000000000, 0.000000000000000000 ) ;
#135 = AXIS2_PLACEMENT_3D ( 'NONE', #65, #304, #85 ) ;
#136 = EDGE_CURVE ( 'NONE', #307, #258, #53, .T. ) ;
#137 =( NAMED_UNIT ( * ) PLANE_ANGLE_UNIT ( ) SI_UNIT ( $, .RADIAN. ) );
#138 = DIRECTION ( 'NONE',  ( 8.164311994315692567E-17, 1.000000000000000000, -0.000000000000000000 ) ) ;
#139 = UNCERTAINTY_MEASURE_WITH_UNIT (LENGTH_MEASURE( 1.000000000000000082E-05 ), #123, 'distance_accuracy_value', 'NONE');
#140 = COLOUR_RGB ( '',1.000000000000000000, 0.000000000000000000, 0.000000000000000000 ) ;
#141 = ORIENTED_EDGE ( 'NONE', *, *, #64, .T. ) ;
#142 =( CONVERSION_BASED_UNIT ( 'INCH', #69 ) LENGTH_UNIT ( ) NAMED_UNIT ( #130 ) );
#143 = ORIENTED_EDGE ( 'NONE', *, *, #220, .F. ) ;
#144 = ORIENTED_EDGE ( 'NONE', *, *, #149, .T. ) ;
#145 = VERTEX_POINT ( 'NONE', #300 ) ;
#146 =( LENGTH_UNIT ( ) NAMED_UNIT ( * ) SI_UNIT ( $, .METRE. ) );
#147 = COLOUR_RGB ( '',1.000000000000000000, 0.000000000000000000, 0.000000000000000000 ) ;
#148 = MECHANICAL_DESIGN_GEOMETRIC_PRESENTATION_REPRESENTATION (  '', ( #157 ), #125 ) ;
#149 = EDGE_CURVE ( 'NONE', #278, #164, #285, .T. ) ;
#150 = FILL_AREA_STYLE_COLOUR ( '', #218 ) ;
#151 = PLANE ( 'NONE',  #165 ) ;
#152 = CIRCLE ( 'NONE', #169, 0.1875000000000000555 ) ;
#153 = UNCERTAINTY_MEASURE_WITH_UNIT (LENGTH_MEASURE( 1.000000000000000082E-05 ), #71, 'distance_accuracy_value', 'NONE');
#154 = FACE_OUTER_BOUND ( 'NONE', #253, .T. ) ;
#155 = CARTESIAN_POINT ( 'NONE',  ( 0.1875000000000001110, 2.000000000000000000, 2.296212748401286801E-17 ) ) ;
#156 = DIRECTION ( 'NONE',  ( -0.000000000000000000, -1.000000000000000000, -0.000000000000000000 ) ) ;
#157 = STYLED_ITEM ( 'NONE', ( #248 ), #261 ) ;
#158 = PRESENTATION_LAYER_ASSIGNMENT (  '', '', ( #157 ) ) ;
#159 = DIRECTION ( 'NONE',  ( 8.164311994315692567E-17, 1.000000000000000000, -0.000000000000000000 ) ) ;
#160 = CARTESIAN_POINT ( 'NONE',  ( -0.1874999999999997780, 2.000000000000000000, 0.000000000000000000 ) ) ;
#161 = ADVANCED_FACE ( 'NONE', ( #107 ), #111, .F. ) ;
#162 = AXIS2_PLACEMENT_3D ( 'NONE', #262, #173, #266 ) ;
#163 = ORIENTED_EDGE ( 'NONE', *, *, #26, .T. ) ;
#164 = VERTEX_POINT ( 'NONE', #246 ) ;
#165 = AXIS2_PLACEMENT_3D ( 'NONE', #60, #251, #299 ) ;
#166 =( LENGTH_UNIT ( ) NAMED_UNIT ( * ) SI_UNIT ( $, .METRE. ) );
#167 = PRESENTATION_STYLE_ASSIGNMENT (( #257 ) ) ;
#168 = CARTESIAN_POINT ( 'NONE',  ( 2.296212748401288034E-17, 0.000000000000000000, 0.1875000000000000555 ) ) ;
#169 = AXIS2_PLACEMENT_3D ( 'NONE', #208, #61, #297 ) ;
#170 = PRODUCT_CONTEXT ( 'NONE', #171, 'mechanical' ) ;
#171 = APPLICATION_CONTEXT ( 'automotive_design' ) ;
#172 = LENGTH_MEASURE_WITH_UNIT ( LENGTH_MEASURE( 0.02539999999999999897 ), #175 );
#173 = DIRECTION ( 'NONE',  ( -0.000000000000000000, -1.000000000000000000, -0.000000000000000000 ) ) ;
#174 = ADVANCED_FACE ( 'NONE', ( #180 ), #42, .T. ) ;
#175 =( LENGTH_UNIT ( ) NAMED_UNIT ( * ) SI_UNIT ( $, .METRE. ) );
#176 = SURFACE_STYLE_FILL_AREA ( #7 ) ;
#177 = FILL_AREA_STYLE_COLOUR ( '', #292 ) ;
#178 = APPLICATION_PROTOCOL_DEFINITION ( 'draft international standard', 'automotive_design', 1998, #171 ) ;
#179 = DIRECTION ( 'NONE',  ( 8.164311994315692567E-17, 1.000000000000000000, -0.000000000000000000 ) ) ;
#180 = FACE_OUTER_BOUND ( 'NONE', #93, .T. ) ;
#181 = VECTOR ( 'NONE', #6, 39.37007874015748143 ) ;
#182 = AXIS2_PLACEMENT_3D ( 'NONE', #119, #198, #94 ) ;
#183 = LINE ( 'NONE', #273, #214 ) ;
#184 = DIRECTION ( 'NONE',  ( -8.164311994315692567E-17, -1.000000000000000000, 0.000000000000000000 ) ) ;
#185 = EDGE_CURVE ( 'NONE', #258, #307, #152, .T. ) ;
#186 = PRODUCT ( '44212W', '44212W', '', ( #170 ) ) ;
#187 = ORIENTED_EDGE ( 'NONE', *, *, #110, .F. ) ;
#188 =( NAMED_UNIT ( * ) PLANE_ANGLE_UNIT ( ) SI_UNIT ( $, .RADIAN. ) );
#189 = ORIENTED_EDGE ( 'NONE', *, *, #185, .F. ) ;
#190 = SURFACE_SIDE_STYLE ('',( #98 ) ) ;
#191 = ORIENTED_EDGE ( 'NONE', *, *, #185, .T. ) ;
#192 = CARTESIAN_POINT ( 'NONE',  ( 2.296212748401288034E-17, 0.5000000000000000000, 0.1875000000000000555 ) ) ;
#193 = AXIS2_PLACEMENT_3D ( 'NONE', #226, #87, #277 ) ;
#194 = AXIS2_PLACEMENT_3D ( 'NONE', #222, #97, #240 ) ;
#195 = ORIENTED_EDGE ( 'NONE', *, *, #272, .F. ) ;
#196 = FILL_AREA_STYLE ('',( #73 ) ) ;
#197 = DIRECTION ( 'NONE',  ( 0.000000000000000000, 1.000000000000000000, 0.000000000000000000 ) ) ;
#198 = DIRECTION ( 'NONE',  ( -0.000000000000000000, -1.000000000000000000, -0.000000000000000000 ) ) ;
#199 = LENGTH_MEASURE_WITH_UNIT ( LENGTH_MEASURE( 0.02539999999999999897 ), #241 );
#200 = STYLED_ITEM ( 'NONE', ( #131 ), #91 ) ;
#201 = STYLED_ITEM ( 'NONE', ( #72 ), #283 ) ;
#202 = SURFACE_SIDE_STYLE ('',( #176 ) ) ;
#203 = CARTESIAN_POINT ( 'NONE',  ( 0.000000000000000000, 0.000000000000000000, 0.000000000000000000 ) ) ;
#204 = MECHANICAL_DESIGN_GEOMETRIC_PRESENTATION_REPRESENTATION (  '', ( #200 ), #128 ) ;
#205 = MECHANICAL_DESIGN_GEOMETRIC_PRESENTATION_REPRESENTATION (  '', ( #201 ), #129 ) ;
#206 = SURFACE_STYLE_USAGE ( .BOTH. , #17 ) ;
#207 = FACE_OUTER_BOUND ( 'NONE', #45, .T. ) ;
#208 = CARTESIAN_POINT ( 'NONE',  ( 0.000000000000000000, 0.5000000000000000000, 0.000000000000000000 ) ) ;
#209 = VECTOR ( 'NONE', #159, 39.37007874015748143 ) ;
#210 = DIRECTION ( 'NONE',  ( -0.000000000000000000, -1.000000000000000000, -0.000000000000000000 ) ) ;
#211 = UNCERTAINTY_MEASURE_WITH_UNIT (LENGTH_MEASURE( 1.000000000000000082E-05 ), #47, 'distance_accuracy_value', 'NONE');
#212 = EDGE_LOOP ( 'NONE', ( #187, #115, #141, #215 ) ) ;
#213 = SURFACE_STYLE_USAGE ( .BOTH. , #67 ) ;
#214 = VECTOR ( 'NONE', #229, 39.37007874015748143 ) ;
#215 = ORIENTED_EDGE ( 'NONE', *, *, #44, .F. ) ;
#216 = SURFACE_SIDE_STYLE ('',( #282 ) ) ;
#217 = FILL_AREA_STYLE_COLOUR ( '', #147 ) ;
#218 = COLOUR_RGB ( '',1.000000000000000000, 0.000000000000000000, 0.000000000000000000 ) ;
#219 = PRESENTATION_LAYER_ASSIGNMENT (  '', '', ( #113 ) ) ;
#220 = EDGE_CURVE ( 'NONE', #280, #309, #75, .T. ) ;
#221 = FILL_AREA_STYLE ('',( #38 ) ) ;
#222 = CARTESIAN_POINT ( 'NONE',  ( 0.000000000000000000, 0.5000000000000001110, 0.000000000000000000 ) ) ;
#223 = SURFACE_STYLE_FILL_AREA ( #221 ) ;
#224 =( NAMED_UNIT ( * ) SI_UNIT ( $, .STERADIAN. ) SOLID_ANGLE_UNIT ( ) );
#225 = CARTESIAN_POINT ( 'NONE',  ( 0.000000000000000000, 0.5000000000000000000, 0.000000000000000000 ) ) ;
#226 = CARTESIAN_POINT ( 'NONE',  ( 1.224646799147353700E-16, 2.000000000000000000, 0.000000000000000000 ) ) ;
#227 = LENGTH_MEASURE_WITH_UNIT ( LENGTH_MEASURE( 0.02539999999999999897 ), #63 );
#228 = SURFACE_STYLE_FILL_AREA ( #275 ) ;
#229 = DIRECTION ( 'NONE',  ( -0.000000000000000000, -1.000000000000000000, -0.000000000000000000 ) ) ;
#230 = ORIENTED_EDGE ( 'NONE', *, *, #44, .T. ) ;
#231 =( NAMED_UNIT ( * ) SI_UNIT ( $, .STERADIAN. ) SOLID_ANGLE_UNIT ( ) );
#232 = MECHANICAL_DESIGN_GEOMETRIC_PRESENTATION_REPRESENTATION (  '', ( #124 ), #303 ) ;
#233 = PRODUCT_DEFINITION_FORMATION_WITH_SPECIFIED_SOURCE ( 'ANY', '', #186, .NOT_KNOWN. ) ;
#234 = ORIENTED_EDGE ( 'NONE', *, *, #35, .F. ) ;
#235 = FILL_AREA_STYLE_COLOUR ( '', #70 ) ;
#236 = CYLINDRICAL_SURFACE ( 'NONE', #8, 0.1874999999999999722 ) ;
#237 = LENGTH_MEASURE_WITH_UNIT ( LENGTH_MEASURE( 0.02539999999999999897 ), #264 );
#238 = ORIENTED_EDGE ( 'NONE', *, *, #110, .T. ) ;
#239 = SURFACE_STYLE_USAGE ( .BOTH. , #74 ) ;
#240 = DIRECTION ( 'NONE',  ( -1.000000000000000000, 0.000000000000000000, 0.000000000000000000 ) ) ;
#241 =( LENGTH_UNIT ( ) NAMED_UNIT ( * ) SI_UNIT ( $, .METRE. ) );
#242 = APPLICATION_PROTOCOL_DEFINITION ( 'draft international standard', 'automotive_design', 1998, #29 ) ;
#243 = CIRCLE ( 'NONE', #112, 0.1875000000000000555 ) ;
#244 =( NAMED_UNIT ( * ) PLANE_ANGLE_UNIT ( ) SI_UNIT ( $, .RADIAN. ) );
#245 = DIMENSIONAL_EXPONENTS ( 1.000000000000000000, 0.000000000000000000, 0.000000000000000000, 0.000000000000000000, 0.000000000000000000, 0.000000000000000000, 0.000000000000000000 ) ;
#246 = CARTESIAN_POINT ( 'NONE',  ( 0.1875000000000000555, 2.000000000000000000, 2.296212748401287109E-17 ) ) ;
#247 = UNCERTAINTY_MEASURE_WITH_UNIT (LENGTH_MEASURE( 1.000000000000000082E-05 ), #37, 'distance_accuracy_value', 'NONE');
#248 = PRESENTATION_STYLE_ASSIGNMENT (( #206 ) ) ;
#249 = DIRECTION ( 'NONE',  ( 0.000000000000000000, 0.000000000000000000, 1.000000000000000000 ) ) ;
#250 = AXIS2_PLACEMENT_3D ( 'NONE', #14, #156, #302 ) ;
#251 = DIRECTION ( 'NONE',  ( 0.000000000000000000, -1.000000000000000000, -0.000000000000000000 ) ) ;
#252 = CARTESIAN_POINT ( 'NONE',  ( 1.224646799147353700E-16, 2.000000000000000000, 0.000000000000000000 ) ) ;
#253 = EDGE_LOOP ( 'NONE', ( #66, #48 ) ) ;
#254 = ORIENTED_EDGE ( 'NONE', *, *, #26, .F. ) ;
#255 = ORIENTED_EDGE ( 'NONE', *, *, #136, .F. ) ;
#256 = STYLED_ITEM ( 'NONE', ( #294 ), #82 ) ;
#257 = SURFACE_STYLE_USAGE ( .BOTH. , #216 ) ;
#258 = VERTEX_POINT ( 'NONE', #81 ) ;
#259 = PRODUCT_DEFINITION ( 'UNKNOWN', '', #233, #83 ) ;
#260 =( NAMED_UNIT ( * ) SI_UNIT ( $, .STERADIAN. ) SOLID_ANGLE_UNIT ( ) );
#261 = MANIFOLD_SOLID_BREP ( 'Revolve - Cutting Edge', #106 ) ;
#262 = CARTESIAN_POINT ( 'NONE',  ( 0.000000000000000000, 0.000000000000000000, 0.000000000000000000 ) ) ;
#263 = MANIFOLD_SOLID_BREP ( 'Revolve - Tool Body (Straight Shanked)', #301 ) ;
#264 =( LENGTH_UNIT ( ) NAMED_UNIT ( * ) SI_UNIT ( $, .METRE. ) );
#265 = PRESENTATION_LAYER_ASSIGNMENT (  '', '', ( #256 ) ) ;
#266 = DIRECTION ( 'NONE',  ( 0.000000000000000000, 0.000000000000000000, -1.000000000000000000 ) ) ;
#267 = CARTESIAN_POINT ( 'NONE',  ( 1.224646799147353700E-16, 2.000000000000000000, 0.000000000000000000 ) ) ;
#268 = FACE_OUTER_BOUND ( 'NONE', #19, .T. ) ;
#269 = DIRECTION ( 'NONE',  ( 1.000000000000000000, 0.000000000000000000, 0.000000000000000000 ) ) ;
#270 = AXIS2_PLACEMENT_3D ( 'NONE', #267, #293, #56 ) ;
#271 = PRESENTATION_LAYER_ASSIGNMENT (  '', '', ( #201 ) ) ;
#272 = EDGE_CURVE ( 'NONE', #145, #68, #287, .T. ) ;
#273 = CARTESIAN_POINT ( 'NONE',  ( 0.000000000000000000, 0.000000000000000000, -0.1875000000000000555 ) ) ;
#274 = CARTESIAN_POINT ( 'NONE',  ( 0.000000000000000000, 0.5000000000000000000, 0.000000000000000000 ) ) ;
#275 = FILL_AREA_STYLE ('',( #177 ) ) ;
#276 = AXIS2_PLACEMENT_3D ( 'NONE', #55, #36, #126 ) ;
#277 = DIRECTION ( 'NONE',  ( -1.000000000000000000, 0.000000000000000000, 0.000000000000000000 ) ) ;
#278 = VERTEX_POINT ( 'NONE', #160 ) ;
#279 = PRODUCT_RELATED_PRODUCT_CATEGORY ( 'part', '', ( #186 ) ) ;
#280 = VERTEX_POINT ( 'NONE', #290 ) ;
#281 = DIRECTION ( 'NONE',  ( -1.000000000000000000, 0.000000000000000000, 0.000000000000000000 ) ) ;
#282 = SURFACE_STYLE_FILL_AREA ( #30 ) ;
#283 = ADVANCED_FACE ( 'NONE', ( #51 ), #4, .T. ) ;
#284 = ORIENTED_EDGE ( 'NONE', *, *, #132, .F. ) ;
#285 = CIRCLE ( 'NONE', #5, 0.1874999999999999167 ) ;
#286 = CARTESIAN_POINT ( 'NONE',  ( 0.000000000000000000, 0.000000000000000000, -0.1875000000000000278 ) ) ;
#287 = CIRCLE ( 'NONE', #194, 0.1875000000000000555 ) ;
#288 = LENGTH_MEASURE_WITH_UNIT ( LENGTH_MEASURE( 0.02539999999999999897 ), #166 );
#289 =( NAMED_UNIT ( * ) SI_UNIT ( $, .STERADIAN. ) SOLID_ANGLE_UNIT ( ) );
#290 = CARTESIAN_POINT ( 'NONE',  ( 2.296212748401287726E-17, 0.000000000000000000, 0.1875000000000000278 ) ) ;
#291 = ADVANCED_BREP_SHAPE_REPRESENTATION ( '44212W', ( #261, #263, #298 ), #80 ) ;
#292 = COLOUR_RGB ( '',0.7921568627450980005, 0.8196078431372548767, 0.9333333333333333481 ) ;
#293 = DIRECTION ( 'NONE',  ( 8.164311994315692567E-17, 1.000000000000000000, -0.000000000000000000 ) ) ;
#294 = PRESENTATION_STYLE_ASSIGNMENT (( #239 ) ) ;
#295 = LINE ( 'NONE', #168, #181 ) ;
#296 = AXIS2_PLACEMENT_3D ( 'NONE', #225, #197, #100 ) ;
#297 = DIRECTION ( 'NONE',  ( 0.000000000000000000, 0.000000000000000000, -1.000000000000000000 ) ) ;
#298 = AXIS2_PLACEMENT_3D ( 'NONE', #203, #249, #269 ) ;
#299 = DIRECTION ( 'NONE',  ( 0.000000000000000000, 0.000000000000000000, -1.000000000000000000 ) ) ;
#300 = CARTESIAN_POINT ( 'NONE',  ( 0.1875000000000000555, 0.5000000000000001110, 2.296212748401287109E-17 ) ) ;
#301 = CLOSED_SHELL ( 'NONE', ( #174, #161, #2, #95 ) ) ;
#302 = DIRECTION ( 'NONE',  ( 0.000000000000000000, 0.000000000000000000, -1.000000000000000000 ) ) ;
#303 =( GEOMETRIC_REPRESENTATION_CONTEXT ( 3 ) GLOBAL_UNCERTAINTY_ASSIGNED_CONTEXT ( ( #153 ) ) GLOBAL_UNIT_ASSIGNED_CONTEXT ( ( #71, #188, #231 ) ) REPRESENTATION_CONTEXT ( 'NONE', 'WORKASPACE' ) );
#304 = DIRECTION ( 'NONE',  ( 8.164311994315692567E-17, 1.000000000000000000, -0.000000000000000000 ) ) ;
#305 = DIMENSIONAL_EXPONENTS ( 1.000000000000000000, 0.000000000000000000, 0.000000000000000000, 0.000000000000000000, 0.000000000000000000, 0.000000000000000000, 0.000000000000000000 ) ;
#306 = CARTESIAN_POINT ( 'NONE',  ( 1.224646799147353700E-16, 2.000000000000000000, 0.000000000000000000 ) ) ;
#307 = VERTEX_POINT ( 'NONE', #192 ) ;
#308 =( GEOMETRIC_REPRESENTATION_CONTEXT ( 3 ) GLOBAL_UNCERTAINTY_ASSIGNED_CONTEXT ( ( #247 ) ) GLOBAL_UNIT_ASSIGNED_CONTEXT ( ( #37, #244, #76 ) ) REPRESENTATION_CONTEXT ( 'NONE', 'WORKASPACE' ) );
#309 = VERTEX_POINT ( 'NONE', #286 ) ;
ENDSEC;
END-ISO-10303-21;
