ISO-10303-21;
HEADER;
FILE_DESCRIPTION (( 'STEP AP214' ),
    '1' );
FILE_NAME ('Micro_BMSM-014-2.STEP',
    '2021-09-03T15:43:55',
    ( '' ),
    ( '' ),
    'SwSTEP 2.0',
    'SolidWorks 2020',
    '' );
FILE_SCHEMA (( 'AUTOMOTIVE_DESIGN' ));
ENDSEC;

DATA;
#1 = DIRECTION ( 'NONE',  ( 0.0000000000000000000, 0.0000000000000000000, 1.000000000000000000 ) ) ;
#2 = CYLINDRICAL_SURFACE ( 'NONE', #13, 0.05905500000000000332 ) ;
#3 = COLOUR_RGB ( '',0.7921568627450980005, 0.8196078431372548767, 0.9333333333333333481 ) ;
#4 = FACE_OUTER_BOUND ( 'NONE', #248, .T. ) ;
#5 = SURFACE_STYLE_USAGE ( .BOTH. , #299 ) ;
#6 = EDGE_LOOP ( 'NONE', ( #52, #132, #69, #74 ) ) ;
#7 = CARTESIAN_POINT ( 'NONE',  ( 0.02753144100000000372, 3.371629109656420496E-18, 0.02753144099999999678 ) ) ;
#8 = AXIS2_PLACEMENT_3D ( 'NONE', #112, #235, #213 ) ;
#9 =( CONVERSION_BASED_UNIT ( 'INCH', #119 ) LENGTH_UNIT ( ) NAMED_UNIT ( #54 ) );
#10 = ADVANCED_FACE ( 'NONE', ( #210 ), #2, .T. ) ;
#11 = PRODUCT ( 'Micro_BMSM-014-2', 'Micro_BMSM-014-2', '', ( #182 ) ) ;
#12 = DIRECTION ( 'NONE',  ( -0.0000000000000000000, -0.0000000000000000000, -1.000000000000000000 ) ) ;
#13 = AXIS2_PLACEMENT_3D ( 'NONE', #255, #110, #106 ) ;
#14 = STYLED_ITEM ( 'NONE', ( #231 ), #118 ) ;
#15 = DIRECTION ( 'NONE',  ( -1.224646799147353207E-16, -0.0000000000000000000, -1.000000000000000000 ) ) ;
#16 = CARTESIAN_POINT ( 'NONE',  ( -0.04405499999999973326, 0.0000000000000000000, 1.496062999999999921 ) ) ;
#17 = ADVANCED_FACE ( 'NONE', ( #304 ), #303, .T. ) ;
#18 = DIRECTION ( 'NONE',  ( -1.224646799147353207E-16, -0.0000000000000000000, -1.000000000000000000 ) ) ;
#19 = VECTOR ( 'NONE', #200, 39.37007874015748143 ) ;
#20 = VERTEX_POINT ( 'NONE', #253 ) ;
#21 = ADVANCED_FACE ( 'NONE', ( #76 ), #33, .T. ) ;
#22 = DIRECTION ( 'NONE',  ( 1.000000000000000000, 0.0000000000000000000, 0.0000000000000000000 ) ) ;
#23 = ORIENTED_EDGE ( 'NONE', *, *, #307, .T. ) ;
#24 =( NAMED_UNIT ( * ) SI_UNIT ( $, .STERADIAN. ) SOLID_ANGLE_UNIT ( ) );
#25 = EDGE_CURVE ( 'NONE', #154, #145, #156, .T. ) ;
#26 = EDGE_LOOP ( 'NONE', ( #48, #205, #206, #321 ) ) ;
#27 = STYLED_ITEM ( 'NONE', ( #300 ), #80 ) ;
#28 = ORIENTED_EDGE ( 'NONE', *, *, #307, .F. ) ;
#29 = DIRECTION ( 'NONE',  ( -0.0000000000000000000, -0.0000000000000000000, -1.000000000000000000 ) ) ;
#30 = ORIENTED_EDGE ( 'NONE', *, *, #158, .T. ) ;
#31 = ORIENTED_EDGE ( 'NONE', *, *, #45, .F. ) ;
#32 = CONICAL_SURFACE ( 'NONE', #43, 0.04405499999999973326, 0.7853981633974491672 ) ;
#33 = PLANE ( 'NONE',  #293 ) ;
#34 = CARTESIAN_POINT ( 'NONE',  ( 0.05905500000000000332, 7.232151672364695422E-18, 1.481062999999999574 ) ) ;
#35 = PRODUCT_RELATED_PRODUCT_CATEGORY ( 'part', '', ( #11 ) ) ;
#36 = VECTOR ( 'NONE', #15, 39.37007874015748143 ) ;
#37 = DIRECTION ( 'NONE',  ( 1.224646799147353207E-16, 0.0000000000000000000, 1.000000000000000000 ) ) ;
#38 =( NAMED_UNIT ( * ) PLANE_ANGLE_UNIT ( ) SI_UNIT ( $, .RADIAN. ) );
#39 = DIRECTION ( 'NONE',  ( -1.000000000000000000, 0.0000000000000000000, 1.550413757892444147E-16 ) ) ;
#40 = CIRCLE ( 'NONE', #314, 0.05905500000000000332 ) ;
#41 = VERTEX_POINT ( 'NONE', #57 ) ;
#42 = CYLINDRICAL_SURFACE ( 'NONE', #124, 0.02753144100000000025 ) ;
#43 = AXIS2_PLACEMENT_3D ( 'NONE', #100, #269, #196 ) ;
#44 = DIRECTION ( 'NONE',  ( 1.000000000000000000, 0.0000000000000000000, 0.0000000000000000000 ) ) ;
#45 = EDGE_CURVE ( 'NONE', #41, #145, #257, .T. ) ;
#46 = VERTEX_POINT ( 'NONE', #7 ) ;
#47 = CARTESIAN_POINT ( 'NONE',  ( 3.371629109656420496E-18, 0.0000000000000000000, 0.02753144100000000025 ) ) ;
#48 = ORIENTED_EDGE ( 'NONE', *, *, #278, .T. ) ;
#49 = FILL_AREA_STYLE ('',( #272 ) ) ;
#50 = AXIS2_PLACEMENT_3D ( 'NONE', #186, #1, #81 ) ;
#51 =( LENGTH_UNIT ( ) NAMED_UNIT ( * ) SI_UNIT ( $, .METRE. ) );
#52 = ORIENTED_EDGE ( 'NONE', *, *, #150, .F. ) ;
#53 = DIRECTION ( 'NONE',  ( 0.1736481776669313859, 0.0000000000000000000, 0.9848077530122077983 ) ) ;
#54 = DIMENSIONAL_EXPONENTS ( 1.000000000000000000, 0.0000000000000000000, 0.0000000000000000000, 0.0000000000000000000, 0.0000000000000000000, 0.0000000000000000000, 0.0000000000000000000 ) ;
#55 = ORIENTED_EDGE ( 'NONE', *, *, #261, .T. ) ;
#56 = AXIS2_PLACEMENT_3D ( 'NONE', #217, #138, #286 ) ;
#57 = CARTESIAN_POINT ( 'NONE',  ( 0.02753144100000001412, 0.0000000000000000000, 0.08267699999999998661 ) ) ;
#58 = EDGE_CURVE ( 'NONE', #287, #46, #123, .T. ) ;
#59 = CARTESIAN_POINT ( 'NONE',  ( 0.05905500000000004496, 7.232151672364700045E-18, 0.2614559870463452063 ) ) ;
#60 =( GEOMETRIC_REPRESENTATION_CONTEXT ( 3 ) GLOBAL_UNCERTAINTY_ASSIGNED_CONTEXT ( ( #125 ) ) GLOBAL_UNIT_ASSIGNED_CONTEXT ( ( #9, #38, #144 ) ) REPRESENTATION_CONTEXT ( 'NONE', 'WORKASPACE' ) );
#61 = FACE_OUTER_BOUND ( 'NONE', #6, .T. ) ;
#62 = FACE_OUTER_BOUND ( 'NONE', #128, .T. ) ;
#63 = CARTESIAN_POINT ( 'NONE',  ( 1.012501234131057143E-17, 0.0000000000000000000, 0.08267699999999998661 ) ) ;
#64 = AXIS2_PLACEMENT_3D ( 'NONE', #308, #194, #259 ) ;
#65 = COLOUR_RGB ( '',0.7921568627450980005, 0.8196078431372548767, 0.9333333333333333481 ) ;
#66 = DIRECTION ( 'NONE',  ( -1.000000000000000000, 0.0000000000000000000, 1.224646799147353207E-16 ) ) ;
#67 = FACE_OUTER_BOUND ( 'NONE', #226, .T. ) ;
#68 = CARTESIAN_POINT ( 'NONE',  ( 0.04405499999999973326, 6.313666573004162521E-18, 1.496062999999999921 ) ) ;
#69 = ORIENTED_EDGE ( 'NONE', *, *, #167, .T. ) ;
#70 = CARTESIAN_POINT ( 'NONE',  ( -0.02753144099999999678, 0.0000000000000000000, 0.02753144100000000372 ) ) ;
#71 = ORIENTED_EDGE ( 'NONE', *, *, #158, .F. ) ;
#72 = LINE ( 'NONE', #201, #176 ) ;
#73 = ORIENTED_EDGE ( 'NONE', *, *, #271, .F. ) ;
#74 = ORIENTED_EDGE ( 'NONE', *, *, #58, .T. ) ;
#75 = AXIS2_PLACEMENT_3D ( 'NONE', #239, #86, #88 ) ;
#76 = FACE_OUTER_BOUND ( 'NONE', #82, .T. ) ;
#77 =( NAMED_UNIT ( * ) PLANE_ANGLE_UNIT ( ) SI_UNIT ( $, .RADIAN. ) );
#78 = DIRECTION ( 'NONE',  ( -1.000000000000000000, 0.0000000000000000000, 0.0000000000000000000 ) ) ;
#79 = ADVANCED_FACE ( 'NONE', ( #4 ), #298, .T. ) ;
#80 = MANIFOLD_SOLID_BREP ( 'Fillet1', #83 ) ;
#81 = DIRECTION ( 'NONE',  ( 1.000000000000000000, 0.0000000000000000000, 0.0000000000000000000 ) ) ;
#82 = EDGE_LOOP ( 'NONE', ( #160, #222 ) ) ;
#83 = CLOSED_SHELL ( 'NONE', ( #230, #312, #91, #98, #10, #17, #21, #254, #234, #164, #79 ) ) ;
#84 = CARTESIAN_POINT ( 'NONE',  ( 0.0000000000000000000, 0.0000000000000000000, 1.496062999999999921 ) ) ;
#85 = PRODUCT_DEFINITION_CONTEXT ( 'detailed design', #256, 'design' ) ;
#86 = DIRECTION ( 'NONE',  ( 1.224646799147353207E-16, 1.000000000000000000, -0.0000000000000000000 ) ) ;
#87 = LINE ( 'NONE', #309, #214 ) ;
#88 = DIRECTION ( 'NONE',  ( -1.000000000000000000, 1.224646799147353207E-16, 0.0000000000000000000 ) ) ;
#89 = CONICAL_SURFACE ( 'NONE', #131, 0.02753144100000000372, 0.1745329251994338915 ) ;
#90 = CARTESIAN_POINT ( 'NONE',  ( 3.371629109656420496E-18, 0.0000000000000000000, 0.02753144100000000025 ) ) ;
#91 = ADVANCED_FACE ( 'NONE', ( #258 ), #202, .T. ) ;
#92 = UNCERTAINTY_MEASURE_WITH_UNIT (LENGTH_MEASURE( 1.000000000000000082E-05 ), #109, 'distance_accuracy_value', 'NONE');
#93 = DIRECTION ( 'NONE',  ( 1.000000000000000000, 0.0000000000000000000, 0.0000000000000000000 ) ) ;
#94 = DIRECTION ( 'NONE',  ( -1.000000000000000000, 0.0000000000000000000, 0.0000000000000000000 ) ) ;
#95 = AXIS2_PLACEMENT_3D ( 'NONE', #260, #283, #166 ) ;
#96 = DIRECTION ( 'NONE',  ( 1.000000000000000000, 0.0000000000000000000, 0.0000000000000000000 ) ) ;
#97 = FACE_OUTER_BOUND ( 'NONE', #229, .T. ) ;
#98 = ADVANCED_FACE ( 'NONE', ( #62 ), #127, .T. ) ;
#99 = VERTEX_POINT ( 'NONE', #139 ) ;
#100 = CARTESIAN_POINT ( 'NONE',  ( 0.0000000000000000000, 0.0000000000000000000, 1.496062999999999921 ) ) ;
#101 = ORIENTED_EDGE ( 'NONE', *, *, #207, .F. ) ;
#102 = EDGE_CURVE ( 'NONE', #20, #99, #87, .T. ) ;
#103 = VECTOR ( 'NONE', #114, 39.37007874015747433 ) ;
#104 = CIRCLE ( 'NONE', #301, 0.05905500000000000332 ) ;
#105 = EDGE_CURVE ( 'NONE', #157, #287, #249, .T. ) ;
#106 = DIRECTION ( 'NONE',  ( -1.000000000000000000, 0.0000000000000000000, 0.0000000000000000000 ) ) ;
#107 =( GEOMETRIC_REPRESENTATION_CONTEXT ( 3 ) GLOBAL_UNCERTAINTY_ASSIGNED_CONTEXT ( ( #92 ) ) GLOBAL_UNIT_ASSIGNED_CONTEXT ( ( #109, #77, #252 ) ) REPRESENTATION_CONTEXT ( 'NONE', 'WORKASPACE' ) );
#108 = DIRECTION ( 'NONE',  ( 1.000000000000000000, 0.0000000000000000000, -0.0000000000000000000 ) ) ;
#109 =( CONVERSION_BASED_UNIT ( 'INCH', #302 ) LENGTH_UNIT ( ) NAMED_UNIT ( #203 ) );
#110 = DIRECTION ( 'NONE',  ( -0.0000000000000000000, -0.0000000000000000000, -1.000000000000000000 ) ) ;
#111 = FILL_AREA_STYLE ('',( #221 ) ) ;
#112 = CARTESIAN_POINT ( 'NONE',  ( 3.371629109656420496E-18, 0.0000000000000000000, 0.02753144100000000025 ) ) ;
#113 = EDGE_CURVE ( 'NONE', #41, #317, #115, .T. ) ;
#114 = DIRECTION ( 'NONE',  ( -0.1736481776669311916, 2.126576849575783316E-17, 0.9848077530122080203 ) ) ;
#115 = CIRCLE ( 'NONE', #228, 0.02753144100000000372 ) ;
#116 = UNCERTAINTY_MEASURE_WITH_UNIT (LENGTH_MEASURE( 1.000000000000000082E-05 ), #320, 'distance_accuracy_value', 'NONE');
#117 = CARTESIAN_POINT ( 'NONE',  ( 5.057443664484630936E-18, 0.0000000000000000000, 0.0000000000000000000 ) ) ;
#118 = ADVANCED_BREP_SHAPE_REPRESENTATION ( 'Micro_BMSM-014-2', ( #80, #50 ), #143 ) ;
#119 = LENGTH_MEASURE_WITH_UNIT ( LENGTH_MEASURE( 0.02539999999999999897 ), #240 );
#120 = CARTESIAN_POINT ( 'NONE',  ( 3.201912376542185292E-17, 0.0000000000000000000, 0.2614559870463452063 ) ) ;
#121 = CARTESIAN_POINT ( 'NONE',  ( 0.0000000000000000000, 0.0000000000000000000, 1.481062999999999574 ) ) ;
#122 = ORIENTED_EDGE ( 'NONE', *, *, #179, .T. ) ;
#123 = CIRCLE ( 'NONE', #8, 0.02753144100000000025 ) ;
#124 = AXIS2_PLACEMENT_3D ( 'NONE', #245, #18, #66 ) ;
#125 = UNCERTAINTY_MEASURE_WITH_UNIT (LENGTH_MEASURE( 1.000000000000000082E-05 ), #9, 'distance_accuracy_value', 'NONE');
#126 = ORIENTED_EDGE ( 'NONE', *, *, #140, .F. ) ;
#127 = CONICAL_SURFACE ( 'NONE', #64, 0.04405499999999973326, 0.7853981633974491672 ) ;
#128 = EDGE_LOOP ( 'NONE', ( #291, #55, #185, #28 ) ) ;
#129 = CARTESIAN_POINT ( 'NONE',  ( 0.0000000000000000000, 0.0000000000000000000, 1.496062999999999921 ) ) ;
#130 = DIRECTION ( 'NONE',  ( -0.0000000000000000000, -0.0000000000000000000, -1.000000000000000000 ) ) ;
#131 = AXIS2_PLACEMENT_3D ( 'NONE', #295, #288, #177 ) ;
#132 = ORIENTED_EDGE ( 'NONE', *, *, #113, .T. ) ;
#133 = SHAPE_DEFINITION_REPRESENTATION ( #282, #118 ) ;
#134 = CARTESIAN_POINT ( 'NONE',  ( 1.012501234131057143E-17, 0.0000000000000000000, 0.08267699999999998661 ) ) ;
#135 = ORIENTED_EDGE ( 'NONE', *, *, #150, .T. ) ;
#136 = LINE ( 'NONE', #242, #36 ) ;
#137 = CIRCLE ( 'NONE', #181, 0.04405499999999973326 ) ;
#138 = DIRECTION ( 'NONE',  ( -1.224646799147353207E-16, -0.0000000000000000000, -1.000000000000000000 ) ) ;
#139 = CARTESIAN_POINT ( 'NONE',  ( -0.05905499999999996863, 0.0000000000000000000, 0.2614559870463452063 ) ) ;
#140 = EDGE_CURVE ( 'NONE', #294, #212, #137, .T. ) ;
#141 = CYLINDRICAL_SURFACE ( 'NONE', #56, 0.02753144100000000025 ) ;
#142 = AXIS2_PLACEMENT_3D ( 'NONE', #47, #265, #174 ) ;
#143 =( GEOMETRIC_REPRESENTATION_CONTEXT ( 3 ) GLOBAL_UNCERTAINTY_ASSIGNED_CONTEXT ( ( #116 ) ) GLOBAL_UNIT_ASSIGNED_CONTEXT ( ( #320, #290, #24 ) ) REPRESENTATION_CONTEXT ( 'NONE', 'WORKASPACE' ) );
#144 =( NAMED_UNIT ( * ) SI_UNIT ( $, .STERADIAN. ) SOLID_ANGLE_UNIT ( ) );
#145 = VERTEX_POINT ( 'NONE', #59 ) ;
#146 = DIRECTION ( 'NONE',  ( 0.0000000000000000000, 0.0000000000000000000, -1.000000000000000000 ) ) ;
#147 = CIRCLE ( 'NONE', #277, 0.02753144100000000372 ) ;
#148 = DIRECTION ( 'NONE',  ( 0.0000000000000000000, 0.0000000000000000000, -1.000000000000000000 ) ) ;
#149 = ORIENTED_EDGE ( 'NONE', *, *, #45, .T. ) ;
#150 = EDGE_CURVE ( 'NONE', #41, #46, #168, .T. ) ;
#151 = ORIENTED_EDGE ( 'NONE', *, *, #169, .F. ) ;
#152 = DIRECTION ( 'NONE',  ( 0.0000000000000000000, 0.0000000000000000000, -1.000000000000000000 ) ) ;
#153 = MECHANICAL_DESIGN_GEOMETRIC_PRESENTATION_REPRESENTATION (  '', ( #14 ), #107 ) ;
#154 = VERTEX_POINT ( 'NONE', #34 ) ;
#155 = EDGE_CURVE ( 'NONE', #212, #294, #238, .T. ) ;
#156 = LINE ( 'NONE', #251, #159 ) ;
#157 = VERTEX_POINT ( 'NONE', #117 ) ;
#158 = EDGE_CURVE ( 'NONE', #46, #287, #306, .T. ) ;
#159 = VECTOR ( 'NONE', #130, 39.37007874015748143 ) ;
#160 = ORIENTED_EDGE ( 'NONE', *, *, #140, .T. ) ;
#161 = DIMENSIONAL_EXPONENTS ( 1.000000000000000000, 0.0000000000000000000, 0.0000000000000000000, 0.0000000000000000000, 0.0000000000000000000, 0.0000000000000000000, 0.0000000000000000000 ) ;
#162 = ORIENTED_EDGE ( 'NONE', *, *, #190, .T. ) ;
#163 = DIRECTION ( 'NONE',  ( -1.224646799147353207E-16, -0.0000000000000000000, -1.000000000000000000 ) ) ;
#164 = ADVANCED_FACE ( 'NONE', ( #61 ), #141, .T. ) ;
#165 = CIRCLE ( 'NONE', #198, 0.02753144100000000025 ) ;
#166 = DIRECTION ( 'NONE',  ( 1.000000000000000000, 0.0000000000000000000, 0.0000000000000000000 ) ) ;
#167 = EDGE_CURVE ( 'NONE', #317, #287, #136, .T. ) ;
#168 = LINE ( 'NONE', #244, #187 ) ;
#169 = EDGE_CURVE ( 'NONE', #145, #99, #246, .T. ) ;
#170 = DIRECTION ( 'NONE',  ( 0.0000000000000000000, 0.0000000000000000000, 1.000000000000000000 ) ) ;
#171 = PRESENTATION_LAYER_ASSIGNMENT (  '', '', ( #27 ) ) ;
#172 =( LENGTH_UNIT ( ) NAMED_UNIT ( * ) SI_UNIT ( $, .METRE. ) );
#173 = DIRECTION ( 'NONE',  ( 0.7071067811865482389, 8.659560562354941486E-17, -0.7071067811865469066 ) ) ;
#174 = DIRECTION ( 'NONE',  ( 1.000000000000000000, 0.0000000000000000000, 0.0000000000000000000 ) ) ;
#175 = EDGE_LOOP ( 'NONE', ( #189, #276, #289, #151 ) ) ;
#176 = VECTOR ( 'NONE', #173, 39.37007874015748143 ) ;
#177 = DIRECTION ( 'NONE',  ( 1.000000000000000000, 0.0000000000000000000, 0.0000000000000000000 ) ) ;
#178 = DIRECTION ( 'NONE',  ( -1.224646799147353207E-16, -0.0000000000000000000, -1.000000000000000000 ) ) ;
#179 = EDGE_CURVE ( 'NONE', #317, #99, #195, .T. ) ;
#180 = DIRECTION ( 'NONE',  ( 0.0000000000000000000, 1.000000000000000000, 0.0000000000000000000 ) ) ;
#181 = AXIS2_PLACEMENT_3D ( 'NONE', #192, #170, #281 ) ;
#182 = PRODUCT_CONTEXT ( 'NONE', #243, 'mechanical' ) ;
#183 = ORIENTED_EDGE ( 'NONE', *, *, #169, .T. ) ;
#184 = DIRECTION ( 'NONE',  ( 0.0000000000000000000, 0.0000000000000000000, 1.000000000000000000 ) ) ;
#185 = ORIENTED_EDGE ( 'NONE', *, *, #278, .F. ) ;
#186 = CARTESIAN_POINT ( 'NONE',  ( 0.0000000000000000000, 0.0000000000000000000, 0.0000000000000000000 ) ) ;
#187 = VECTOR ( 'NONE', #311, 39.37007874015748143 ) ;
#188 = PRODUCT_DEFINITION_FORMATION_WITH_SPECIFIED_SOURCE ( 'ANY', '', #11, .NOT_KNOWN. ) ;
#189 = ORIENTED_EDGE ( 'NONE', *, *, #25, .F. ) ;
#190 = EDGE_CURVE ( 'NONE', #99, #145, #40, .T. ) ;
#191 = DIRECTION ( 'NONE',  ( -1.224646799147353207E-16, -0.0000000000000000000, -1.000000000000000000 ) ) ;
#192 = CARTESIAN_POINT ( 'NONE',  ( 0.0000000000000000000, 0.0000000000000000000, 1.496062999999999921 ) ) ;
#193 = DIRECTION ( 'NONE',  ( -1.000000000000000000, 0.0000000000000000000, 0.0000000000000000000 ) ) ;
#194 = DIRECTION ( 'NONE',  ( 0.0000000000000000000, 0.0000000000000000000, -1.000000000000000000 ) ) ;
#195 = LINE ( 'NONE', #263, #103 ) ;
#196 = DIRECTION ( 'NONE',  ( -1.000000000000000000, 0.0000000000000000000, 0.0000000000000000000 ) ) ;
#197 = MECHANICAL_DESIGN_GEOMETRIC_PRESENTATION_REPRESENTATION (  '', ( #27 ), #60 ) ;
#198 = AXIS2_PLACEMENT_3D ( 'NONE', #247, #264, #152 ) ;
#199 = ORIENTED_EDGE ( 'NONE', *, *, #271, .T. ) ;
#200 = DIRECTION ( 'NONE',  ( -0.7071067811865482389, 0.0000000000000000000, -0.7071067811865469066 ) ) ;
#201 = CARTESIAN_POINT ( 'NONE',  ( 0.04405499999999973326, 5.395181473643630390E-18, 1.496062999999999921 ) ) ;
#202 = CONICAL_SURFACE ( 'NONE', #310, 0.02753144100000000372, 0.1745329251994338915 ) ;
#203 = DIMENSIONAL_EXPONENTS ( 1.000000000000000000, 0.0000000000000000000, 0.0000000000000000000, 0.0000000000000000000, 0.0000000000000000000, 0.0000000000000000000, 0.0000000000000000000 ) ;
#204 = CARTESIAN_POINT ( 'NONE',  ( 1.012501234131057143E-17, 0.0000000000000000000, 0.08267699999999998661 ) ) ;
#205 = ORIENTED_EDGE ( 'NONE', *, *, #25, .T. ) ;
#206 = ORIENTED_EDGE ( 'NONE', *, *, #190, .F. ) ;
#207 = EDGE_CURVE ( 'NONE', #317, #41, #147, .T. ) ;
#208 = SURFACE_STYLE_USAGE ( .BOTH. , #325 ) ;
#209 = AXIS2_PLACEMENT_3D ( 'NONE', #90, #37, #39 ) ;
#210 = FACE_OUTER_BOUND ( 'NONE', #26, .T. ) ;
#211 = SURFACE_STYLE_FILL_AREA ( #111 ) ;
#212 = VERTEX_POINT ( 'NONE', #68 ) ;
#213 = DIRECTION ( 'NONE',  ( -1.000000000000000000, 0.0000000000000000000, 1.550413757892444147E-16 ) ) ;
#214 = VECTOR ( 'NONE', #12, 39.37007874015748143 ) ;
#215 = AXIS2_PLACEMENT_3D ( 'NONE', #121, #148, #44 ) ;
#216 = CARTESIAN_POINT ( 'NONE',  ( 3.201912376542185292E-17, 0.0000000000000000000, 0.2614559870463452063 ) ) ;
#217 = CARTESIAN_POINT ( 'NONE',  ( 0.0000000000000000000, 0.0000000000000000000, 0.0000000000000000000 ) ) ;
#218 = DIRECTION ( 'NONE',  ( 1.000000000000000000, 0.0000000000000000000, 0.0000000000000000000 ) ) ;
#219 = DIRECTION ( 'NONE',  ( -1.224646799147353207E-16, -0.0000000000000000000, -1.000000000000000000 ) ) ;
#220 = LINE ( 'NONE', #318, #19 ) ;
#221 = FILL_AREA_STYLE_COLOUR ( '', #65 ) ;
#222 = ORIENTED_EDGE ( 'NONE', *, *, #155, .T. ) ;
#223 = FACE_OUTER_BOUND ( 'NONE', #224, .T. ) ;
#224 = EDGE_LOOP ( 'NONE', ( #280, #296, #149, #183 ) ) ;
#225 = LENGTH_MEASURE_WITH_UNIT ( LENGTH_MEASURE( 0.02539999999999999897 ), #172 );
#226 = EDGE_LOOP ( 'NONE', ( #73, #227, #71 ) ) ;
#227 = ORIENTED_EDGE ( 'NONE', *, *, #105, .T. ) ;
#228 = AXIS2_PLACEMENT_3D ( 'NONE', #63, #163, #193 ) ;
#229 = EDGE_LOOP ( 'NONE', ( #237, #126, #23, #323 ) ) ;
#230 = ADVANCED_FACE ( 'NONE', ( #67 ), #315, .T. ) ;
#231 = PRESENTATION_STYLE_ASSIGNMENT (( #5 ) ) ;
#232 = SURFACE_STYLE_FILL_AREA ( #49 ) ;
#233 = CARTESIAN_POINT ( 'NONE',  ( 0.02753144100000001412, 0.0000000000000000000, 0.08267699999999998661 ) ) ;
#234 = ADVANCED_FACE ( 'NONE', ( #223 ), #89, .T. ) ;
#235 = DIRECTION ( 'NONE',  ( 1.224646799147353207E-16, 0.0000000000000000000, 1.000000000000000000 ) ) ;
#236 = CARTESIAN_POINT ( 'NONE',  ( 3.371629109656420496E-18, 0.0000000000000000000, 0.02753144100000000025 ) ) ;
#237 = ORIENTED_EDGE ( 'NONE', *, *, #261, .F. ) ;
#238 = CIRCLE ( 'NONE', #95, 0.04405499999999973326 ) ;
#239 = CARTESIAN_POINT ( 'NONE',  ( 3.371629109656420496E-18, 0.0000000000000000000, 0.02753144100000000025 ) ) ;
#240 =( LENGTH_UNIT ( ) NAMED_UNIT ( * ) SI_UNIT ( $, .METRE. ) );
#241 = VECTOR ( 'NONE', #53, 39.37007874015748143 ) ;
#242 = CARTESIAN_POINT ( 'NONE',  ( -0.02753144100000000025, 0.0000000000000000000, 3.371629109656420496E-18 ) ) ;
#243 = APPLICATION_CONTEXT ( 'automotive_design' ) ;
#244 = CARTESIAN_POINT ( 'NONE',  ( 0.02753144100000000025, 3.371629109656420496E-18, -3.371629109656420496E-18 ) ) ;
#245 = CARTESIAN_POINT ( 'NONE',  ( 0.0000000000000000000, 0.0000000000000000000, 0.0000000000000000000 ) ) ;
#246 = CIRCLE ( 'NONE', #273, 0.05905500000000000332 ) ;
#247 = CARTESIAN_POINT ( 'NONE',  ( 3.371629109656420496E-18, 0.0000000000000000000, 0.02753144100000000025 ) ) ;
#248 = EDGE_LOOP ( 'NONE', ( #267, #199, #319 ) ) ;
#249 = CIRCLE ( 'NONE', #75, 0.02753144100000000025 ) ;
#250 = ORIENTED_EDGE ( 'NONE', *, *, #167, .F. ) ;
#251 = CARTESIAN_POINT ( 'NONE',  ( 0.05905500000000000332, 7.232151672364695422E-18, 1.496062999999999921 ) ) ;
#252 =( NAMED_UNIT ( * ) SI_UNIT ( $, .STERADIAN. ) SOLID_ANGLE_UNIT ( ) );
#253 = CARTESIAN_POINT ( 'NONE',  ( -0.05905500000000000332, 0.0000000000000000000, 1.481062999999999574 ) ) ;
#254 = ADVANCED_FACE ( 'NONE', ( #97 ), #32, .T. ) ;
#255 = CARTESIAN_POINT ( 'NONE',  ( 0.0000000000000000000, 0.0000000000000000000, 1.496062999999999921 ) ) ;
#256 = APPLICATION_CONTEXT ( 'automotive_design' ) ;
#257 = LINE ( 'NONE', #233, #241 ) ;
#258 = FACE_OUTER_BOUND ( 'NONE', #275, .T. ) ;
#259 = DIRECTION ( 'NONE',  ( -1.000000000000000000, 0.0000000000000000000, 0.0000000000000000000 ) ) ;
#260 = CARTESIAN_POINT ( 'NONE',  ( 0.0000000000000000000, 0.0000000000000000000, 1.496062999999999921 ) ) ;
#261 = EDGE_CURVE ( 'NONE', #212, #154, #72, .T. ) ;
#262 = AXIS2_PLACEMENT_3D ( 'NONE', #84, #29, #78 ) ;
#263 = CARTESIAN_POINT ( 'NONE',  ( -0.02753144099999999678, 3.371629109656420881E-18, 0.08267699999999998661 ) ) ;
#264 = DIRECTION ( 'NONE',  ( 0.0000000000000000000, -1.000000000000000000, 0.0000000000000000000 ) ) ;
#265 = DIRECTION ( 'NONE',  ( 0.0000000000000000000, 1.000000000000000000, 0.0000000000000000000 ) ) ;
#266 = AXIS2_PLACEMENT_3D ( 'NONE', #236, #180, #305 ) ;
#267 = ORIENTED_EDGE ( 'NONE', *, *, #105, .F. ) ;
#268 = CARTESIAN_POINT ( 'NONE',  ( -0.02753144099999999678, 5.301890391010557766E-18, 0.08267699999999998661 ) ) ;
#269 = DIRECTION ( 'NONE',  ( 0.0000000000000000000, 0.0000000000000000000, -1.000000000000000000 ) ) ;
#270 = EDGE_LOOP ( 'NONE', ( #274, #135, #30, #250 ) ) ;
#271 = EDGE_CURVE ( 'NONE', #157, #46, #165, .T. ) ;
#272 = FILL_AREA_STYLE_COLOUR ( '', #3 ) ;
#273 = AXIS2_PLACEMENT_3D ( 'NONE', #120, #219, #93 ) ;
#274 = ORIENTED_EDGE ( 'NONE', *, *, #207, .T. ) ;
#275 = EDGE_LOOP ( 'NONE', ( #101, #122, #162, #31 ) ) ;
#276 = ORIENTED_EDGE ( 'NONE', *, *, #297, .T. ) ;
#277 = AXIS2_PLACEMENT_3D ( 'NONE', #204, #178, #94 ) ;
#278 = EDGE_CURVE ( 'NONE', #20, #154, #104, .T. ) ;
#279 = PRESENTATION_LAYER_ASSIGNMENT (  '', '', ( #14 ) ) ;
#280 = ORIENTED_EDGE ( 'NONE', *, *, #179, .F. ) ;
#281 = DIRECTION ( 'NONE',  ( 1.000000000000000000, 0.0000000000000000000, 0.0000000000000000000 ) ) ;
#282 = PRODUCT_DEFINITION_SHAPE ( 'NONE', 'NONE',  #284 ) ;
#283 = DIRECTION ( 'NONE',  ( 0.0000000000000000000, 0.0000000000000000000, 1.000000000000000000 ) ) ;
#284 = PRODUCT_DEFINITION ( 'UNKNOWN', '', #188, #85 ) ;
#285 = DIRECTION ( 'NONE',  ( 1.224646799147353207E-16, 0.0000000000000000000, 1.000000000000000000 ) ) ;
#286 = DIRECTION ( 'NONE',  ( -1.000000000000000000, 0.0000000000000000000, 1.224646799147353207E-16 ) ) ;
#287 = VERTEX_POINT ( 'NONE', #70 ) ;
#288 = DIRECTION ( 'NONE',  ( 1.224646799147353207E-16, 0.0000000000000000000, 1.000000000000000000 ) ) ;
#289 = ORIENTED_EDGE ( 'NONE', *, *, #102, .T. ) ;
#290 =( NAMED_UNIT ( * ) PLANE_ANGLE_UNIT ( ) SI_UNIT ( $, .RADIAN. ) );
#291 = ORIENTED_EDGE ( 'NONE', *, *, #155, .F. ) ;
#292 = CARTESIAN_POINT ( 'NONE',  ( 0.0000000000000000000, 0.0000000000000000000, 1.481062999999999574 ) ) ;
#293 = AXIS2_PLACEMENT_3D ( 'NONE', #129, #184, #108 ) ;
#294 = VERTEX_POINT ( 'NONE', #16 ) ;
#295 = CARTESIAN_POINT ( 'NONE',  ( 1.012501234131057143E-17, 0.0000000000000000000, 0.08267699999999998661 ) ) ;
#296 = ORIENTED_EDGE ( 'NONE', *, *, #113, .F. ) ;
#297 = EDGE_CURVE ( 'NONE', #154, #20, #316, .T. ) ;
#298 = SPHERICAL_SURFACE ( 'NONE', #266, 0.02753144100000000025 ) ;
#299 = SURFACE_SIDE_STYLE ('',( #211 ) ) ;
#300 = PRESENTATION_STYLE_ASSIGNMENT (( #208 ) ) ;
#301 = AXIS2_PLACEMENT_3D ( 'NONE', #292, #146, #22 ) ;
#302 = LENGTH_MEASURE_WITH_UNIT ( LENGTH_MEASURE( 0.02539999999999999897 ), #51 );
#303 = CYLINDRICAL_SURFACE ( 'NONE', #262, 0.05905500000000000332 ) ;
#304 = FACE_OUTER_BOUND ( 'NONE', #175, .T. ) ;
#305 = DIRECTION ( 'NONE',  ( 1.000000000000000000, 0.0000000000000000000, 0.0000000000000000000 ) ) ;
#306 = CIRCLE ( 'NONE', #209, 0.02753144100000000025 ) ;
#307 = EDGE_CURVE ( 'NONE', #294, #20, #220, .T. ) ;
#308 = CARTESIAN_POINT ( 'NONE',  ( 0.0000000000000000000, 0.0000000000000000000, 1.496062999999999921 ) ) ;
#309 = CARTESIAN_POINT ( 'NONE',  ( -0.05905500000000000332, 0.0000000000000000000, 1.496062999999999921 ) ) ;
#310 = AXIS2_PLACEMENT_3D ( 'NONE', #134, #285, #218 ) ;
#311 = DIRECTION ( 'NONE',  ( -1.224646799147353207E-16, -0.0000000000000000000, -1.000000000000000000 ) ) ;
#312 = ADVANCED_FACE ( 'NONE', ( #313 ), #42, .T. ) ;
#313 = FACE_OUTER_BOUND ( 'NONE', #270, .T. ) ;
#314 = AXIS2_PLACEMENT_3D ( 'NONE', #216, #191, #96 ) ;
#315 = SPHERICAL_SURFACE ( 'NONE', #142, 0.02753144100000000025 ) ;
#316 = CIRCLE ( 'NONE', #215, 0.05905500000000000332 ) ;
#317 = VERTEX_POINT ( 'NONE', #268 ) ;
#318 = CARTESIAN_POINT ( 'NONE',  ( -0.04405499999999973326, 0.0000000000000000000, 1.496062999999999921 ) ) ;
#319 = ORIENTED_EDGE ( 'NONE', *, *, #58, .F. ) ;
#320 =( CONVERSION_BASED_UNIT ( 'INCH', #225 ) LENGTH_UNIT ( ) NAMED_UNIT ( #161 ) );
#321 = ORIENTED_EDGE ( 'NONE', *, *, #102, .F. ) ;
#322 = APPLICATION_PROTOCOL_DEFINITION ( 'draft international standard', 'automotive_design', 1998, #243 ) ;
#323 = ORIENTED_EDGE ( 'NONE', *, *, #297, .F. ) ;
#324 = APPLICATION_PROTOCOL_DEFINITION ( 'draft international standard', 'automotive_design', 1998, #256 ) ;
#325 = SURFACE_SIDE_STYLE ('',( #232 ) ) ;
ENDSEC;
END-ISO-10303-21;
