ISO-10303-21;
HEADER;
FILE_DESCRIPTION (( 'STEP AP214' ),
    '1' );
FILE_NAME ('59684.STEP',
    '2023-07-24T15:53:05',
    ( '' ),
    ( '' ),
    'SwSTEP 2.0',
    'SolidWorks 2023',
    '' );
FILE_SCHEMA (( 'AUTOMOTIVE_DESIGN' ));
ENDSEC;

DATA;
#1 = DIRECTION ( 'NONE',  ( 1.000000000000000000, -1.687291145491908606E-16, 0.000000000000000000 ) ) ;
#2 =( GEOMETRIC_REPRESENTATION_CONTEXT ( 3 ) GLOBAL_UNCERTAINTY_ASSIGNED_CONTEXT ( ( #164 ) ) GLOBAL_UNIT_ASSIGNED_CONTEXT ( ( #217, #81, #151 ) ) REPRESENTATION_CONTEXT ( 'NONE', 'WORKASPACE' ) );
#3 = ADVANCED_FACE ( 'NONE', ( #23 ), #285, .T. ) ;
#4 =( NAMED_UNIT ( * ) SI_UNIT ( $, .STERADIAN. ) SOLID_ANGLE_UNIT ( ) );
#5 = SURFACE_STYLE_USAGE ( .BOTH. , #32 ) ;
#6 = AXIS2_PLACEMENT_3D ( 'NONE', #122, #276, #170 ) ;
#7 = DIRECTION ( 'NONE',  ( 0.000000000000000000, 1.000000000000000000, 0.000000000000000000 ) ) ;
#8 = SURFACE_STYLE_FILL_AREA ( #231 ) ;
#9 = CIRCLE ( 'NONE', #104, 2.999999999999999112 ) ;
#10 = ADVANCED_FACE ( 'NONE', ( #98 ), #100, .T. ) ;
#11 = SURFACE_SIDE_STYLE ('',( #8 ) ) ;
#12 = SURFACE_STYLE_USAGE ( .BOTH. , #216 ) ;
#13 = SURFACE_SIDE_STYLE ('',( #220 ) ) ;
#14 = DIRECTION ( 'NONE',  ( 1.687291145491908606E-16, 1.000000000000000000, -0.000000000000000000 ) ) ;
#15 =( LENGTH_UNIT ( ) NAMED_UNIT ( * ) SI_UNIT ( .MILLI., .METRE. ) );
#16 = DIRECTION ( 'NONE',  ( 0.000000000000000000, 0.000000000000000000, -1.000000000000000000 ) ) ;
#17 = AXIS2_PLACEMENT_3D ( 'NONE', #167, #52, #141 ) ;
#18 = CIRCLE ( 'NONE', #30, 2.999999999999999112 ) ;
#19 = ORIENTED_EDGE ( 'NONE', *, *, #191, .T. ) ;
#20 = UNCERTAINTY_MEASURE_WITH_UNIT (LENGTH_MEASURE( 1.000000000000000082E-05 ), #25, 'distance_accuracy_value', 'NONE');
#21 =( GEOMETRIC_REPRESENTATION_CONTEXT ( 3 ) GLOBAL_UNCERTAINTY_ASSIGNED_CONTEXT ( ( #20 ) ) GLOBAL_UNIT_ASSIGNED_CONTEXT ( ( #25, #188, #204 ) ) REPRESENTATION_CONTEXT ( 'NONE', 'WORKASPACE' ) );
#22 = CIRCLE ( 'NONE', #160, 2.999999999999991562 ) ;
#23 = FACE_OUTER_BOUND ( 'NONE', #157, .T. ) ;
#24 = CARTESIAN_POINT ( 'NONE',  ( 0.000000000000000000, 18.00000000000000355, -2.999999999999999112 ) ) ;
#25 =( LENGTH_UNIT ( ) NAMED_UNIT ( * ) SI_UNIT ( .MILLI., .METRE. ) );
#26 = UNCERTAINTY_MEASURE_WITH_UNIT (LENGTH_MEASURE( 1.000000000000000082E-05 ), #251, 'distance_accuracy_value', 'NONE');
#27 = MANIFOLD_SOLID_BREP ( 'Revolve - Tool Body (Straight Shanked)', #93 ) ;
#28 = EDGE_CURVE ( 'NONE', #264, #225, #272, .T. ) ;
#29 = COLOUR_RGB ( '',0.7921568627450980005, 0.8196078431372548767, 0.9333333333333333481 ) ;
#30 = AXIS2_PLACEMENT_3D ( 'NONE', #168, #123, #74 ) ;
#31 = PRODUCT_DEFINITION_SHAPE ( 'NONE', 'NONE',  #61 ) ;
#32 = SURFACE_SIDE_STYLE ('',( #212 ) ) ;
#33 = CARTESIAN_POINT ( 'NONE',  ( 0.000000000000000000, 18.00000000000000355, 0.000000000000000000 ) ) ;
#34 = PRESENTATION_LAYER_ASSIGNMENT (  '', '', ( #241 ) ) ;
#35 = STYLED_ITEM ( 'NONE', ( #171 ), #120 ) ;
#36 = DIRECTION ( 'NONE',  ( 0.000000000000000000, 0.000000000000000000, -1.000000000000000000 ) ) ;
#37 = CYLINDRICAL_SURFACE ( 'NONE', #194, 2.999999999999995115 ) ;
#38 =( NAMED_UNIT ( * ) SI_UNIT ( $, .STERADIAN. ) SOLID_ANGLE_UNIT ( ) );
#39 =( GEOMETRIC_REPRESENTATION_CONTEXT ( 3 ) GLOBAL_UNCERTAINTY_ASSIGNED_CONTEXT ( ( #26 ) ) GLOBAL_UNIT_ASSIGNED_CONTEXT ( ( #251, #73, #142 ) ) REPRESENTATION_CONTEXT ( 'NONE', 'WORKASPACE' ) );
#40 = SURFACE_SIDE_STYLE ('',( #184 ) ) ;
#41 = DIRECTION ( 'NONE',  ( 1.687291145491908606E-16, 1.000000000000000000, -0.000000000000000000 ) ) ;
#42 = ORIENTED_EDGE ( 'NONE', *, *, #191, .F. ) ;
#43 = ADVANCED_FACE ( 'NONE', ( #215 ), #165, .F. ) ;
#44 = COLOUR_RGB ( '',0.7921568627450980005, 0.8196078431372548767, 0.9333333333333333481 ) ;
#45 = EDGE_LOOP ( 'NONE', ( #258, #206, #287, #92 ) ) ;
#46 = APPLICATION_PROTOCOL_DEFINITION ( 'draft international standard', 'automotive_design', 1998, #66 ) ;
#47 = ORIENTED_EDGE ( 'NONE', *, *, #229, .F. ) ;
#48 = CARTESIAN_POINT ( 'NONE',  ( 0.000000000000000000, 0.000000000000000000, 0.000000000000000000 ) ) ;
#49 = PRODUCT_DEFINITION_CONTEXT ( 'detailed design', #66, 'design' ) ;
#50 = MECHANICAL_DESIGN_GEOMETRIC_PRESENTATION_REPRESENTATION (  '', ( #35 ), #281 ) ;
#51 = DIRECTION ( 'NONE',  ( 0.000000000000000000, 0.000000000000000000, -1.000000000000000000 ) ) ;
#52 = DIRECTION ( 'NONE',  ( 1.687291145491908606E-16, 1.000000000000000000, -0.000000000000000000 ) ) ;
#53 = APPLICATION_CONTEXT ( 'automotive_design' ) ;
#54 = DIRECTION ( 'NONE',  ( -1.000000000000000000, 0.000000000000000000, 0.000000000000000000 ) ) ;
#55 = FILL_AREA_STYLE_COLOUR ( '', #176 ) ;
#56 = SURFACE_STYLE_USAGE ( .BOTH. , #75 ) ;
#57 = DIRECTION ( 'NONE',  ( -0.000000000000000000, -1.000000000000000000, -0.000000000000000000 ) ) ;
#58 = FACE_OUTER_BOUND ( 'NONE', #45, .T. ) ;
#59 = ADVANCED_BREP_SHAPE_REPRESENTATION ( '59684', ( #120, #27, #271 ), #284 ) ;
#60 = DIRECTION ( 'NONE',  ( -0.000000000000000000, -1.000000000000000000, -0.000000000000000000 ) ) ;
#61 = PRODUCT_DEFINITION ( 'UNKNOWN', '', #112, #49 ) ;
#62 = DIRECTION ( 'NONE',  ( -1.000000000000000000, 0.000000000000000000, 0.000000000000000000 ) ) ;
#63 = ORIENTED_EDGE ( 'NONE', *, *, #85, .F. ) ;
#64 = EDGE_LOOP ( 'NONE', ( #239, #42 ) ) ;
#65 = VERTEX_POINT ( 'NONE', #118 ) ;
#66 = APPLICATION_CONTEXT ( 'automotive_design' ) ;
#67 = ORIENTED_EDGE ( 'NONE', *, *, #211, .F. ) ;
#68 = CARTESIAN_POINT ( 'NONE',  ( 0.000000000000000000, 0.000000000000000000, 0.000000000000000000 ) ) ;
#69 = EDGE_LOOP ( 'NONE', ( #106, #19, #88, #221 ) ) ;
#70 =( NAMED_UNIT ( * ) PLANE_ANGLE_UNIT ( ) SI_UNIT ( $, .RADIAN. ) );
#71 = COLOUR_RGB ( '',1.000000000000000000, 0.000000000000000000, 0.000000000000000000 ) ;
#72 = DIRECTION ( 'NONE',  ( -0.000000000000000000, -1.000000000000000000, -0.000000000000000000 ) ) ;
#73 =( NAMED_UNIT ( * ) PLANE_ANGLE_UNIT ( ) SI_UNIT ( $, .RADIAN. ) );
#74 = DIRECTION ( 'NONE',  ( -1.000000000000000000, 0.000000000000000000, 0.000000000000000000 ) ) ;
#75 = SURFACE_SIDE_STYLE ('',( #147 ) ) ;
#76 = CIRCLE ( 'NONE', #238, 2.999999999999999112 ) ;
#77 = FACE_OUTER_BOUND ( 'NONE', #155, .T. ) ;
#78 = CYLINDRICAL_SURFACE ( 'NONE', #6, 2.999999999999999112 ) ;
#79 = CARTESIAN_POINT ( 'NONE',  ( 7.592810154713587074E-15, 63.00000000000000000, 0.000000000000000000 ) ) ;
#80 = PRODUCT ( '59684', '59684', '', ( #224 ) ) ;
#81 =( NAMED_UNIT ( * ) PLANE_ANGLE_UNIT ( ) SI_UNIT ( $, .RADIAN. ) );
#82 = FILL_AREA_STYLE ('',( #256 ) ) ;
#83 = ORIENTED_EDGE ( 'NONE', *, *, #163, .F. ) ;
#84 = CARTESIAN_POINT ( 'NONE',  ( 7.592810154713587074E-15, 63.00000000000000000, 0.000000000000000000 ) ) ;
#85 = EDGE_CURVE ( 'NONE', #154, #201, #230, .T. ) ;
#86 = ORIENTED_EDGE ( 'NONE', *, *, #211, .T. ) ;
#87 = AXIS2_PLACEMENT_3D ( 'NONE', #250, #282, #181 ) ;
#88 = ORIENTED_EDGE ( 'NONE', *, *, #85, .T. ) ;
#89 = CARTESIAN_POINT ( 'NONE',  ( 3.673940397442058882E-16, 18.00000000000000355, 2.999999999999999112 ) ) ;
#90 = ORIENTED_EDGE ( 'NONE', *, *, #185, .F. ) ;
#91 =( LENGTH_UNIT ( ) NAMED_UNIT ( * ) SI_UNIT ( .MILLI., .METRE. ) );
#92 = ORIENTED_EDGE ( 'NONE', *, *, #169, .F. ) ;
#93 = CLOSED_SHELL ( 'NONE', ( #202, #43, #10, #280 ) ) ;
#94 =( NAMED_UNIT ( * ) PLANE_ANGLE_UNIT ( ) SI_UNIT ( $, .RADIAN. ) );
#95 =( LENGTH_UNIT ( ) NAMED_UNIT ( * ) SI_UNIT ( .MILLI., .METRE. ) );
#96 = ADVANCED_FACE ( 'NONE', ( #58 ), #78, .T. ) ;
#97 = DIRECTION ( 'NONE',  ( 0.000000000000000000, -0.000000000000000000, 1.000000000000000000 ) ) ;
#98 = FACE_OUTER_BOUND ( 'NONE', #69, .T. ) ;
#99 =( GEOMETRIC_REPRESENTATION_CONTEXT ( 3 ) GLOBAL_UNCERTAINTY_ASSIGNED_CONTEXT ( ( #205 ) ) GLOBAL_UNIT_ASSIGNED_CONTEXT ( ( #15, #255, #38 ) ) REPRESENTATION_CONTEXT ( 'NONE', 'WORKASPACE' ) );
#100 = CYLINDRICAL_SURFACE ( 'NONE', #146, 2.999999999999995115 ) ;
#101 = PRESENTATION_STYLE_ASSIGNMENT (( #12 ) ) ;
#102 = ADVANCED_FACE ( 'NONE', ( #77 ), #172, .T. ) ;
#103 = DIRECTION ( 'NONE',  ( -0.000000000000000000, -1.000000000000000000, -0.000000000000000000 ) ) ;
#104 = AXIS2_PLACEMENT_3D ( 'NONE', #254, #60, #173 ) ;
#105 = SURFACE_STYLE_USAGE ( .BOTH. , #13 ) ;
#106 = ORIENTED_EDGE ( 'NONE', *, *, #265, .F. ) ;
#107 = LINE ( 'NONE', #156, #228 ) ;
#108 = ORIENTED_EDGE ( 'NONE', *, *, #28, .F. ) ;
#109 = CARTESIAN_POINT ( 'NONE',  ( 0.000000000000000000, 0.000000000000000000, -2.999999999999999112 ) ) ;
#110 = FILL_AREA_STYLE_COLOUR ( '', #111 ) ;
#111 = COLOUR_RGB ( '',1.000000000000000000, 0.000000000000000000, 0.000000000000000000 ) ;
#112 = PRODUCT_DEFINITION_FORMATION_WITH_SPECIFIED_SOURCE ( 'ANY', '', #80, .NOT_KNOWN. ) ;
#113 = DIRECTION ( 'NONE',  ( 1.000000000000000000, 0.000000000000000000, 0.000000000000000000 ) ) ;
#114 = DIRECTION ( 'NONE',  ( 1.687291145491908606E-16, 1.000000000000000000, -0.000000000000000000 ) ) ;
#115 = FILL_AREA_STYLE ('',( #110 ) ) ;
#116 = EDGE_CURVE ( 'NONE', #154, #65, #18, .T. ) ;
#117 = PRESENTATION_LAYER_ASSIGNMENT (  '', '', ( #235 ) ) ;
#118 = CARTESIAN_POINT ( 'NONE',  ( 2.999999999999999556, 18.00000000000000355, 3.673940397442056417E-16 ) ) ;
#119 = STYLED_ITEM ( 'NONE', ( #101 ), #102 ) ;
#120 = MANIFOLD_SOLID_BREP ( 'Revolve - Cutting Edge', #219 ) ;
#121 = FILL_AREA_STYLE ('',( #273 ) ) ;
#122 = CARTESIAN_POINT ( 'NONE',  ( 0.000000000000000000, 0.000000000000000000, 0.000000000000000000 ) ) ;
#123 = DIRECTION ( 'NONE',  ( 1.687291145491908606E-16, 1.000000000000000000, -0.000000000000000000 ) ) ;
#124 = AXIS2_PLACEMENT_3D ( 'NONE', #48, #227, #51 ) ;
#125 = DIRECTION ( 'NONE',  ( 1.687291145491908606E-16, 1.000000000000000000, -0.000000000000000000 ) ) ;
#126 = PRESENTATION_STYLE_ASSIGNMENT (( #105 ) ) ;
#127 = AXIS2_PLACEMENT_3D ( 'NONE', #84, #41, #261 ) ;
#128 = DIRECTION ( 'NONE',  ( 0.000000000000000000, 0.000000000000000000, -1.000000000000000000 ) ) ;
#129 = DIRECTION ( 'NONE',  ( -1.000000000000000000, 0.000000000000000000, 0.000000000000000000 ) ) ;
#130 = DIRECTION ( 'NONE',  ( 1.687291145491908606E-16, 1.000000000000000000, -0.000000000000000000 ) ) ;
#131 = VECTOR ( 'NONE', #14, 1000.000000000000000 ) ;
#132 = PRESENTATION_LAYER_ASSIGNMENT (  '', '', ( #35 ) ) ;
#133 = VERTEX_POINT ( 'NONE', #195 ) ;
#134 = ORIENTED_EDGE ( 'NONE', *, *, #265, .T. ) ;
#135 = MECHANICAL_DESIGN_GEOMETRIC_PRESENTATION_REPRESENTATION (  '', ( #203 ), #99 ) ;
#136 = PRESENTATION_LAYER_ASSIGNMENT (  '', '', ( #203 ) ) ;
#137 = AXIS2_PLACEMENT_3D ( 'NONE', #149, #148, #36 ) ;
#138 = ORIENTED_EDGE ( 'NONE', *, *, #185, .T. ) ;
#139 = PRESENTATION_STYLE_ASSIGNMENT (( #262 ) ) ;
#140 = MECHANICAL_DESIGN_GEOMETRIC_PRESENTATION_REPRESENTATION (  '', ( #119 ), #39 ) ;
#141 = DIRECTION ( 'NONE',  ( -1.000000000000000000, 1.687291145491908606E-16, 0.000000000000000000 ) ) ;
#142 =( NAMED_UNIT ( * ) SI_UNIT ( $, .STERADIAN. ) SOLID_ANGLE_UNIT ( ) );
#143 = VECTOR ( 'NONE', #72, 1000.000000000000000 ) ;
#144 = SURFACE_STYLE_FILL_AREA ( #233 ) ;
#145 = FACE_OUTER_BOUND ( 'NONE', #223, .T. ) ;
#146 = AXIS2_PLACEMENT_3D ( 'NONE', #193, #125, #54 ) ;
#147 = SURFACE_STYLE_FILL_AREA ( #179 ) ;
#148 = DIRECTION ( 'NONE',  ( -0.000000000000000000, -1.000000000000000000, -0.000000000000000000 ) ) ;
#149 = CARTESIAN_POINT ( 'NONE',  ( 0.000000000000000000, 0.000000000000000000, 0.000000000000000000 ) ) ;
#150 = FACE_OUTER_BOUND ( 'NONE', #186, .T. ) ;
#151 =( NAMED_UNIT ( * ) SI_UNIT ( $, .STERADIAN. ) SOLID_ANGLE_UNIT ( ) );
#152 = ORIENTED_EDGE ( 'NONE', *, *, #169, .T. ) ;
#153 = VECTOR ( 'NONE', #209, 1000.000000000000000 ) ;
#154 = VERTEX_POINT ( 'NONE', #232 ) ;
#155 = EDGE_LOOP ( 'NONE', ( #67, #83 ) ) ;
#156 = CARTESIAN_POINT ( 'NONE',  ( 3.000000000000003109, 63.00000000000000000, 3.673940397442053952E-16 ) ) ;
#157 = EDGE_LOOP ( 'NONE', ( #138, #152 ) ) ;
#158 = PRESENTATION_LAYER_ASSIGNMENT (  '', '', ( #119 ) ) ;
#159 = UNCERTAINTY_MEASURE_WITH_UNIT (LENGTH_MEASURE( 1.000000000000000082E-05 ), #91, 'distance_accuracy_value', 'NONE');
#160 = AXIS2_PLACEMENT_3D ( 'NONE', #79, #130, #129 ) ;
#161 = DIRECTION ( 'NONE',  ( 0.000000000000000000, 0.000000000000000000, -1.000000000000000000 ) ) ;
#162 =( LENGTH_UNIT ( ) NAMED_UNIT ( * ) SI_UNIT ( .MILLI., .METRE. ) );
#163 = EDGE_CURVE ( 'NONE', #226, #264, #9, .T. ) ;
#164 = UNCERTAINTY_MEASURE_WITH_UNIT (LENGTH_MEASURE( 1.000000000000000082E-05 ), #217, 'distance_accuracy_value', 'NONE');
#165 = PLANE ( 'NONE',  #17 ) ;
#166 = AXIS2_PLACEMENT_3D ( 'NONE', #192, #7, #97 ) ;
#167 = CARTESIAN_POINT ( 'NONE',  ( 4.270427114483094353E-32, 18.00000000000000355, 0.000000000000000000 ) ) ;
#168 = CARTESIAN_POINT ( 'NONE',  ( -1.540743955509788682E-30, 18.00000000000000355, 0.000000000000000000 ) ) ;
#169 = EDGE_CURVE ( 'NONE', #133, #225, #253, .T. ) ;
#170 = DIRECTION ( 'NONE',  ( 0.000000000000000000, 0.000000000000000000, -1.000000000000000000 ) ) ;
#171 = PRESENTATION_STYLE_ASSIGNMENT (( #5 ) ) ;
#172 = PLANE ( 'NONE',  #166 ) ;
#173 = DIRECTION ( 'NONE',  ( 0.000000000000000000, 0.000000000000000000, -1.000000000000000000 ) ) ;
#174 = PRESENTATION_STYLE_ASSIGNMENT (( #278 ) ) ;
#175 = DIRECTION ( 'NONE',  ( 1.687291145491908606E-16, 1.000000000000000000, -0.000000000000000000 ) ) ;
#176 = COLOUR_RGB ( '',1.000000000000000000, 0.000000000000000000, 0.000000000000000000 ) ;
#177 = FILL_AREA_STYLE_COLOUR ( '', #29 ) ;
#178 = AXIS2_PLACEMENT_3D ( 'NONE', #207, #259, #1 ) ;
#179 = FILL_AREA_STYLE ('',( #249 ) ) ;
#180 =( NAMED_UNIT ( * ) SI_UNIT ( $, .STERADIAN. ) SOLID_ANGLE_UNIT ( ) );
#181 = DIRECTION ( 'NONE',  ( -1.000000000000000000, 0.000000000000000000, 0.000000000000000000 ) ) ;
#182 = LINE ( 'NONE', #288, #153 ) ;
#183 = AXIS2_PLACEMENT_3D ( 'NONE', #33, #103, #128 ) ;
#184 = SURFACE_STYLE_FILL_AREA ( #115 ) ;
#185 = EDGE_CURVE ( 'NONE', #225, #133, #76, .T. ) ;
#186 = EDGE_LOOP ( 'NONE', ( #86, #268, #90, #108 ) ) ;
#187 = APPLICATION_PROTOCOL_DEFINITION ( 'draft international standard', 'automotive_design', 1998, #53 ) ;
#188 =( NAMED_UNIT ( * ) PLANE_ANGLE_UNIT ( ) SI_UNIT ( $, .RADIAN. ) );
#189 = MECHANICAL_DESIGN_GEOMETRIC_PRESENTATION_REPRESENTATION (  '', ( #241 ), #222 ) ;
#190 = CIRCLE ( 'NONE', #183, 2.999999999999999112 ) ;
#191 = EDGE_CURVE ( 'NONE', #65, #154, #214, .T. ) ;
#192 = CARTESIAN_POINT ( 'NONE',  ( 0.000000000000000000, 18.00000000000000355, 0.000000000000000000 ) ) ;
#193 = CARTESIAN_POINT ( 'NONE',  ( 7.592810154713587074E-15, 63.00000000000000000, 0.000000000000000000 ) ) ;
#194 = AXIS2_PLACEMENT_3D ( 'NONE', #234, #175, #62 ) ;
#195 = CARTESIAN_POINT ( 'NONE',  ( 3.673940397442058882E-16, 0.000000000000000000, 2.999999999999999112 ) ) ;
#196 = CARTESIAN_POINT ( 'NONE',  ( 0.000000000000000000, 0.000000000000000000, 0.000000000000000000 ) ) ;
#197 = CYLINDRICAL_SURFACE ( 'NONE', #210, 2.999999999999999112 ) ;
#198 = EDGE_CURVE ( 'NONE', #208, #201, #22, .T. ) ;
#199 = ORIENTED_EDGE ( 'NONE', *, *, #116, .T. ) ;
#200 =( NAMED_UNIT ( * ) SI_UNIT ( $, .STERADIAN. ) SOLID_ANGLE_UNIT ( ) );
#201 = VERTEX_POINT ( 'NONE', #236 ) ;
#202 = ADVANCED_FACE ( 'NONE', ( #145 ), #37, .T. ) ;
#203 = STYLED_ITEM ( 'NONE', ( #237 ), #96 ) ;
#204 =( NAMED_UNIT ( * ) SI_UNIT ( $, .STERADIAN. ) SOLID_ANGLE_UNIT ( ) );
#205 = UNCERTAINTY_MEASURE_WITH_UNIT (LENGTH_MEASURE( 1.000000000000000082E-05 ), #15, 'distance_accuracy_value', 'NONE');
#206 = ORIENTED_EDGE ( 'NONE', *, *, #163, .T. ) ;
#207 = CARTESIAN_POINT ( 'NONE',  ( 2.999999999999999112, 63.00000000000000000, 0.000000000000000000 ) ) ;
#208 = VERTEX_POINT ( 'NONE', #218 ) ;
#209 = DIRECTION ( 'NONE',  ( -0.000000000000000000, -1.000000000000000000, -0.000000000000000000 ) ) ;
#210 = AXIS2_PLACEMENT_3D ( 'NONE', #196, #279, #161 ) ;
#211 = EDGE_CURVE ( 'NONE', #264, #226, #190, .T. ) ;
#212 = SURFACE_STYLE_FILL_AREA ( #121 ) ;
#213 = ADVANCED_FACE ( 'NONE', ( #150 ), #197, .T. ) ;
#214 = CIRCLE ( 'NONE', #87, 2.999999999999999112 ) ;
#215 = FACE_OUTER_BOUND ( 'NONE', #64, .T. ) ;
#216 = SURFACE_SIDE_STYLE ('',( #144 ) ) ;
#217 =( LENGTH_UNIT ( ) NAMED_UNIT ( * ) SI_UNIT ( .MILLI., .METRE. ) );
#218 = CARTESIAN_POINT ( 'NONE',  ( 2.999999999999999556, 63.00000000000000000, 3.673940397442056417E-16 ) ) ;
#219 = CLOSED_SHELL ( 'NONE', ( #213, #102, #96, #3 ) ) ;
#220 = SURFACE_STYLE_FILL_AREA ( #82 ) ;
#221 = ORIENTED_EDGE ( 'NONE', *, *, #198, .F. ) ;
#222 =( GEOMETRIC_REPRESENTATION_CONTEXT ( 3 ) GLOBAL_UNCERTAINTY_ASSIGNED_CONTEXT ( ( #242 ) ) GLOBAL_UNIT_ASSIGNED_CONTEXT ( ( #162, #94, #4 ) ) REPRESENTATION_CONTEXT ( 'NONE', 'WORKASPACE' ) );
#223 = EDGE_LOOP ( 'NONE', ( #199, #134, #47, #63 ) ) ;
#224 = PRODUCT_CONTEXT ( 'NONE', #53, 'mechanical' ) ;
#225 = VERTEX_POINT ( 'NONE', #109 ) ;
#226 = VERTEX_POINT ( 'NONE', #89 ) ;
#227 = DIRECTION ( 'NONE',  ( 0.000000000000000000, -1.000000000000000000, -0.000000000000000000 ) ) ;
#228 = VECTOR ( 'NONE', #114, 1000.000000000000000 ) ;
#229 = EDGE_CURVE ( 'NONE', #201, #208, #246, .T. ) ;
#230 = LINE ( 'NONE', #248, #131 ) ;
#231 = FILL_AREA_STYLE ('',( #177 ) ) ;
#232 = CARTESIAN_POINT ( 'NONE',  ( -2.999999999999999112, 18.00000000000000355, 0.000000000000000000 ) ) ;
#233 = FILL_AREA_STYLE ('',( #55 ) ) ;
#234 = CARTESIAN_POINT ( 'NONE',  ( 7.592810154713587074E-15, 63.00000000000000000, 0.000000000000000000 ) ) ;
#235 = STYLED_ITEM ( 'NONE', ( #126 ), #213 ) ;
#236 = CARTESIAN_POINT ( 'NONE',  ( -2.999999999999983569, 63.00000000000000000, 0.000000000000000000 ) ) ;
#237 = PRESENTATION_STYLE_ASSIGNMENT (( #56 ) ) ;
#238 = AXIS2_PLACEMENT_3D ( 'NONE', #277, #57, #16 ) ;
#239 = ORIENTED_EDGE ( 'NONE', *, *, #116, .F. ) ;
#240 = EDGE_LOOP ( 'NONE', ( #283, #260 ) ) ;
#241 = STYLED_ITEM ( 'NONE', ( #174 ), #27 ) ;
#242 = UNCERTAINTY_MEASURE_WITH_UNIT (LENGTH_MEASURE( 1.000000000000000082E-05 ), #162, 'distance_accuracy_value', 'NONE');
#243 = FACE_OUTER_BOUND ( 'NONE', #240, .T. ) ;
#244 = SHAPE_DEFINITION_REPRESENTATION ( #31, #59 ) ;
#245 = STYLED_ITEM ( 'NONE', ( #139 ), #3 ) ;
#246 = CIRCLE ( 'NONE', #127, 2.999999999999991562 ) ;
#247 = EDGE_CURVE ( 'NONE', #226, #133, #182, .T. ) ;
#248 = CARTESIAN_POINT ( 'NONE',  ( -2.999999999999987566, 63.00000000000000000, 0.000000000000000000 ) ) ;
#249 = FILL_AREA_STYLE_COLOUR ( '', #252 ) ;
#250 = CARTESIAN_POINT ( 'NONE',  ( -1.540743955509788682E-30, 18.00000000000000355, 0.000000000000000000 ) ) ;
#251 =( LENGTH_UNIT ( ) NAMED_UNIT ( * ) SI_UNIT ( .MILLI., .METRE. ) );
#252 = COLOUR_RGB ( '',1.000000000000000000, 0.000000000000000000, 0.000000000000000000 ) ;
#253 = CIRCLE ( 'NONE', #137, 2.999999999999999112 ) ;
#254 = CARTESIAN_POINT ( 'NONE',  ( 0.000000000000000000, 18.00000000000000355, 0.000000000000000000 ) ) ;
#255 =( NAMED_UNIT ( * ) PLANE_ANGLE_UNIT ( ) SI_UNIT ( $, .RADIAN. ) );
#256 = FILL_AREA_STYLE_COLOUR ( '', #71 ) ;
#257 = PRODUCT_RELATED_PRODUCT_CATEGORY ( 'part', '', ( #80 ) ) ;
#258 = ORIENTED_EDGE ( 'NONE', *, *, #247, .F. ) ;
#259 = DIRECTION ( 'NONE',  ( -1.687291145491908606E-16, -1.000000000000000000, 0.000000000000000000 ) ) ;
#260 = ORIENTED_EDGE ( 'NONE', *, *, #198, .T. ) ;
#261 = DIRECTION ( 'NONE',  ( -1.000000000000000000, 0.000000000000000000, 0.000000000000000000 ) ) ;
#262 = SURFACE_STYLE_USAGE ( .BOTH. , #40 ) ;
#263 = DIRECTION ( 'NONE',  ( 0.000000000000000000, 0.000000000000000000, 1.000000000000000000 ) ) ;
#264 = VERTEX_POINT ( 'NONE', #24 ) ;
#265 = EDGE_CURVE ( 'NONE', #65, #208, #107, .T. ) ;
#266 = MECHANICAL_DESIGN_GEOMETRIC_PRESENTATION_REPRESENTATION (  '', ( #245 ), #21 ) ;
#267 = PLANE ( 'NONE',  #178 ) ;
#268 = ORIENTED_EDGE ( 'NONE', *, *, #247, .T. ) ;
#269 = CARTESIAN_POINT ( 'NONE',  ( 0.000000000000000000, 0.000000000000000000, -2.999999999999999112 ) ) ;
#270 =( NAMED_UNIT ( * ) PLANE_ANGLE_UNIT ( ) SI_UNIT ( $, .RADIAN. ) );
#271 = AXIS2_PLACEMENT_3D ( 'NONE', #68, #263, #113 ) ;
#272 = LINE ( 'NONE', #269, #143 ) ;
#273 = FILL_AREA_STYLE_COLOUR ( '', #44 ) ;
#274 = PRESENTATION_LAYER_ASSIGNMENT (  '', '', ( #245 ) ) ;
#275 = MECHANICAL_DESIGN_GEOMETRIC_PRESENTATION_REPRESENTATION (  '', ( #235 ), #2 ) ;
#276 = DIRECTION ( 'NONE',  ( -0.000000000000000000, -1.000000000000000000, -0.000000000000000000 ) ) ;
#277 = CARTESIAN_POINT ( 'NONE',  ( 0.000000000000000000, 0.000000000000000000, 0.000000000000000000 ) ) ;
#278 = SURFACE_STYLE_USAGE ( .BOTH. , #11 ) ;
#279 = DIRECTION ( 'NONE',  ( -0.000000000000000000, -1.000000000000000000, -0.000000000000000000 ) ) ;
#280 = ADVANCED_FACE ( 'NONE', ( #243 ), #267, .F. ) ;
#281 =( GEOMETRIC_REPRESENTATION_CONTEXT ( 3 ) GLOBAL_UNCERTAINTY_ASSIGNED_CONTEXT ( ( #286 ) ) GLOBAL_UNIT_ASSIGNED_CONTEXT ( ( #95, #270, #180 ) ) REPRESENTATION_CONTEXT ( 'NONE', 'WORKASPACE' ) );
#282 = DIRECTION ( 'NONE',  ( 1.687291145491908606E-16, 1.000000000000000000, -0.000000000000000000 ) ) ;
#283 = ORIENTED_EDGE ( 'NONE', *, *, #229, .T. ) ;
#284 =( GEOMETRIC_REPRESENTATION_CONTEXT ( 3 ) GLOBAL_UNCERTAINTY_ASSIGNED_CONTEXT ( ( #159 ) ) GLOBAL_UNIT_ASSIGNED_CONTEXT ( ( #91, #70, #200 ) ) REPRESENTATION_CONTEXT ( 'NONE', 'WORKASPACE' ) );
#285 = PLANE ( 'NONE',  #124 ) ;
#286 = UNCERTAINTY_MEASURE_WITH_UNIT (LENGTH_MEASURE( 1.000000000000000082E-05 ), #95, 'distance_accuracy_value', 'NONE');
#287 = ORIENTED_EDGE ( 'NONE', *, *, #28, .T. ) ;
#288 = CARTESIAN_POINT ( 'NONE',  ( 3.673940397442058882E-16, 0.000000000000000000, 2.999999999999999112 ) ) ;
ENDSEC;
END-ISO-10303-21;
