ISO-10303-21;
HEADER;
FILE_DESCRIPTION (( 'STEP AP214' ),
    '1' );
FILE_NAME ('86030.STEP',
    '2023-06-23T15:34:09',
    ( '' ),
    ( '' ),
    'SwSTEP 2.0',
    'SolidWorks 2023',
    '' );
FILE_SCHEMA (( 'AUTOMOTIVE_DESIGN' ));
ENDSEC;

DATA;
#1 = SURFACE_STYLE_FILL_AREA ( #214 ) ;
#2 =( NAMED_UNIT ( * ) SI_UNIT ( $, .STERADIAN. ) SOLID_ANGLE_UNIT ( ) );
#3 = DIMENSIONAL_EXPONENTS ( 1.000000000000000000, 0.000000000000000000, 0.000000000000000000, 0.000000000000000000, 0.000000000000000000, 0.000000000000000000, 0.000000000000000000 ) ;
#4 = UNCERTAINTY_MEASURE_WITH_UNIT (LENGTH_MEASURE( 1.000000000000000082E-05 ), #7, 'distance_accuracy_value', 'NONE');
#5 = CARTESIAN_POINT ( 'NONE',  ( 3.673940397442060361E-16, 3.000000000000000444, 0.000000000000000000 ) ) ;
#6 = AXIS2_PLACEMENT_3D ( 'NONE', #173, #39, #42 ) ;
#7 =( CONVERSION_BASED_UNIT ( 'INCH', #220 ) LENGTH_UNIT ( ) NAMED_UNIT ( #3 ) );
#8 = LINE ( 'NONE', #74, #119 ) ;
#9 = UNCERTAINTY_MEASURE_WITH_UNIT (LENGTH_MEASURE( 1.000000000000000082E-05 ), #102, 'distance_accuracy_value', 'NONE');
#10 = FACE_OUTER_BOUND ( 'NONE', #221, .T. ) ;
#11 = EDGE_LOOP ( 'NONE', ( #81, #44 ) ) ;
#12 =( NAMED_UNIT ( * ) SI_UNIT ( $, .STERADIAN. ) SOLID_ANGLE_UNIT ( ) );
#13 =( NAMED_UNIT ( * ) PLANE_ANGLE_UNIT ( ) SI_UNIT ( $, .RADIAN. ) );
#14 = CYLINDRICAL_SURFACE ( 'NONE', #126, 0.1250000000000000278 ) ;
#15 = FILL_AREA_STYLE ('',( #18 ) ) ;
#16 = ORIENTED_EDGE ( 'NONE', *, *, #100, .F. ) ;
#17 = FILL_AREA_STYLE_COLOUR ( '', #179 ) ;
#18 = FILL_AREA_STYLE_COLOUR ( '', #46 ) ;
#19 = EDGE_LOOP ( 'NONE', ( #206, #264 ) ) ;
#20 = COLOUR_RGB ( '',1.000000000000000000, 0.000000000000000000, 0.000000000000000000 ) ;
#21 = STYLED_ITEM ( 'NONE', ( #64 ), #261 ) ;
#22 = ORIENTED_EDGE ( 'NONE', *, *, #146, .T. ) ;
#23 = LENGTH_MEASURE_WITH_UNIT ( LENGTH_MEASURE( 0.02539999999999999897 ), #208 );
#24 = CIRCLE ( 'NONE', #113, 0.1250000000000000278 ) ;
#25 = CARTESIAN_POINT ( 'NONE',  ( 2.754660825297290580E-33, 1.250000000000000000, 0.000000000000000000 ) ) ;
#26 = FACE_OUTER_BOUND ( 'NONE', #11, .T. ) ;
#27 = PRODUCT_DEFINITION ( 'UNKNOWN', '', #86, #234 ) ;
#28 = AXIS2_PLACEMENT_3D ( 'NONE', #52, #117, #32 ) ;
#29 = STYLED_ITEM ( 'NONE', ( #259 ), #231 ) ;
#30 =( GEOMETRIC_REPRESENTATION_CONTEXT ( 3 ) GLOBAL_UNCERTAINTY_ASSIGNED_CONTEXT ( ( #9 ) ) GLOBAL_UNIT_ASSIGNED_CONTEXT ( ( #102, #198, #147 ) ) REPRESENTATION_CONTEXT ( 'NONE', 'WORKASPACE' ) );
#31 = DIMENSIONAL_EXPONENTS ( 1.000000000000000000, 0.000000000000000000, 0.000000000000000000, 0.000000000000000000, 0.000000000000000000, 0.000000000000000000, 0.000000000000000000 ) ;
#32 = DIRECTION ( 'NONE',  ( 0.000000000000000000, 0.000000000000000000, -1.000000000000000000 ) ) ;
#33 = EDGE_LOOP ( 'NONE', ( #296, #187, #87, #16 ) ) ;
#34 = AXIS2_PLACEMENT_3D ( 'NONE', #5, #96, #191 ) ;
#35 = DIRECTION ( 'NONE',  ( -1.000000000000000000, 0.000000000000000000, 0.000000000000000000 ) ) ;
#36 = FILL_AREA_STYLE_COLOUR ( '', #280 ) ;
#37 = ADVANCED_FACE ( 'NONE', ( #49 ), #186, .T. ) ;
#38 = CYLINDRICAL_SURFACE ( 'NONE', #262, 0.1249999999999998473 ) ;
#39 = DIRECTION ( 'NONE',  ( -0.000000000000000000, -1.000000000000000000, -0.000000000000000000 ) ) ;
#40 =( GEOMETRIC_REPRESENTATION_CONTEXT ( 3 ) GLOBAL_UNCERTAINTY_ASSIGNED_CONTEXT ( ( #68 ) ) GLOBAL_UNIT_ASSIGNED_CONTEXT ( ( #141, #243, #2 ) ) REPRESENTATION_CONTEXT ( 'NONE', 'WORKASPACE' ) );
#41 = COLOUR_RGB ( '',1.000000000000000000, 0.000000000000000000, 0.000000000000000000 ) ;
#42 = DIRECTION ( 'NONE',  ( 0.000000000000000000, 0.000000000000000000, -1.000000000000000000 ) ) ;
#43 = DIRECTION ( 'NONE',  ( 0.000000000000000000, 0.000000000000000000, -1.000000000000000000 ) ) ;
#44 = ORIENTED_EDGE ( 'NONE', *, *, #210, .F. ) ;
#45 = CARTESIAN_POINT ( 'NONE',  ( 0.000000000000000000, 1.250000000000000000, 0.000000000000000000 ) ) ;
#46 = COLOUR_RGB ( '',0.7921568627450980005, 0.8196078431372548767, 0.9333333333333333481 ) ;
#47 = CIRCLE ( 'NONE', #34, 0.1249999999999996531 ) ;
#48 = CARTESIAN_POINT ( 'NONE',  ( 3.673940397442060361E-16, 3.000000000000000444, 0.000000000000000000 ) ) ;
#49 = FACE_OUTER_BOUND ( 'NONE', #121, .T. ) ;
#50 = LENGTH_MEASURE_WITH_UNIT ( LENGTH_MEASURE( 0.02539999999999999897 ), #71 );
#51 = STYLED_ITEM ( 'NONE', ( #193 ), #37 ) ;
#52 = CARTESIAN_POINT ( 'NONE',  ( 0.000000000000000000, 0.000000000000000000, 0.000000000000000000 ) ) ;
#53 = MECHANICAL_DESIGN_GEOMETRIC_PRESENTATION_REPRESENTATION (  '', ( #241 ), #30 ) ;
#54 = PRESENTATION_STYLE_ASSIGNMENT (( #291 ) ) ;
#55 = LINE ( 'NONE', #145, #156 ) ;
#56 = SURFACE_SIDE_STYLE ('',( #82 ) ) ;
#57 = DIRECTION ( 'NONE',  ( -0.000000000000000000, -1.000000000000000000, -0.000000000000000000 ) ) ;
#58 = ORIENTED_EDGE ( 'NONE', *, *, #75, .F. ) ;
#59 = DIRECTION ( 'NONE',  ( 1.000000000000000000, -2.099394512824034140E-16, 0.000000000000000000 ) ) ;
#60 = VERTEX_POINT ( 'NONE', #260 ) ;
#61 = MECHANICAL_DESIGN_GEOMETRIC_PRESENTATION_REPRESENTATION (  '', ( #21 ), #114 ) ;
#62 = SURFACE_STYLE_FILL_AREA ( #15 ) ;
#63 = VERTEX_POINT ( 'NONE', #72 ) ;
#64 = PRESENTATION_STYLE_ASSIGNMENT (( #169 ) ) ;
#65 = CARTESIAN_POINT ( 'NONE',  ( 0.000000000000000000, 0.000000000000000000, -0.1250000000000000278 ) ) ;
#66 = APPLICATION_PROTOCOL_DEFINITION ( 'draft international standard', 'automotive_design', 1998, #266 ) ;
#67 = CARTESIAN_POINT ( 'NONE',  ( -0.1250000000000000278, 1.250000000000000000, 0.000000000000000000 ) ) ;
#68 = UNCERTAINTY_MEASURE_WITH_UNIT (LENGTH_MEASURE( 1.000000000000000082E-05 ), #141, 'distance_accuracy_value', 'NONE');
#69 = CLOSED_SHELL ( 'NONE', ( #257, #298, #215, #134 ) ) ;
#70 = SHAPE_DEFINITION_REPRESENTATION ( #177, #250 ) ;
#71 =( LENGTH_UNIT ( ) NAMED_UNIT ( * ) SI_UNIT ( $, .METRE. ) );
#72 = CARTESIAN_POINT ( 'NONE',  ( 0.000000000000000000, 1.250000000000000000, -0.1250000000000000278 ) ) ;
#73 = ORIENTED_EDGE ( 'NONE', *, *, #84, .T. ) ;
#74 = CARTESIAN_POINT ( 'NONE',  ( 0.000000000000000000, 0.000000000000000000, -0.1250000000000000278 ) ) ;
#75 = EDGE_CURVE ( 'NONE', #60, #161, #249, .T. ) ;
#76 = FACE_OUTER_BOUND ( 'NONE', #33, .T. ) ;
#77 = CLOSED_SHELL ( 'NONE', ( #37, #231, #272, #261 ) ) ;
#78 = DIRECTION ( 'NONE',  ( 2.099394512824034140E-16, 1.000000000000000000, -0.000000000000000000 ) ) ;
#79 = AXIS2_PLACEMENT_3D ( 'NONE', #112, #209, #90 ) ;
#80 = CARTESIAN_POINT ( 'NONE',  ( 1.530808498934191817E-17, 0.000000000000000000, 0.1250000000000000278 ) ) ;
#81 = ORIENTED_EDGE ( 'NONE', *, *, #165, .F. ) ;
#82 = SURFACE_STYLE_FILL_AREA ( #269 ) ;
#83 = PRESENTATION_LAYER_ASSIGNMENT (  '', '', ( #222 ) ) ;
#84 = EDGE_CURVE ( 'NONE', #229, #151, #24, .T. ) ;
#85 = ORIENTED_EDGE ( 'NONE', *, *, #171, .F. ) ;
#86 = PRODUCT_DEFINITION_FORMATION_WITH_SPECIFIED_SOURCE ( 'ANY', '', #236, .NOT_KNOWN. ) ;
#87 = ORIENTED_EDGE ( 'NONE', *, *, #89, .T. ) ;
#88 =( NAMED_UNIT ( * ) PLANE_ANGLE_UNIT ( ) SI_UNIT ( $, .RADIAN. ) );
#89 = EDGE_CURVE ( 'NONE', #63, #300, #8, .T. ) ;
#90 = DIRECTION ( 'NONE',  ( -1.000000000000000000, 0.000000000000000000, 0.000000000000000000 ) ) ;
#91 = DIRECTION ( 'NONE',  ( -0.000000000000000000, -1.000000000000000000, -0.000000000000000000 ) ) ;
#92 = DIMENSIONAL_EXPONENTS ( 1.000000000000000000, 0.000000000000000000, 0.000000000000000000, 0.000000000000000000, 0.000000000000000000, 0.000000000000000000, 0.000000000000000000 ) ;
#93 = CIRCLE ( 'NONE', #190, 0.1250000000000000278 ) ;
#94 =( NAMED_UNIT ( * ) PLANE_ANGLE_UNIT ( ) SI_UNIT ( $, .RADIAN. ) );
#95 =( LENGTH_UNIT ( ) NAMED_UNIT ( * ) SI_UNIT ( $, .METRE. ) );
#96 = DIRECTION ( 'NONE',  ( 2.099394512824034140E-16, 1.000000000000000000, -0.000000000000000000 ) ) ;
#97 =( GEOMETRIC_REPRESENTATION_CONTEXT ( 3 ) GLOBAL_UNCERTAINTY_ASSIGNED_CONTEXT ( ( #274 ) ) GLOBAL_UNIT_ASSIGNED_CONTEXT ( ( #180, #181, #159 ) ) REPRESENTATION_CONTEXT ( 'NONE', 'WORKASPACE' ) );
#98 = UNCERTAINTY_MEASURE_WITH_UNIT (LENGTH_MEASURE( 1.000000000000000082E-05 ), #271, 'distance_accuracy_value', 'NONE');
#99 =( LENGTH_UNIT ( ) NAMED_UNIT ( * ) SI_UNIT ( $, .METRE. ) );
#100 = EDGE_CURVE ( 'NONE', #270, #300, #287, .T. ) ;
#101 = DIRECTION ( 'NONE',  ( 0.000000000000000000, 0.000000000000000000, -1.000000000000000000 ) ) ;
#102 =( CONVERSION_BASED_UNIT ( 'INCH', #275 ) LENGTH_UNIT ( ) NAMED_UNIT ( #184 ) );
#103 =( NAMED_UNIT ( * ) SI_UNIT ( $, .STERADIAN. ) SOLID_ANGLE_UNIT ( ) );
#104 = ORIENTED_EDGE ( 'NONE', *, *, #75, .T. ) ;
#105 = DIRECTION ( 'NONE',  ( -2.099394512824034140E-16, -1.000000000000000000, 0.000000000000000000 ) ) ;
#106 =( LENGTH_UNIT ( ) NAMED_UNIT ( * ) SI_UNIT ( $, .METRE. ) );
#107 =( GEOMETRIC_REPRESENTATION_CONTEXT ( 3 ) GLOBAL_UNCERTAINTY_ASSIGNED_CONTEXT ( ( #4 ) ) GLOBAL_UNIT_ASSIGNED_CONTEXT ( ( #7, #13, #103 ) ) REPRESENTATION_CONTEXT ( 'NONE', 'WORKASPACE' ) );
#108 = ORIENTED_EDGE ( 'NONE', *, *, #237, .T. ) ;
#109 =( GEOMETRIC_REPRESENTATION_CONTEXT ( 3 ) GLOBAL_UNCERTAINTY_ASSIGNED_CONTEXT ( ( #189 ) ) GLOBAL_UNIT_ASSIGNED_CONTEXT ( ( #153, #88, #239 ) ) REPRESENTATION_CONTEXT ( 'NONE', 'WORKASPACE' ) );
#110 = PLANE ( 'NONE',  #168 ) ;
#111 = MANIFOLD_SOLID_BREP ( 'Revolve - Cutting Edge', #77 ) ;
#112 = CARTESIAN_POINT ( 'NONE',  ( 3.673940397442060361E-16, 3.000000000000000444, 0.000000000000000000 ) ) ;
#113 = AXIS2_PLACEMENT_3D ( 'NONE', #289, #78, #35 ) ;
#114 =( GEOMETRIC_REPRESENTATION_CONTEXT ( 3 ) GLOBAL_UNCERTAINTY_ASSIGNED_CONTEXT ( ( #98 ) ) GLOBAL_UNIT_ASSIGNED_CONTEXT ( ( #271, #124, #12 ) ) REPRESENTATION_CONTEXT ( 'NONE', 'WORKASPACE' ) );
#115 = DIRECTION ( 'NONE',  ( -0.000000000000000000, -1.000000000000000000, -0.000000000000000000 ) ) ;
#116 = EDGE_CURVE ( 'NONE', #229, #161, #55, .T. ) ;
#117 = DIRECTION ( 'NONE',  ( -0.000000000000000000, -1.000000000000000000, -0.000000000000000000 ) ) ;
#118 = FILL_AREA_STYLE ('',( #140 ) ) ;
#119 = VECTOR ( 'NONE', #115, 39.37007874015748143 ) ;
#120 = DIRECTION ( 'NONE',  ( 2.099394512824034140E-16, 1.000000000000000000, -0.000000000000000000 ) ) ;
#121 = EDGE_LOOP ( 'NONE', ( #263, #218, #85, #170 ) ) ;
#122 = DIMENSIONAL_EXPONENTS ( 1.000000000000000000, 0.000000000000000000, 0.000000000000000000, 0.000000000000000000, 0.000000000000000000, 0.000000000000000000, 0.000000000000000000 ) ;
#123 = SURFACE_STYLE_FILL_AREA ( #118 ) ;
#124 =( NAMED_UNIT ( * ) PLANE_ANGLE_UNIT ( ) SI_UNIT ( $, .RADIAN. ) );
#125 = SURFACE_SIDE_STYLE ('',( #129 ) ) ;
#126 = AXIS2_PLACEMENT_3D ( 'NONE', #200, #301, #43 ) ;
#127 = LINE ( 'NONE', #201, #175 ) ;
#128 = ORIENTED_EDGE ( 'NONE', *, *, #116, .F. ) ;
#129 = SURFACE_STYLE_FILL_AREA ( #267 ) ;
#130 = DIRECTION ( 'NONE',  ( 2.099394512824034140E-16, 1.000000000000000000, -0.000000000000000000 ) ) ;
#131 = DIRECTION ( 'NONE',  ( -0.000000000000000000, -1.000000000000000000, -0.000000000000000000 ) ) ;
#132 = ORIENTED_EDGE ( 'NONE', *, *, #84, .F. ) ;
#133 = CARTESIAN_POINT ( 'NONE',  ( 3.673940397442060361E-16, 3.000000000000000444, 0.000000000000000000 ) ) ;
#134 = ADVANCED_FACE ( 'NONE', ( #194 ), #110, .F. ) ;
#135 = MECHANICAL_DESIGN_GEOMETRIC_PRESENTATION_REPRESENTATION (  '', ( #29 ), #213 ) ;
#136 = CYLINDRICAL_SURFACE ( 'NONE', #79, 0.1249999999999998473 ) ;
#137 = MECHANICAL_DESIGN_GEOMETRIC_PRESENTATION_REPRESENTATION (  '', ( #51 ), #40 ) ;
#138 = ORIENTED_EDGE ( 'NONE', *, *, #116, .T. ) ;
#139 = CARTESIAN_POINT ( 'NONE',  ( 0.000000000000000000, 1.250000000000000000, 0.000000000000000000 ) ) ;
#140 = FILL_AREA_STYLE_COLOUR ( '', #245 ) ;
#141 =( CONVERSION_BASED_UNIT ( 'INCH', #144 ) LENGTH_UNIT ( ) NAMED_UNIT ( #92 ) );
#142 = SURFACE_SIDE_STYLE ('',( #164 ) ) ;
#143 =( CONVERSION_BASED_UNIT ( 'INCH', #50 ) LENGTH_UNIT ( ) NAMED_UNIT ( #31 ) );
#144 = LENGTH_MEASURE_WITH_UNIT ( LENGTH_MEASURE( 0.02539999999999999897 ), #99 );
#145 = CARTESIAN_POINT ( 'NONE',  ( -0.1249999999999994726, 3.000000000000000444, 0.000000000000000000 ) ) ;
#146 = EDGE_CURVE ( 'NONE', #151, #229, #195, .T. ) ;
#147 =( NAMED_UNIT ( * ) SI_UNIT ( $, .STERADIAN. ) SOLID_ANGLE_UNIT ( ) );
#148 = MECHANICAL_DESIGN_GEOMETRIC_PRESENTATION_REPRESENTATION (  '', ( #293 ), #107 ) ;
#149 =( LENGTH_UNIT ( ) NAMED_UNIT ( * ) SI_UNIT ( $, .METRE. ) );
#150 = SURFACE_STYLE_USAGE ( .BOTH. , #302 ) ;
#151 = VERTEX_POINT ( 'NONE', #253 ) ;
#152 = LINE ( 'NONE', #174, #246 ) ;
#153 =( CONVERSION_BASED_UNIT ( 'INCH', #276 ) LENGTH_UNIT ( ) NAMED_UNIT ( #265 ) );
#154 = CARTESIAN_POINT ( 'NONE',  ( 0.000000000000000000, 0.000000000000000000, 0.000000000000000000 ) ) ;
#155 = AXIS2_PLACEMENT_3D ( 'NONE', #48, #120, #225 ) ;
#156 = VECTOR ( 'NONE', #172, 39.37007874015748143 ) ;
#157 = CARTESIAN_POINT ( 'NONE',  ( 1.530808498934191817E-17, 1.250000000000000000, 0.1250000000000000278 ) ) ;
#158 = FILL_AREA_STYLE_COLOUR ( '', #41 ) ;
#159 =( NAMED_UNIT ( * ) SI_UNIT ( $, .STERADIAN. ) SOLID_ANGLE_UNIT ( ) );
#160 = DIMENSIONAL_EXPONENTS ( 1.000000000000000000, 0.000000000000000000, 0.000000000000000000, 0.000000000000000000, 0.000000000000000000, 0.000000000000000000, 0.000000000000000000 ) ;
#161 = VERTEX_POINT ( 'NONE', #295 ) ;
#162 =( NAMED_UNIT ( * ) SI_UNIT ( $, .STERADIAN. ) SOLID_ANGLE_UNIT ( ) );
#163 = DIRECTION ( 'NONE',  ( -0.000000000000000000, -1.000000000000000000, -0.000000000000000000 ) ) ;
#164 = SURFACE_STYLE_FILL_AREA ( #192 ) ;
#165 = EDGE_CURVE ( 'NONE', #63, #307, #216, .T. ) ;
#166 = APPLICATION_CONTEXT ( 'automotive_design' ) ;
#167 = PRESENTATION_STYLE_ASSIGNMENT (( #292 ) ) ;
#168 = AXIS2_PLACEMENT_3D ( 'NONE', #197, #105, #59 ) ;
#169 = SURFACE_STYLE_USAGE ( .BOTH. , #125 ) ;
#170 = ORIENTED_EDGE ( 'NONE', *, *, #89, .F. ) ;
#171 = EDGE_CURVE ( 'NONE', #300, #270, #188, .T. ) ;
#172 = DIRECTION ( 'NONE',  ( 2.099394512824034140E-16, 1.000000000000000000, -0.000000000000000000 ) ) ;
#173 = CARTESIAN_POINT ( 'NONE',  ( 0.000000000000000000, 0.000000000000000000, 0.000000000000000000 ) ) ;
#174 = CARTESIAN_POINT ( 'NONE',  ( 1.530808498934191817E-17, 0.000000000000000000, 0.1250000000000000278 ) ) ;
#175 = VECTOR ( 'NONE', #130, 39.37007874015748143 ) ;
#176 = ORIENTED_EDGE ( 'NONE', *, *, #183, .F. ) ;
#177 = PRODUCT_DEFINITION_SHAPE ( 'NONE', 'NONE',  #27 ) ;
#178 = PLANE ( 'NONE',  #224 ) ;
#179 = COLOUR_RGB ( '',1.000000000000000000, 0.000000000000000000, 0.000000000000000000 ) ;
#180 =( CONVERSION_BASED_UNIT ( 'INCH', #23 ) LENGTH_UNIT ( ) NAMED_UNIT ( #122 ) );
#181 =( NAMED_UNIT ( * ) PLANE_ANGLE_UNIT ( ) SI_UNIT ( $, .RADIAN. ) );
#182 = PRESENTATION_LAYER_ASSIGNMENT (  '', '', ( #29 ) ) ;
#183 = EDGE_CURVE ( 'NONE', #151, #60, #127, .T. ) ;
#184 = DIMENSIONAL_EXPONENTS ( 1.000000000000000000, 0.000000000000000000, 0.000000000000000000, 0.000000000000000000, 0.000000000000000000, 0.000000000000000000, 0.000000000000000000 ) ;
#185 = SURFACE_STYLE_USAGE ( .BOTH. , #217 ) ;
#186 = CYLINDRICAL_SURFACE ( 'NONE', #212, 0.1250000000000000278 ) ;
#187 = ORIENTED_EDGE ( 'NONE', *, *, #210, .T. ) ;
#188 = CIRCLE ( 'NONE', #6, 0.1250000000000000278 ) ;
#189 = UNCERTAINTY_MEASURE_WITH_UNIT (LENGTH_MEASURE( 1.000000000000000082E-05 ), #153, 'distance_accuracy_value', 'NONE');
#190 = AXIS2_PLACEMENT_3D ( 'NONE', #45, #91, #277 ) ;
#191 = DIRECTION ( 'NONE',  ( -1.000000000000000000, 0.000000000000000000, 0.000000000000000000 ) ) ;
#192 = FILL_AREA_STYLE ('',( #244 ) ) ;
#193 = PRESENTATION_STYLE_ASSIGNMENT (( #268 ) ) ;
#194 = FACE_OUTER_BOUND ( 'NONE', #306, .T. ) ;
#195 = CIRCLE ( 'NONE', #282, 0.1250000000000000278 ) ;
#196 = CARTESIAN_POINT ( 'NONE',  ( 0.000000000000000000, 0.000000000000000000, 0.000000000000000000 ) ) ;
#197 = CARTESIAN_POINT ( 'NONE',  ( 0.1250000000000000278, 3.000000000000000444, 0.000000000000000000 ) ) ;
#198 =( NAMED_UNIT ( * ) PLANE_ANGLE_UNIT ( ) SI_UNIT ( $, .RADIAN. ) );
#199 = CARTESIAN_POINT ( 'NONE',  ( 0.000000000000000000, 1.250000000000000000, 0.000000000000000000 ) ) ;
#200 = CARTESIAN_POINT ( 'NONE',  ( 0.000000000000000000, 0.000000000000000000, 0.000000000000000000 ) ) ;
#201 = CARTESIAN_POINT ( 'NONE',  ( 0.1250000000000002220, 3.000000000000000444, 1.530808498934189660E-17 ) ) ;
#202 = FACE_OUTER_BOUND ( 'NONE', #19, .T. ) ;
#203 = MECHANICAL_DESIGN_GEOMETRIC_PRESENTATION_REPRESENTATION (  '', ( #222 ), #109 ) ;
#204 = PRESENTATION_LAYER_ASSIGNMENT (  '', '', ( #21 ) ) ;
#205 =( LENGTH_UNIT ( ) NAMED_UNIT ( * ) SI_UNIT ( $, .METRE. ) );
#206 = ORIENTED_EDGE ( 'NONE', *, *, #171, .T. ) ;
#207 = MANIFOLD_SOLID_BREP ( 'Revolve - Tool Body (Straight Shanked)', #69 ) ;
#208 =( LENGTH_UNIT ( ) NAMED_UNIT ( * ) SI_UNIT ( $, .METRE. ) );
#209 = DIRECTION ( 'NONE',  ( 2.099394512824034140E-16, 1.000000000000000000, -0.000000000000000000 ) ) ;
#210 = EDGE_CURVE ( 'NONE', #307, #63, #93, .T. ) ;
#211 = DIRECTION ( 'NONE',  ( 1.000000000000000000, 0.000000000000000000, 0.000000000000000000 ) ) ;
#212 = AXIS2_PLACEMENT_3D ( 'NONE', #286, #163, #101 ) ;
#213 =( GEOMETRIC_REPRESENTATION_CONTEXT ( 3 ) GLOBAL_UNCERTAINTY_ASSIGNED_CONTEXT ( ( #223 ) ) GLOBAL_UNIT_ASSIGNED_CONTEXT ( ( #143, #94, #162 ) ) REPRESENTATION_CONTEXT ( 'NONE', 'WORKASPACE' ) );
#214 = FILL_AREA_STYLE ('',( #158 ) ) ;
#215 = ADVANCED_FACE ( 'NONE', ( #255 ), #136, .T. ) ;
#216 = CIRCLE ( 'NONE', #279, 0.1250000000000000278 ) ;
#217 = SURFACE_SIDE_STYLE ('',( #1 ) ) ;
#218 = ORIENTED_EDGE ( 'NONE', *, *, #285, .T. ) ;
#219 = PRODUCT_RELATED_PRODUCT_CATEGORY ( 'part', '', ( #236 ) ) ;
#220 = LENGTH_MEASURE_WITH_UNIT ( LENGTH_MEASURE( 0.02539999999999999897 ), #95 );
#221 = EDGE_LOOP ( 'NONE', ( #73, #290, #303, #128 ) ) ;
#222 = STYLED_ITEM ( 'NONE', ( #251 ), #207 ) ;
#223 = UNCERTAINTY_MEASURE_WITH_UNIT (LENGTH_MEASURE( 1.000000000000000082E-05 ), #143, 'distance_accuracy_value', 'NONE');
#224 = AXIS2_PLACEMENT_3D ( 'NONE', #25, #238, #258 ) ;
#225 = DIRECTION ( 'NONE',  ( -1.000000000000000000, 0.000000000000000000, 0.000000000000000000 ) ) ;
#226 = SURFACE_SIDE_STYLE ('',( #123 ) ) ;
#227 = DIRECTION ( 'NONE',  ( 2.099394512824034140E-16, 1.000000000000000000, -0.000000000000000000 ) ) ;
#228 = AXIS2_PLACEMENT_3D ( 'NONE', #196, #230, #294 ) ;
#229 = VERTEX_POINT ( 'NONE', #67 ) ;
#230 = DIRECTION ( 'NONE',  ( 0.000000000000000000, -1.000000000000000000, -0.000000000000000000 ) ) ;
#231 = ADVANCED_FACE ( 'NONE', ( #26 ), #309, .T. ) ;
#232 = DIRECTION ( 'NONE',  ( 0.000000000000000000, 0.000000000000000000, -1.000000000000000000 ) ) ;
#233 = EDGE_LOOP ( 'NONE', ( #176, #22, #138, #58 ) ) ;
#234 = PRODUCT_DEFINITION_CONTEXT ( 'detailed design', #166, 'design' ) ;
#235 = DIRECTION ( 'NONE',  ( -1.000000000000000000, 0.000000000000000000, 0.000000000000000000 ) ) ;
#236 = PRODUCT ( '86030', '86030', '', ( #281 ) ) ;
#237 = EDGE_CURVE ( 'NONE', #161, #60, #47, .T. ) ;
#238 = DIRECTION ( 'NONE',  ( 2.099394512824034140E-16, 1.000000000000000000, -0.000000000000000000 ) ) ;
#239 =( NAMED_UNIT ( * ) SI_UNIT ( $, .STERADIAN. ) SOLID_ANGLE_UNIT ( ) );
#240 = PRESENTATION_LAYER_ASSIGNMENT (  '', '', ( #293 ) ) ;
#241 = STYLED_ITEM ( 'NONE', ( #54 ), #272 ) ;
#242 = DIRECTION ( 'NONE',  ( 0.000000000000000000, -0.000000000000000000, 1.000000000000000000 ) ) ;
#243 =( NAMED_UNIT ( * ) PLANE_ANGLE_UNIT ( ) SI_UNIT ( $, .RADIAN. ) );
#244 = FILL_AREA_STYLE_COLOUR ( '', #20 ) ;
#245 = COLOUR_RGB ( '',0.7921568627450980005, 0.8196078431372548767, 0.9333333333333333481 ) ;
#246 = VECTOR ( 'NONE', #131, 39.37007874015748143 ) ;
#247 = DIRECTION ( 'NONE',  ( -1.000000000000000000, 0.000000000000000000, 0.000000000000000000 ) ) ;
#248 = DIRECTION ( 'NONE',  ( 2.099394512824034140E-16, 1.000000000000000000, -0.000000000000000000 ) ) ;
#249 = CIRCLE ( 'NONE', #155, 0.1249999999999996531 ) ;
#250 = ADVANCED_BREP_SHAPE_REPRESENTATION ( '86030', ( #111, #207, #308 ), #97 ) ;
#251 = PRESENTATION_STYLE_ASSIGNMENT (( #150 ) ) ;
#252 = FACE_OUTER_BOUND ( 'NONE', #288, .T. ) ;
#253 = CARTESIAN_POINT ( 'NONE',  ( 0.1250000000000000555, 1.250000000000000000, 1.530808498934190893E-17 ) ) ;
#254 = DIRECTION ( 'NONE',  ( 0.000000000000000000, 0.000000000000000000, 1.000000000000000000 ) ) ;
#255 = FACE_OUTER_BOUND ( 'NONE', #233, .T. ) ;
#256 = APPLICATION_PROTOCOL_DEFINITION ( 'draft international standard', 'automotive_design', 1998, #166 ) ;
#257 = ADVANCED_FACE ( 'NONE', ( #10 ), #38, .T. ) ;
#258 = DIRECTION ( 'NONE',  ( -1.000000000000000000, 2.099394512824034140E-16, 0.000000000000000000 ) ) ;
#259 = PRESENTATION_STYLE_ASSIGNMENT (( #185 ) ) ;
#260 = CARTESIAN_POINT ( 'NONE',  ( 0.1250000000000000555, 3.000000000000000444, 1.530808498934190893E-17 ) ) ;
#261 = ADVANCED_FACE ( 'NONE', ( #202 ), #273, .T. ) ;
#262 = AXIS2_PLACEMENT_3D ( 'NONE', #133, #227, #235 ) ;
#263 = ORIENTED_EDGE ( 'NONE', *, *, #165, .T. ) ;
#264 = ORIENTED_EDGE ( 'NONE', *, *, #100, .T. ) ;
#265 = DIMENSIONAL_EXPONENTS ( 1.000000000000000000, 0.000000000000000000, 0.000000000000000000, 0.000000000000000000, 0.000000000000000000, 0.000000000000000000, 0.000000000000000000 ) ;
#266 = APPLICATION_CONTEXT ( 'automotive_design' ) ;
#267 = FILL_AREA_STYLE ('',( #36 ) ) ;
#268 = SURFACE_STYLE_USAGE ( .BOTH. , #142 ) ;
#269 = FILL_AREA_STYLE ('',( #17 ) ) ;
#270 = VERTEX_POINT ( 'NONE', #80 ) ;
#271 =( CONVERSION_BASED_UNIT ( 'INCH', #297 ) LENGTH_UNIT ( ) NAMED_UNIT ( #160 ) );
#272 = ADVANCED_FACE ( 'NONE', ( #76 ), #14, .T. ) ;
#273 = PLANE ( 'NONE',  #228 ) ;
#274 = UNCERTAINTY_MEASURE_WITH_UNIT (LENGTH_MEASURE( 1.000000000000000082E-05 ), #180, 'distance_accuracy_value', 'NONE');
#275 = LENGTH_MEASURE_WITH_UNIT ( LENGTH_MEASURE( 0.02539999999999999897 ), #149 );
#276 = LENGTH_MEASURE_WITH_UNIT ( LENGTH_MEASURE( 0.02539999999999999897 ), #205 );
#277 = DIRECTION ( 'NONE',  ( 0.000000000000000000, 0.000000000000000000, -1.000000000000000000 ) ) ;
#278 = ORIENTED_EDGE ( 'NONE', *, *, #146, .F. ) ;
#279 = AXIS2_PLACEMENT_3D ( 'NONE', #299, #57, #232 ) ;
#280 = COLOUR_RGB ( '',1.000000000000000000, 0.000000000000000000, 0.000000000000000000 ) ;
#281 = PRODUCT_CONTEXT ( 'NONE', #266, 'mechanical' ) ;
#282 = AXIS2_PLACEMENT_3D ( 'NONE', #199, #248, #247 ) ;
#283 = PRESENTATION_LAYER_ASSIGNMENT (  '', '', ( #241 ) ) ;
#284 = DIRECTION ( 'NONE',  ( 0.000000000000000000, 1.000000000000000000, 0.000000000000000000 ) ) ;
#285 = EDGE_CURVE ( 'NONE', #307, #270, #152, .T. ) ;
#286 = CARTESIAN_POINT ( 'NONE',  ( 0.000000000000000000, 0.000000000000000000, 0.000000000000000000 ) ) ;
#287 = CIRCLE ( 'NONE', #28, 0.1250000000000000278 ) ;
#288 = EDGE_LOOP ( 'NONE', ( #132, #278 ) ) ;
#289 = CARTESIAN_POINT ( 'NONE',  ( 0.000000000000000000, 1.250000000000000000, 0.000000000000000000 ) ) ;
#290 = ORIENTED_EDGE ( 'NONE', *, *, #183, .T. ) ;
#291 = SURFACE_STYLE_USAGE ( .BOTH. , #56 ) ;
#292 = SURFACE_STYLE_USAGE ( .BOTH. , #226 ) ;
#293 = STYLED_ITEM ( 'NONE', ( #167 ), #111 ) ;
#294 = DIRECTION ( 'NONE',  ( 0.000000000000000000, 0.000000000000000000, -1.000000000000000000 ) ) ;
#295 = CARTESIAN_POINT ( 'NONE',  ( -0.1249999999999992784, 3.000000000000000444, 0.000000000000000000 ) ) ;
#296 = ORIENTED_EDGE ( 'NONE', *, *, #285, .F. ) ;
#297 = LENGTH_MEASURE_WITH_UNIT ( LENGTH_MEASURE( 0.02539999999999999897 ), #106 );
#298 = ADVANCED_FACE ( 'NONE', ( #252 ), #178, .F. ) ;
#299 = CARTESIAN_POINT ( 'NONE',  ( 0.000000000000000000, 1.250000000000000000, 0.000000000000000000 ) ) ;
#300 = VERTEX_POINT ( 'NONE', #65 ) ;
#301 = DIRECTION ( 'NONE',  ( -0.000000000000000000, -1.000000000000000000, -0.000000000000000000 ) ) ;
#302 = SURFACE_SIDE_STYLE ('',( #62 ) ) ;
#303 = ORIENTED_EDGE ( 'NONE', *, *, #237, .F. ) ;
#304 = PRESENTATION_LAYER_ASSIGNMENT (  '', '', ( #51 ) ) ;
#305 = AXIS2_PLACEMENT_3D ( 'NONE', #139, #284, #242 ) ;
#306 = EDGE_LOOP ( 'NONE', ( #108, #104 ) ) ;
#307 = VERTEX_POINT ( 'NONE', #157 ) ;
#308 = AXIS2_PLACEMENT_3D ( 'NONE', #154, #254, #211 ) ;
#309 = PLANE ( 'NONE',  #305 ) ;
ENDSEC;
END-ISO-10303-21;
