ISO-10303-21;
HEADER;
FILE_DESCRIPTION (( 'STEP AP214' ),
    '1' );
FILE_NAME ('59788.STEP',
    '2023-07-24T15:39:41',
    ( '' ),
    ( '' ),
    'SwSTEP 2.0',
    'SolidWorks 2023',
    '' );
FILE_SCHEMA (( 'AUTOMOTIVE_DESIGN' ));
ENDSEC;

DATA;
#1 = CIRCLE ( 'NONE', #263, 1.000000000000000888 ) ;
#2 = FILL_AREA_STYLE_COLOUR ( '', #130 ) ;
#3 = APPLICATION_CONTEXT ( 'automotive_design' ) ;
#4 = DIRECTION ( 'NONE',  ( 1.000000000000000000, 0.000000000000000000, -1.224646799147353207E-16 ) ) ;
#5 = ORIENTED_EDGE ( 'NONE', *, *, #77, .T. ) ;
#6 =( GEOMETRIC_REPRESENTATION_CONTEXT ( 3 ) GLOBAL_UNCERTAINTY_ASSIGNED_CONTEXT ( ( #324 ) ) GLOBAL_UNIT_ASSIGNED_CONTEXT ( ( #287, #80, #56 ) ) REPRESENTATION_CONTEXT ( 'NONE', 'WORKASPACE' ) );
#7 = CLOSED_SHELL ( 'NONE', ( #154, #294, #318, #159 ) ) ;
#8 = ORIENTED_EDGE ( 'NONE', *, *, #39, .T. ) ;
#9 = FILL_AREA_STYLE_COLOUR ( '', #166 ) ;
#10 = COLOUR_RGB ( '',0.7921568627450980005, 0.8196078431372548767, 0.9333333333333333481 ) ;
#11 = CIRCLE ( 'NONE', #85, 10.00000000000000000 ) ;
#12 =( GEOMETRIC_REPRESENTATION_CONTEXT ( 3 ) GLOBAL_UNCERTAINTY_ASSIGNED_CONTEXT ( ( #276 ) ) GLOBAL_UNIT_ASSIGNED_CONTEXT ( ( #68, #241, #177 ) ) REPRESENTATION_CONTEXT ( 'NONE', 'WORKASPACE' ) );
#13 =( NAMED_UNIT ( * ) SI_UNIT ( $, .STERADIAN. ) SOLID_ANGLE_UNIT ( ) );
#14 = EDGE_CURVE ( 'NONE', #245, #144, #314, .T. ) ;
#15 = FILL_AREA_STYLE ('',( #2 ) ) ;
#16 = SURFACE_STYLE_USAGE ( .BOTH. , #334 ) ;
#17 = DIRECTION ( 'NONE',  ( 0.000000000000000000, -1.000000000000000000, -0.000000000000000000 ) ) ;
#18 = FILL_AREA_STYLE_COLOUR ( '', #325 ) ;
#19 = FACE_OUTER_BOUND ( 'NONE', #118, .T. ) ;
#20 =( GEOMETRIC_REPRESENTATION_CONTEXT ( 3 ) GLOBAL_UNCERTAINTY_ASSIGNED_CONTEXT ( ( #109 ) ) GLOBAL_UNIT_ASSIGNED_CONTEXT ( ( #96, #328, #274 ) ) REPRESENTATION_CONTEXT ( 'NONE', 'WORKASPACE' ) );
#21 = DIRECTION ( 'NONE',  ( -1.000000000000000000, 0.000000000000000000, 0.000000000000000000 ) ) ;
#22 = DIRECTION ( 'NONE',  ( -1.252807796048505441E-16, 1.000000000000000000, -0.000000000000000000 ) ) ;
#23 = DIRECTION ( 'NONE',  ( -1.252807796048505441E-16, 1.000000000000000000, -0.000000000000000000 ) ) ;
#24 = SURFACE_STYLE_USAGE ( .BOTH. , #30 ) ;
#25 = FILL_AREA_STYLE_COLOUR ( '', #10 ) ;
#26 = CIRCLE ( 'NONE', #253, 9.000000000000001776 ) ;
#27 = STYLED_ITEM ( 'NONE', ( #338 ), #288 ) ;
#28 = AXIS2_PLACEMENT_3D ( 'NONE', #333, #17, #182 ) ;
#29 = PRESENTATION_STYLE_ASSIGNMENT (( #186 ) ) ;
#30 = SURFACE_SIDE_STYLE ('',( #306 ) ) ;
#31 = APPLICATION_PROTOCOL_DEFINITION ( 'draft international standard', 'automotive_design', 1998, #3 ) ;
#32 = STYLED_ITEM ( 'NONE', ( #242 ), #127 ) ;
#33 = PRODUCT_RELATED_PRODUCT_CATEGORY ( 'part', '', ( #290 ) ) ;
#34 = VERTEX_POINT ( 'NONE', #150 ) ;
#35 = ORIENTED_EDGE ( 'NONE', *, *, #254, .T. ) ;
#36 = PRESENTATION_STYLE_ASSIGNMENT (( #98 ) ) ;
#37 = SURFACE_SIDE_STYLE ('',( #291 ) ) ;
#38 = AXIS2_PLACEMENT_3D ( 'NONE', #341, #22, #162 ) ;
#39 = EDGE_CURVE ( 'NONE', #81, #319, #317, .T. ) ;
#40 = DIRECTION ( 'NONE',  ( 0.000000000000000000, 0.000000000000000000, -1.000000000000000000 ) ) ;
#41 = ORIENTED_EDGE ( 'NONE', *, *, #354, .T. ) ;
#42 = ORIENTED_EDGE ( 'NONE', *, *, #14, .F. ) ;
#43 = SURFACE_STYLE_FILL_AREA ( #213 ) ;
#44 = VECTOR ( 'NONE', #23, 1000.000000000000000 ) ;
#45 = PRESENTATION_LAYER_ASSIGNMENT (  '', '', ( #92 ) ) ;
#46 = PLANE ( 'NONE',  #337 ) ;
#47 = DIRECTION ( 'NONE',  ( 0.000000000000000000, 0.000000000000000000, -1.000000000000000000 ) ) ;
#48 = APPLICATION_CONTEXT ( 'automotive_design' ) ;
#49 = UNCERTAINTY_MEASURE_WITH_UNIT (LENGTH_MEASURE( 1.000000000000000082E-05 ), #255, 'distance_accuracy_value', 'NONE');
#50 = EDGE_CURVE ( 'NONE', #292, #205, #180, .T. ) ;
#51 = SURFACE_SIDE_STYLE ('',( #302 ) ) ;
#52 = UNCERTAINTY_MEASURE_WITH_UNIT (LENGTH_MEASURE( 1.000000000000000082E-05 ), #336, 'distance_accuracy_value', 'NONE');
#53 = FILL_AREA_STYLE ('',( #163 ) ) ;
#54 = FILL_AREA_STYLE ('',( #25 ) ) ;
#55 = EDGE_LOOP ( 'NONE', ( #221, #167, #5, #94 ) ) ;
#56 =( NAMED_UNIT ( * ) SI_UNIT ( $, .STERADIAN. ) SOLID_ANGLE_UNIT ( ) );
#57 = ORIENTED_EDGE ( 'NONE', *, *, #95, .T. ) ;
#58 = STYLED_ITEM ( 'NONE', ( #298 ), #87 ) ;
#59 = DIRECTION ( 'NONE',  ( -0.000000000000000000, -1.000000000000000000, -0.000000000000000000 ) ) ;
#60 = EDGE_LOOP ( 'NONE', ( #112, #120, #223, #351 ) ) ;
#61 = ADVANCED_FACE ( 'NONE', ( #84 ), #171, .T. ) ;
#62 = DIRECTION ( 'NONE',  ( -1.252807796048505441E-16, 1.000000000000000000, -0.000000000000000000 ) ) ;
#63 = DIRECTION ( 'NONE',  ( 1.000000000000000000, 0.000000000000000000, 0.000000000000000000 ) ) ;
#64 = ORIENTED_EDGE ( 'NONE', *, *, #104, .T. ) ;
#65 = CIRCLE ( 'NONE', #38, 10.00000000000000533 ) ;
#66 = FILL_AREA_STYLE_COLOUR ( '', #217 ) ;
#67 = CARTESIAN_POINT ( 'NONE',  ( 0.000000000000000000, 0.000000000000000000, -10.00000000000000178 ) ) ;
#68 =( LENGTH_UNIT ( ) NAMED_UNIT ( * ) SI_UNIT ( .MILLI., .METRE. ) );
#69 = PRESENTATION_LAYER_ASSIGNMENT (  '', '', ( #138 ) ) ;
#70 = AXIS2_PLACEMENT_3D ( 'NONE', #153, #267, #240 ) ;
#71 = FACE_OUTER_BOUND ( 'NONE', #203, .T. ) ;
#72 = FILL_AREA_STYLE_COLOUR ( '', #195 ) ;
#73 = FILL_AREA_STYLE ('',( #66 ) ) ;
#74 = FILL_AREA_STYLE ('',( #359 ) ) ;
#75 = PLANE ( 'NONE',  #284 ) ;
#76 = MECHANICAL_DESIGN_GEOMETRIC_PRESENTATION_REPRESENTATION (  '', ( #32 ), #366 ) ;
#77 = EDGE_CURVE ( 'NONE', #205, #81, #126, .T. ) ;
#78 = DIRECTION ( 'NONE',  ( -1.252807796048505441E-16, 1.000000000000000000, -0.000000000000000000 ) ) ;
#79 = AXIS2_PLACEMENT_3D ( 'NONE', #280, #170, #222 ) ;
#80 =( NAMED_UNIT ( * ) PLANE_ANGLE_UNIT ( ) SI_UNIT ( $, .RADIAN. ) );
#81 = VERTEX_POINT ( 'NONE', #295 ) ;
#82 = DIRECTION ( 'NONE',  ( -1.252807796048505441E-16, 1.000000000000000000, -0.000000000000000000 ) ) ;
#83 = VECTOR ( 'NONE', #158, 1000.000000000000000 ) ;
#84 = FACE_OUTER_BOUND ( 'NONE', #233, .T. ) ;
#85 = AXIS2_PLACEMENT_3D ( 'NONE', #259, #59, #40 ) ;
#86 =( NAMED_UNIT ( * ) SI_UNIT ( $, .STERADIAN. ) SOLID_ANGLE_UNIT ( ) );
#87 = ADVANCED_FACE ( 'NONE', ( #19 ), #137, .T. ) ;
#88 = ORIENTED_EDGE ( 'NONE', *, *, #270, .F. ) ;
#89 = DIRECTION ( 'NONE',  ( -1.252807796048505441E-16, 1.000000000000000000, -0.000000000000000000 ) ) ;
#90 = UNCERTAINTY_MEASURE_WITH_UNIT (LENGTH_MEASURE( 1.000000000000000082E-05 ), #110, 'distance_accuracy_value', 'NONE');
#91 = ORIENTED_EDGE ( 'NONE', *, *, #39, .F. ) ;
#92 = STYLED_ITEM ( 'NONE', ( #304 ), #175 ) ;
#93 = COLOUR_RGB ( '',1.000000000000000000, 0.000000000000000000, 0.000000000000000000 ) ;
#94 = ORIENTED_EDGE ( 'NONE', *, *, #215, .F. ) ;
#95 = EDGE_CURVE ( 'NONE', #283, #245, #176, .T. ) ;
#96 =( LENGTH_UNIT ( ) NAMED_UNIT ( * ) SI_UNIT ( .MILLI., .METRE. ) );
#97 =( LENGTH_UNIT ( ) NAMED_UNIT ( * ) SI_UNIT ( .MILLI., .METRE. ) );
#98 = SURFACE_STYLE_USAGE ( .BOTH. , #352 ) ;
#99 = FACE_OUTER_BOUND ( 'NONE', #200, .T. ) ;
#100 = SURFACE_STYLE_USAGE ( .BOTH. , #51 ) ;
#101 = AXIS2_PLACEMENT_3D ( 'NONE', #237, #272, #106 ) ;
#102 =( GEOMETRIC_REPRESENTATION_CONTEXT ( 3 ) GLOBAL_UNCERTAINTY_ASSIGNED_CONTEXT ( ( #52 ) ) GLOBAL_UNIT_ASSIGNED_CONTEXT ( ( #336, #311, #187 ) ) REPRESENTATION_CONTEXT ( 'NONE', 'WORKASPACE' ) );
#103 = CARTESIAN_POINT ( 'NONE',  ( 1.163414459189985682E-15, 0.000000000000000000, 9.000000000000001776 ) ) ;
#104 = EDGE_CURVE ( 'NONE', #144, #192, #26, .T. ) ;
#105 = DIRECTION ( 'NONE',  ( -0.000000000000000000, -1.000000000000000000, -0.000000000000000000 ) ) ;
#106 = DIRECTION ( 'NONE',  ( 0.000000000000000000, 0.000000000000000000, -1.000000000000000000 ) ) ;
#107 = MECHANICAL_DESIGN_GEOMETRIC_PRESENTATION_REPRESENTATION (  '', ( #138 ), #260 ) ;
#108 =( GEOMETRIC_REPRESENTATION_CONTEXT ( 3 ) GLOBAL_UNCERTAINTY_ASSIGNED_CONTEXT ( ( #331 ) ) GLOBAL_UNIT_ASSIGNED_CONTEXT ( ( #97, #184, #129 ) ) REPRESENTATION_CONTEXT ( 'NONE', 'WORKASPACE' ) );
#109 = UNCERTAINTY_MEASURE_WITH_UNIT (LENGTH_MEASURE( 1.000000000000000082E-05 ), #96, 'distance_accuracy_value', 'NONE');
#110 =( LENGTH_UNIT ( ) NAMED_UNIT ( * ) SI_UNIT ( .MILLI., .METRE. ) );
#111 = DIRECTION ( 'NONE',  ( -0.000000000000000000, -1.000000000000000000, -0.000000000000000000 ) ) ;
#112 = ORIENTED_EDGE ( 'NONE', *, *, #228, .F. ) ;
#113 = ADVANCED_BREP_SHAPE_REPRESENTATION ( '59788', ( #288, #301, #211 ), #310 ) ;
#114 = DIRECTION ( 'NONE',  ( -1.224646799147353454E-16, 0.000000000000000000, -1.000000000000000000 ) ) ;
#115 = VERTEX_POINT ( 'NONE', #207 ) ;
#116 = FACE_OUTER_BOUND ( 'NONE', #55, .T. ) ;
#117 = CIRCLE ( 'NONE', #297, 9.999999999999996447 ) ;
#118 = EDGE_LOOP ( 'NONE', ( #345, #229, #169, #42 ) ) ;
#119 = EDGE_LOOP ( 'NONE', ( #323, #88 ) ) ;
#120 = ORIENTED_EDGE ( 'NONE', *, *, #270, .T. ) ;
#121 = PRODUCT_DEFINITION_SHAPE ( 'NONE', 'NONE',  #140 ) ;
#122 = CYLINDRICAL_SURFACE ( 'NONE', #252, 10.00000000000000000 ) ;
#123 = DIRECTION ( 'NONE',  ( -1.000000000000000000, 0.000000000000000000, 0.000000000000000000 ) ) ;
#124 = COLOUR_RGB ( '',0.7921568627450980005, 0.8196078431372548767, 0.9333333333333333481 ) ;
#125 = DIRECTION ( 'NONE',  ( 0.000000000000000000, 1.000000000000000000, 0.000000000000000000 ) ) ;
#126 = LINE ( 'NONE', #269, #44 ) ;
#127 = ADVANCED_FACE ( 'NONE', ( #133 ), #335, .T. ) ;
#128 =( NAMED_UNIT ( * ) PLANE_ANGLE_UNIT ( ) SI_UNIT ( $, .RADIAN. ) );
#129 =( NAMED_UNIT ( * ) SI_UNIT ( $, .STERADIAN. ) SOLID_ANGLE_UNIT ( ) );
#130 = COLOUR_RGB ( '',1.000000000000000000, 0.000000000000000000, 0.000000000000000000 ) ;
#131 = UNCERTAINTY_MEASURE_WITH_UNIT (LENGTH_MEASURE( 1.000000000000000082E-05 ), #216, 'distance_accuracy_value', 'NONE');
#132 =( LENGTH_UNIT ( ) NAMED_UNIT ( * ) SI_UNIT ( .MILLI., .METRE. ) );
#133 = FACE_OUTER_BOUND ( 'NONE', #60, .T. ) ;
#134 = SURFACE_STYLE_USAGE ( .BOTH. , #275 ) ;
#135 =( NAMED_UNIT ( * ) PLANE_ANGLE_UNIT ( ) SI_UNIT ( $, .RADIAN. ) );
#136 = EDGE_CURVE ( 'NONE', #283, #192, #1, .T. ) ;
#137 = TOROIDAL_SURFACE ( 'NONE', #101, 9.000000000000001776, 1.000000000000000444 ) ;
#138 = STYLED_ITEM ( 'NONE', ( #266 ), #165 ) ;
#139 = LINE ( 'NONE', #189, #83 ) ;
#140 = PRODUCT_DEFINITION ( 'UNKNOWN', '', #316, #339 ) ;
#141 = CARTESIAN_POINT ( 'NONE',  ( 4.987329993433318819E-15, 50.00000000000000000, 0.000000000000000000 ) ) ;
#142 = AXIS2_PLACEMENT_3D ( 'NONE', #293, #344, #191 ) ;
#143 = EDGE_CURVE ( 'NONE', #115, #245, #264, .T. ) ;
#144 = VERTEX_POINT ( 'NONE', #303 ) ;
#145 = EDGE_LOOP ( 'NONE', ( #8, #257 ) ) ;
#146 = DIRECTION ( 'NONE',  ( 0.000000000000000000, 0.000000000000000000, 1.000000000000000000 ) ) ;
#147 = STYLED_ITEM ( 'NONE', ( #29 ), #301 ) ;
#148 = ORIENTED_EDGE ( 'NONE', *, *, #247, .T. ) ;
#149 = ORIENTED_EDGE ( 'NONE', *, *, #14, .T. ) ;
#150 = CARTESIAN_POINT ( 'NONE',  ( 1.224646799147353256E-15, 50.00000000000000000, 10.00000000000000000 ) ) ;
#151 = AXIS2_PLACEMENT_3D ( 'NONE', #347, #62, #123 ) ;
#152 = CARTESIAN_POINT ( 'NONE',  ( 0.000000000000000000, 50.00000000000000000, 0.000000000000000000 ) ) ;
#153 = CARTESIAN_POINT ( 'NONE',  ( 0.000000000000000000, 1.000000000000000000, 0.000000000000000000 ) ) ;
#154 = ADVANCED_FACE ( 'NONE', ( #99 ), #122, .T. ) ;
#155 = PRESENTATION_STYLE_ASSIGNMENT (( #329 ) ) ;
#156 = CIRCLE ( 'NONE', #348, 9.000000000000001776 ) ;
#157 = SURFACE_STYLE_FILL_AREA ( #74 ) ;
#158 = DIRECTION ( 'NONE',  ( -0.000000000000000000, -1.000000000000000000, -0.000000000000000000 ) ) ;
#159 = ADVANCED_FACE ( 'NONE', ( #300 ), #330, .F. ) ;
#160 = TOROIDAL_SURFACE ( 'NONE', #164, 9.000000000000001776, 1.000000000000000444 ) ;
#161 = SURFACE_SIDE_STYLE ('',( #369 ) ) ;
#162 = DIRECTION ( 'NONE',  ( -1.000000000000000000, 0.000000000000000000, 0.000000000000000000 ) ) ;
#163 = FILL_AREA_STYLE_COLOUR ( '', #124 ) ;
#164 = AXIS2_PLACEMENT_3D ( 'NONE', #358, #181, #47 ) ;
#165 = ADVANCED_FACE ( 'NONE', ( #71 ), #160, .T. ) ;
#166 = COLOUR_RGB ( '',1.000000000000000000, 0.000000000000000000, 0.000000000000000000 ) ;
#167 = ORIENTED_EDGE ( 'NONE', *, *, #50, .T. ) ;
#168 = DIRECTION ( 'NONE',  ( -1.000000000000000000, 0.000000000000000000, 0.000000000000000000 ) ) ;
#169 = ORIENTED_EDGE ( 'NONE', *, *, #104, .F. ) ;
#170 = DIRECTION ( 'NONE',  ( -0.000000000000000000, -1.000000000000000000, -0.000000000000000000 ) ) ;
#171 = PLANE ( 'NONE',  #28 ) ;
#172 = CYLINDRICAL_SURFACE ( 'NONE', #219, 10.00000000000000000 ) ;
#173 = STYLED_ITEM ( 'NONE', ( #36 ), #327 ) ;
#174 = DIRECTION ( 'NONE',  ( 0.000000000000000000, 0.000000000000000000, 1.000000000000000000 ) ) ;
#175 = ADVANCED_FACE ( 'NONE', ( #361 ), #46, .T. ) ;
#176 = CIRCLE ( 'NONE', #70, 10.00000000000000178 ) ;
#177 =( NAMED_UNIT ( * ) SI_UNIT ( $, .STERADIAN. ) SOLID_ANGLE_UNIT ( ) );
#178 = AXIS2_PLACEMENT_3D ( 'NONE', #278, #220, #308 ) ;
#179 = PRESENTATION_LAYER_ASSIGNMENT (  '', '', ( #173 ) ) ;
#180 = CIRCLE ( 'NONE', #350, 9.999999999999996447 ) ;
#181 = DIRECTION ( 'NONE',  ( -0.000000000000000000, -1.000000000000000000, -0.000000000000000000 ) ) ;
#182 = DIRECTION ( 'NONE',  ( 0.000000000000000000, 0.000000000000000000, -1.000000000000000000 ) ) ;
#183 = UNCERTAINTY_MEASURE_WITH_UNIT (LENGTH_MEASURE( 1.000000000000000082E-05 ), #132, 'distance_accuracy_value', 'NONE');
#184 =( NAMED_UNIT ( * ) PLANE_ANGLE_UNIT ( ) SI_UNIT ( $, .RADIAN. ) );
#185 = DIRECTION ( 'NONE',  ( 1.252807796048505441E-16, -1.000000000000000000, 0.000000000000000000 ) ) ;
#186 = SURFACE_STYLE_USAGE ( .BOTH. , #161 ) ;
#187 =( NAMED_UNIT ( * ) SI_UNIT ( $, .STERADIAN. ) SOLID_ANGLE_UNIT ( ) );
#188 = DIRECTION ( 'NONE',  ( -1.252807796048505441E-16, 1.000000000000000000, 0.000000000000000000 ) ) ;
#189 = CARTESIAN_POINT ( 'NONE',  ( 1.224646799147353454E-15, 0.000000000000000000, 10.00000000000000178 ) ) ;
#190 = CARTESIAN_POINT ( 'NONE',  ( 0.000000000000000000, 1.000000000000000000, -10.00000000000000178 ) ) ;
#191 = DIRECTION ( 'NONE',  ( 0.000000000000000000, 0.000000000000000000, -1.000000000000000000 ) ) ;
#192 = VERTEX_POINT ( 'NONE', #103 ) ;
#193 = MECHANICAL_DESIGN_GEOMETRIC_PRESENTATION_REPRESENTATION (  '', ( #356 ), #12 ) ;
#194 = CARTESIAN_POINT ( 'NONE',  ( 0.000000000000000000, 0.000000000000000000, 0.000000000000000000 ) ) ;
#195 = COLOUR_RGB ( '',1.000000000000000000, 0.000000000000000000, 0.000000000000000000 ) ;
#196 = FILL_AREA_STYLE ('',( #9 ) ) ;
#197 = PRODUCT_CONTEXT ( 'NONE', #3, 'mechanical' ) ;
#198 = DIRECTION ( 'NONE',  ( -1.000000000000000000, 0.000000000000000000, 0.000000000000000000 ) ) ;
#199 = FACE_OUTER_BOUND ( 'NONE', #326, .T. ) ;
#200 = EDGE_LOOP ( 'NONE', ( #148, #258, #91, #342 ) ) ;
#201 = VECTOR ( 'NONE', #268, 1000.000000000000000 ) ;
#202 =( NAMED_UNIT ( * ) SI_UNIT ( $, .STERADIAN. ) SOLID_ANGLE_UNIT ( ) );
#203 = EDGE_LOOP ( 'NONE', ( #286, #57, #149, #261 ) ) ;
#204 = SURFACE_STYLE_FILL_AREA ( #212 ) ;
#205 = VERTEX_POINT ( 'NONE', #340 ) ;
#206 = EDGE_CURVE ( 'NONE', #292, #319, #249, .T. ) ;
#207 = CARTESIAN_POINT ( 'NONE',  ( 0.000000000000000000, 50.00000000000000000, -10.00000000000000000 ) ) ;
#208 =( NAMED_UNIT ( * ) PLANE_ANGLE_UNIT ( ) SI_UNIT ( $, .RADIAN. ) );
#209 = PRESENTATION_LAYER_ASSIGNMENT (  '', '', ( #356 ) ) ;
#210 = MECHANICAL_DESIGN_GEOMETRIC_PRESENTATION_REPRESENTATION (  '', ( #27 ), #226 ) ;
#211 = AXIS2_PLACEMENT_3D ( 'NONE', #322, #146, #63 ) ;
#212 = FILL_AREA_STYLE ('',( #18 ) ) ;
#213 = FILL_AREA_STYLE ('',( #72 ) ) ;
#214 = DIRECTION ( 'NONE',  ( 0.000000000000000000, 0.000000000000000000, -1.000000000000000000 ) ) ;
#215 = EDGE_CURVE ( 'NONE', #319, #81, #65, .T. ) ;
#216 =( LENGTH_UNIT ( ) NAMED_UNIT ( * ) SI_UNIT ( .MILLI., .METRE. ) );
#217 = COLOUR_RGB ( '',1.000000000000000000, 0.000000000000000000, 0.000000000000000000 ) ;
#218 =( NAMED_UNIT ( * ) SI_UNIT ( $, .STERADIAN. ) SOLID_ANGLE_UNIT ( ) );
#219 = AXIS2_PLACEMENT_3D ( 'NONE', #346, #82, #168 ) ;
#220 = DIRECTION ( 'NONE',  ( -0.000000000000000000, -1.000000000000000000, -0.000000000000000000 ) ) ;
#221 = ORIENTED_EDGE ( 'NONE', *, *, #206, .F. ) ;
#222 = DIRECTION ( 'NONE',  ( 0.000000000000000000, 0.000000000000000000, -1.000000000000000000 ) ) ;
#223 = ORIENTED_EDGE ( 'NONE', *, *, #143, .T. ) ;
#224 = CLOSED_SHELL ( 'NONE', ( #327, #87, #61, #165, #127, #175 ) ) ;
#225 = CARTESIAN_POINT ( 'NONE',  ( 10.00000000000000000, 124.9999999999999858, 1.224646799147353454E-15 ) ) ;
#226 =( GEOMETRIC_REPRESENTATION_CONTEXT ( 3 ) GLOBAL_UNCERTAINTY_ASSIGNED_CONTEXT ( ( #90 ) ) GLOBAL_UNIT_ASSIGNED_CONTEXT ( ( #110, #135, #218 ) ) REPRESENTATION_CONTEXT ( 'NONE', 'WORKASPACE' ) );
#227 = CARTESIAN_POINT ( 'NONE',  ( 0.000000000000000000, 1.000000000000000000, -9.000000000000001776 ) ) ;
#228 = EDGE_CURVE ( 'NONE', #34, #283, #139, .T. ) ;
#229 = ORIENTED_EDGE ( 'NONE', *, *, #136, .T. ) ;
#230 = ORIENTED_EDGE ( 'NONE', *, *, #143, .F. ) ;
#231 = PRESENTATION_LAYER_ASSIGNMENT (  '', '', ( #27 ) ) ;
#232 = SURFACE_SIDE_STYLE ('',( #43 ) ) ;
#233 = EDGE_LOOP ( 'NONE', ( #64, #35 ) ) ;
#234 = PRESENTATION_LAYER_ASSIGNMENT (  '', '', ( #32 ) ) ;
#235 = SURFACE_STYLE_USAGE ( .BOTH. , #232 ) ;
#236 = DIRECTION ( 'NONE',  ( 0.000000000000000000, -0.000000000000000000, 1.000000000000000000 ) ) ;
#237 = CARTESIAN_POINT ( 'NONE',  ( 0.000000000000000000, 1.000000000000000000, 0.000000000000000000 ) ) ;
#238 = DIRECTION ( 'NONE',  ( 1.000000000000000000, 1.252807796048505441E-16, 0.000000000000000000 ) ) ;
#239 = CIRCLE ( 'NONE', #79, 10.00000000000000178 ) ;
#240 = DIRECTION ( 'NONE',  ( 0.000000000000000000, 0.000000000000000000, -1.000000000000000000 ) ) ;
#241 =( NAMED_UNIT ( * ) PLANE_ANGLE_UNIT ( ) SI_UNIT ( $, .RADIAN. ) );
#242 = PRESENTATION_STYLE_ASSIGNMENT (( #134 ) ) ;
#243 = DIRECTION ( 'NONE',  ( -1.000000000000000000, -1.252807796048505441E-16, 0.000000000000000000 ) ) ;
#244 = PRESENTATION_LAYER_ASSIGNMENT (  '', '', ( #58 ) ) ;
#245 = VERTEX_POINT ( 'NONE', #190 ) ;
#246 = MECHANICAL_DESIGN_GEOMETRIC_PRESENTATION_REPRESENTATION (  '', ( #92 ), #20 ) ;
#247 = EDGE_CURVE ( 'NONE', #205, #292, #117, .T. ) ;
#248 = DIRECTION ( 'NONE',  ( 0.000000000000000000, 0.000000000000000000, -1.000000000000000000 ) ) ;
#249 = LINE ( 'NONE', #307, #315 ) ;
#250 = CARTESIAN_POINT ( 'NONE',  ( 0.000000000000000000, 0.000000000000000000, 0.000000000000000000 ) ) ;
#251 =( NAMED_UNIT ( * ) PLANE_ANGLE_UNIT ( ) SI_UNIT ( $, .RADIAN. ) );
#252 = AXIS2_PLACEMENT_3D ( 'NONE', #271, #363, #21 ) ;
#253 = AXIS2_PLACEMENT_3D ( 'NONE', #362, #105, #214 ) ;
#254 = EDGE_CURVE ( 'NONE', #192, #144, #156, .T. ) ;
#255 =( LENGTH_UNIT ( ) NAMED_UNIT ( * ) SI_UNIT ( .MILLI., .METRE. ) );
#256 = CARTESIAN_POINT ( 'NONE',  ( 1.102182119232617911E-15, 1.000000000000000000, 9.000000000000001776 ) ) ;
#257 = ORIENTED_EDGE ( 'NONE', *, *, #215, .T. ) ;
#258 = ORIENTED_EDGE ( 'NONE', *, *, #206, .T. ) ;
#259 = CARTESIAN_POINT ( 'NONE',  ( 0.000000000000000000, 50.00000000000000000, 0.000000000000000000 ) ) ;
#260 =( GEOMETRIC_REPRESENTATION_CONTEXT ( 3 ) GLOBAL_UNCERTAINTY_ASSIGNED_CONTEXT ( ( #183 ) ) GLOBAL_UNIT_ASSIGNED_CONTEXT ( ( #132, #128, #13 ) ) REPRESENTATION_CONTEXT ( 'NONE', 'WORKASPACE' ) );
#261 = ORIENTED_EDGE ( 'NONE', *, *, #254, .F. ) ;
#262 = DIRECTION ( 'NONE',  ( -1.000000000000000000, 0.000000000000000000, 0.000000000000000000 ) ) ;
#263 = AXIS2_PLACEMENT_3D ( 'NONE', #256, #4, #114 ) ;
#264 = LINE ( 'NONE', #67, #201 ) ;
#265 = SURFACE_STYLE_FILL_AREA ( #15 ) ;
#266 = PRESENTATION_STYLE_ASSIGNMENT (( #16 ) ) ;
#267 = DIRECTION ( 'NONE',  ( -0.000000000000000000, -1.000000000000000000, -0.000000000000000000 ) ) ;
#268 = DIRECTION ( 'NONE',  ( -0.000000000000000000, -1.000000000000000000, -0.000000000000000000 ) ) ;
#269 = CARTESIAN_POINT ( 'NONE',  ( -10.00000000000000533, 124.9999999999999858, 0.000000000000000000 ) ) ;
#270 = EDGE_CURVE ( 'NONE', #34, #115, #305, .T. ) ;
#271 = CARTESIAN_POINT ( 'NONE',  ( -4.408728476930469278E-15, 124.9999999999999858, 0.000000000000000000 ) ) ;
#272 = DIRECTION ( 'NONE',  ( -0.000000000000000000, -1.000000000000000000, -0.000000000000000000 ) ) ;
#273 = MECHANICAL_DESIGN_GEOMETRIC_PRESENTATION_REPRESENTATION (  '', ( #173 ), #6 ) ;
#274 =( NAMED_UNIT ( * ) SI_UNIT ( $, .STERADIAN. ) SOLID_ANGLE_UNIT ( ) );
#275 = SURFACE_SIDE_STYLE ('',( #157 ) ) ;
#276 = UNCERTAINTY_MEASURE_WITH_UNIT (LENGTH_MEASURE( 1.000000000000000082E-05 ), #68, 'distance_accuracy_value', 'NONE');
#277 = CARTESIAN_POINT ( 'NONE',  ( 1.224646799147353256E-15, 1.000000000000000000, 10.00000000000000178 ) ) ;
#278 = CARTESIAN_POINT ( 'NONE',  ( 0.000000000000000000, 50.00000000000000000, 0.000000000000000000 ) ) ;
#279 = PRESENTATION_LAYER_ASSIGNMENT (  '', '', ( #147 ) ) ;
#280 = CARTESIAN_POINT ( 'NONE',  ( 0.000000000000000000, 1.000000000000000000, 0.000000000000000000 ) ) ;
#281 = DIRECTION ( 'NONE',  ( -1.000000000000000000, 0.000000000000000000, 0.000000000000000000 ) ) ;
#282 = DIRECTION ( 'NONE',  ( -0.000000000000000000, -1.000000000000000000, -0.000000000000000000 ) ) ;
#283 = VERTEX_POINT ( 'NONE', #277 ) ;
#284 = AXIS2_PLACEMENT_3D ( 'NONE', #364, #188, #243 ) ;
#285 = AXIS2_PLACEMENT_3D ( 'NONE', #194, #282, #313 ) ;
#286 = ORIENTED_EDGE ( 'NONE', *, *, #136, .F. ) ;
#287 =( LENGTH_UNIT ( ) NAMED_UNIT ( * ) SI_UNIT ( .MILLI., .METRE. ) );
#288 = MANIFOLD_SOLID_BREP ( 'Revolve - Cutting Edge', #224 ) ;
#289 = EDGE_LOOP ( 'NONE', ( #321, #357 ) ) ;
#290 = PRODUCT ( '59788', '59788', '', ( #197 ) ) ;
#291 = SURFACE_STYLE_FILL_AREA ( #196 ) ;
#292 = VERTEX_POINT ( 'NONE', #368 ) ;
#293 = CARTESIAN_POINT ( 'NONE',  ( 0.000000000000000000, 0.000000000000000000, 0.000000000000000000 ) ) ;
#294 = ADVANCED_FACE ( 'NONE', ( #365 ), #75, .F. ) ;
#295 = CARTESIAN_POINT ( 'NONE',  ( -10.00000000000001066, 124.9999999999999858, 0.000000000000000000 ) ) ;
#296 = MECHANICAL_DESIGN_GEOMETRIC_PRESENTATION_REPRESENTATION (  '', ( #58 ), #108 ) ;
#297 = AXIS2_PLACEMENT_3D ( 'NONE', #141, #78, #281 ) ;
#298 = PRESENTATION_STYLE_ASSIGNMENT (( #100 ) ) ;
#299 = AXIS2_PLACEMENT_3D ( 'NONE', #227, #198, #174 ) ;
#300 = FACE_OUTER_BOUND ( 'NONE', #145, .T. ) ;
#301 = MANIFOLD_SOLID_BREP ( 'Revolve - Tool Body (Straight Shanked)', #7 ) ;
#302 = SURFACE_STYLE_FILL_AREA ( #73 ) ;
#303 = CARTESIAN_POINT ( 'NONE',  ( 0.000000000000000000, 0.000000000000000000, -9.000000000000001776 ) ) ;
#304 = PRESENTATION_STYLE_ASSIGNMENT (( #235 ) ) ;
#305 = CIRCLE ( 'NONE', #178, 10.00000000000000000 ) ;
#306 = SURFACE_STYLE_FILL_AREA ( #53 ) ;
#307 = CARTESIAN_POINT ( 'NONE',  ( 9.999999999999994671, 124.9999999999999858, 1.224646799147353256E-15 ) ) ;
#308 = DIRECTION ( 'NONE',  ( 0.000000000000000000, 0.000000000000000000, -1.000000000000000000 ) ) ;
#309 = AXIS2_PLACEMENT_3D ( 'NONE', #332, #185, #238 ) ;
#310 =( GEOMETRIC_REPRESENTATION_CONTEXT ( 3 ) GLOBAL_UNCERTAINTY_ASSIGNED_CONTEXT ( ( #49 ) ) GLOBAL_UNIT_ASSIGNED_CONTEXT ( ( #255, #208, #86 ) ) REPRESENTATION_CONTEXT ( 'NONE', 'WORKASPACE' ) );
#311 =( NAMED_UNIT ( * ) PLANE_ANGLE_UNIT ( ) SI_UNIT ( $, .RADIAN. ) );
#312 = EDGE_CURVE ( 'NONE', #245, #283, #239, .T. ) ;
#313 = DIRECTION ( 'NONE',  ( 0.000000000000000000, 0.000000000000000000, -1.000000000000000000 ) ) ;
#314 = CIRCLE ( 'NONE', #299, 1.000000000000000888 ) ;
#315 = VECTOR ( 'NONE', #370, 1000.000000000000000 ) ;
#316 = PRODUCT_DEFINITION_FORMATION_WITH_SPECIFIED_SOURCE ( 'ANY', '', #290, .NOT_KNOWN. ) ;
#317 = CIRCLE ( 'NONE', #151, 10.00000000000000533 ) ;
#318 = ADVANCED_FACE ( 'NONE', ( #116 ), #172, .T. ) ;
#319 = VERTEX_POINT ( 'NONE', #225 ) ;
#320 = APPLICATION_PROTOCOL_DEFINITION ( 'draft international standard', 'automotive_design', 1998, #48 ) ;
#321 = ORIENTED_EDGE ( 'NONE', *, *, #247, .F. ) ;
#322 = CARTESIAN_POINT ( 'NONE',  ( 0.000000000000000000, 0.000000000000000000, 0.000000000000000000 ) ) ;
#323 = ORIENTED_EDGE ( 'NONE', *, *, #354, .F. ) ;
#324 = UNCERTAINTY_MEASURE_WITH_UNIT (LENGTH_MEASURE( 1.000000000000000082E-05 ), #287, 'distance_accuracy_value', 'NONE');
#325 = COLOUR_RGB ( '',1.000000000000000000, 0.000000000000000000, 0.000000000000000000 ) ;
#326 = EDGE_LOOP ( 'NONE', ( #41, #367, #355, #230 ) ) ;
#327 = ADVANCED_FACE ( 'NONE', ( #199 ), #349, .T. ) ;
#328 =( NAMED_UNIT ( * ) PLANE_ANGLE_UNIT ( ) SI_UNIT ( $, .RADIAN. ) );
#329 = SURFACE_STYLE_USAGE ( .BOTH. , #37 ) ;
#330 = PLANE ( 'NONE',  #309 ) ;
#331 = UNCERTAINTY_MEASURE_WITH_UNIT (LENGTH_MEASURE( 1.000000000000000082E-05 ), #97, 'distance_accuracy_value', 'NONE');
#332 = CARTESIAN_POINT ( 'NONE',  ( 10.00000000000000000, 124.9999999999999858, 0.000000000000000000 ) ) ;
#333 = CARTESIAN_POINT ( 'NONE',  ( 0.000000000000000000, 0.000000000000000000, 0.000000000000000000 ) ) ;
#334 = SURFACE_SIDE_STYLE ('',( #204 ) ) ;
#335 = CYLINDRICAL_SURFACE ( 'NONE', #142, 10.00000000000000178 ) ;
#336 =( LENGTH_UNIT ( ) NAMED_UNIT ( * ) SI_UNIT ( .MILLI., .METRE. ) );
#337 = AXIS2_PLACEMENT_3D ( 'NONE', #152, #125, #236 ) ;
#338 = PRESENTATION_STYLE_ASSIGNMENT (( #24 ) ) ;
#339 = PRODUCT_DEFINITION_CONTEXT ( 'detailed design', #48, 'design' ) ;
#340 = CARTESIAN_POINT ( 'NONE',  ( -9.999999999999991118, 50.00000000000000000, 0.000000000000000000 ) ) ;
#341 = CARTESIAN_POINT ( 'NONE',  ( -4.408728476930469278E-15, 124.9999999999999858, 0.000000000000000000 ) ) ;
#342 = ORIENTED_EDGE ( 'NONE', *, *, #77, .F. ) ;
#343 = SHAPE_DEFINITION_REPRESENTATION ( #121, #113 ) ;
#344 = DIRECTION ( 'NONE',  ( -0.000000000000000000, -1.000000000000000000, -0.000000000000000000 ) ) ;
#345 = ORIENTED_EDGE ( 'NONE', *, *, #312, .T. ) ;
#346 = CARTESIAN_POINT ( 'NONE',  ( -4.408728476930469278E-15, 124.9999999999999858, 0.000000000000000000 ) ) ;
#347 = CARTESIAN_POINT ( 'NONE',  ( -4.408728476930469278E-15, 124.9999999999999858, 0.000000000000000000 ) ) ;
#348 = AXIS2_PLACEMENT_3D ( 'NONE', #250, #111, #248 ) ;
#349 = CYLINDRICAL_SURFACE ( 'NONE', #285, 10.00000000000000178 ) ;
#350 = AXIS2_PLACEMENT_3D ( 'NONE', #353, #89, #262 ) ;
#351 = ORIENTED_EDGE ( 'NONE', *, *, #95, .F. ) ;
#352 = SURFACE_SIDE_STYLE ('',( #265 ) ) ;
#353 = CARTESIAN_POINT ( 'NONE',  ( 4.987329993433318819E-15, 50.00000000000000000, 0.000000000000000000 ) ) ;
#354 = EDGE_CURVE ( 'NONE', #115, #34, #11, .T. ) ;
#355 = ORIENTED_EDGE ( 'NONE', *, *, #312, .F. ) ;
#356 = STYLED_ITEM ( 'NONE', ( #155 ), #61 ) ;
#357 = ORIENTED_EDGE ( 'NONE', *, *, #50, .F. ) ;
#358 = CARTESIAN_POINT ( 'NONE',  ( 0.000000000000000000, 1.000000000000000000, 0.000000000000000000 ) ) ;
#359 = FILL_AREA_STYLE_COLOUR ( '', #93 ) ;
#360 = MECHANICAL_DESIGN_GEOMETRIC_PRESENTATION_REPRESENTATION (  '', ( #147 ), #102 ) ;
#361 = FACE_OUTER_BOUND ( 'NONE', #119, .T. ) ;
#362 = CARTESIAN_POINT ( 'NONE',  ( 0.000000000000000000, 0.000000000000000000, 0.000000000000000000 ) ) ;
#363 = DIRECTION ( 'NONE',  ( -1.252807796048505441E-16, 1.000000000000000000, -0.000000000000000000 ) ) ;
#364 = CARTESIAN_POINT ( 'NONE',  ( 4.987329993433320396E-15, 50.00000000000000000, 0.000000000000000000 ) ) ;
#365 = FACE_OUTER_BOUND ( 'NONE', #289, .T. ) ;
#366 =( GEOMETRIC_REPRESENTATION_CONTEXT ( 3 ) GLOBAL_UNCERTAINTY_ASSIGNED_CONTEXT ( ( #131 ) ) GLOBAL_UNIT_ASSIGNED_CONTEXT ( ( #216, #251, #202 ) ) REPRESENTATION_CONTEXT ( 'NONE', 'WORKASPACE' ) );
#367 = ORIENTED_EDGE ( 'NONE', *, *, #228, .T. ) ;
#368 = CARTESIAN_POINT ( 'NONE',  ( 10.00000000000000355, 50.00000000000000000, 1.224646799147353848E-15 ) ) ;
#369 = SURFACE_STYLE_FILL_AREA ( #54 ) ;
#370 = DIRECTION ( 'NONE',  ( -1.252807796048505441E-16, 1.000000000000000000, -0.000000000000000000 ) ) ;
ENDSEC;
END-ISO-10303-21;
