ISO-10303-21;
HEADER;
FILE_DESCRIPTION (( 'STEP AP214' ),
    '1' );
FILE_NAME ('81924.STEP',
    '2023-06-30T22:32:24',
    ( '' ),
    ( '' ),
    'SwSTEP 2.0',
    'SolidWorks 2023',
    '' );
FILE_SCHEMA (( 'AUTOMOTIVE_DESIGN' ));
ENDSEC;

DATA;
#1 = FILL_AREA_STYLE_COLOUR ( '', #99 ) ;
#2 = CARTESIAN_POINT ( 'NONE',  ( 0.000000000000000000, 0.000000000000000000, 0.000000000000000000 ) ) ;
#3 = AXIS2_PLACEMENT_3D ( 'NONE', #165, #227, #250 ) ;
#4 = STYLED_ITEM ( 'NONE', ( #50 ), #228 ) ;
#5 = FILL_AREA_STYLE_COLOUR ( '', #184 ) ;
#6 = LINE ( 'NONE', #98, #118 ) ;
#7 = UNCERTAINTY_MEASURE_WITH_UNIT (LENGTH_MEASURE( 1.000000000000000082E-05 ), #187, 'distance_accuracy_value', 'NONE');
#8 = EDGE_CURVE ( 'NONE', #211, #82, #303, .T. ) ;
#9 = DIRECTION ( 'NONE',  ( -1.000000000000000000, -1.262654765537954176E-16, 0.000000000000000000 ) ) ;
#10 = STYLED_ITEM ( 'NONE', ( #283 ), #352 ) ;
#11 = DIRECTION ( 'NONE',  ( -1.262654765537954176E-16, 1.000000000000000000, -0.000000000000000000 ) ) ;
#12 = CARTESIAN_POINT ( 'NONE',  ( 0.1249999999999998612, 2.000000000000000000, 1.530808498934186887E-17 ) ) ;
#13 = DIRECTION ( 'NONE',  ( 1.224646799147353207E-16, -0.000000000000000000, 1.000000000000000000 ) ) ;
#14 = EDGE_LOOP ( 'NONE', ( #108, #338 ) ) ;
#15 = SURFACE_SIDE_STYLE ('',( #363 ) ) ;
#16 = PRESENTATION_LAYER_ASSIGNMENT (  '', '', ( #259 ) ) ;
#17 =( GEOMETRIC_REPRESENTATION_CONTEXT ( 3 ) GLOBAL_UNCERTAINTY_ASSIGNED_CONTEXT ( ( #334 ) ) GLOBAL_UNIT_ASSIGNED_CONTEXT ( ( #226, #232, #129 ) ) REPRESENTATION_CONTEXT ( 'NONE', 'WORKASPACE' ) );
#18 = ADVANCED_FACE ( 'NONE', ( #281 ), #319, .T. ) ;
#19 = UNCERTAINTY_MEASURE_WITH_UNIT (LENGTH_MEASURE( 1.000000000000000082E-05 ), #337, 'distance_accuracy_value', 'NONE');
#20 = CARTESIAN_POINT ( 'NONE',  ( -1.530808498934191509E-17, 0.1250000000000000000, 0.000000000000000000 ) ) ;
#21 = DIRECTION ( 'NONE',  ( 0.000000000000000000, 0.000000000000000000, -1.000000000000000000 ) ) ;
#22 = AXIS2_PLACEMENT_3D ( 'NONE', #256, #372, #369 ) ;
#23 = PRODUCT_DEFINITION_SHAPE ( 'NONE', 'NONE',  #77 ) ;
#24 = CARTESIAN_POINT ( 'NONE',  ( -0.1250000000000000000, 0.1250000000000000278, 1.530808498934191201E-17 ) ) ;
#25 = STYLED_ITEM ( 'NONE', ( #295 ), #88 ) ;
#26 = COLOUR_RGB ( '',1.000000000000000000, 0.000000000000000000, 0.000000000000000000 ) ;
#27 = DIRECTION ( 'NONE',  ( 0.000000000000000000, 0.000000000000000000, 1.000000000000000000 ) ) ;
#28 = CARTESIAN_POINT ( 'NONE',  ( -0.1249999999999994865, 2.000000000000000000, 0.000000000000000000 ) ) ;
#29 = EDGE_CURVE ( 'NONE', #154, #302, #92, .T. ) ;
#30 = DIRECTION ( 'NONE',  ( 0.000000000000000000, 0.000000000000000000, -1.000000000000000000 ) ) ;
#31 =( CONVERSION_BASED_UNIT ( 'INCH', #35 ) LENGTH_UNIT ( ) NAMED_UNIT ( #222 ) );
#32 = MECHANICAL_DESIGN_GEOMETRIC_PRESENTATION_REPRESENTATION (  '', ( #68 ), #170 ) ;
#33 = DIRECTION ( 'NONE',  ( 0.000000000000000000, 0.000000000000000000, -1.000000000000000000 ) ) ;
#34 = EDGE_CURVE ( 'NONE', #211, #302, #361, .T. ) ;
#35 = LENGTH_MEASURE_WITH_UNIT ( LENGTH_MEASURE( 0.02539999999999999897 ), #62 );
#36 = CARTESIAN_POINT ( 'NONE',  ( 4.501107592293882011E-16, 0.3749999999999999445, 0.000000000000000000 ) ) ;
#37 = VERTEX_POINT ( 'NONE', #251 ) ;
#38 = DIRECTION ( 'NONE',  ( 0.000000000000000000, 0.000000000000000000, -1.000000000000000000 ) ) ;
#39 = DIMENSIONAL_EXPONENTS ( 1.000000000000000000, 0.000000000000000000, 0.000000000000000000, 0.000000000000000000, 0.000000000000000000, 0.000000000000000000, 0.000000000000000000 ) ;
#40 = MECHANICAL_DESIGN_GEOMETRIC_PRESENTATION_REPRESENTATION (  '', ( #333 ), #158 ) ;
#41 = ORIENTED_EDGE ( 'NONE', *, *, #34, .F. ) ;
#42 = ORIENTED_EDGE ( 'NONE', *, *, #43, .F. ) ;
#43 = EDGE_CURVE ( 'NONE', #37, #80, #279, .T. ) ;
#44 = CARTESIAN_POINT ( 'NONE',  ( 0.000000000000000000, 0.3749999999999999445, -0.1249999999999999584 ) ) ;
#45 =( LENGTH_UNIT ( ) NAMED_UNIT ( * ) SI_UNIT ( $, .METRE. ) );
#46 = DIRECTION ( 'NONE',  ( 0.000000000000000000, 0.000000000000000000, 1.000000000000000000 ) ) ;
#47 = FILL_AREA_STYLE_COLOUR ( '', #212 ) ;
#48 = AXIS2_PLACEMENT_3D ( 'NONE', #149, #268, #61 ) ;
#49 =( NAMED_UNIT ( * ) PLANE_ANGLE_UNIT ( ) SI_UNIT ( $, .RADIAN. ) );
#50 = PRESENTATION_STYLE_ASSIGNMENT (( #52 ) ) ;
#51 = SURFACE_SIDE_STYLE ('',( #171 ) ) ;
#52 = SURFACE_STYLE_USAGE ( .BOTH. , #323 ) ;
#53 = SURFACE_STYLE_USAGE ( .BOTH. , #86 ) ;
#54 =( GEOMETRIC_REPRESENTATION_CONTEXT ( 3 ) GLOBAL_UNCERTAINTY_ASSIGNED_CONTEXT ( ( #368 ) ) GLOBAL_UNIT_ASSIGNED_CONTEXT ( ( #325, #265, #297 ) ) REPRESENTATION_CONTEXT ( 'NONE', 'WORKASPACE' ) );
#55 = PRESENTATION_STYLE_ASSIGNMENT (( #53 ) ) ;
#56 = CARTESIAN_POINT ( 'NONE',  ( 0.000000000000000000, 0.000000000000000000, 0.000000000000000000 ) ) ;
#57 = PLANE ( 'NONE',  #48 ) ;
#58 = COLOUR_RGB ( '',1.000000000000000000, 0.000000000000000000, 0.000000000000000000 ) ;
#59 =( CONVERSION_BASED_UNIT ( 'INCH', #177 ) LENGTH_UNIT ( ) NAMED_UNIT ( #39 ) );
#60 = ORIENTED_EDGE ( 'NONE', *, *, #34, .T. ) ;
#61 = DIRECTION ( 'NONE',  ( 1.000000000000000000, 1.262654765537954176E-16, 0.000000000000000000 ) ) ;
#62 =( LENGTH_UNIT ( ) NAMED_UNIT ( * ) SI_UNIT ( $, .METRE. ) );
#63 = DIRECTION ( 'NONE',  ( -1.262654765537954176E-16, 1.000000000000000000, -0.000000000000000000 ) ) ;
#64 = CARTESIAN_POINT ( 'NONE',  ( 0.000000000000000000, 0.1250000000000000278, -0.1249999999999999584 ) ) ;
#65 = SURFACE_STYLE_USAGE ( .BOTH. , #357 ) ;
#66 = EDGE_LOOP ( 'NONE', ( #341, #223 ) ) ;
#67 = MECHANICAL_DESIGN_GEOMETRIC_PRESENTATION_REPRESENTATION (  '', ( #25 ), #54 ) ;
#68 = STYLED_ITEM ( 'NONE', ( #287 ), #358 ) ;
#69 = ORIENTED_EDGE ( 'NONE', *, *, #247, .F. ) ;
#70 =( NAMED_UNIT ( * ) PLANE_ANGLE_UNIT ( ) SI_UNIT ( $, .RADIAN. ) );
#71 =( NAMED_UNIT ( * ) PLANE_ANGLE_UNIT ( ) SI_UNIT ( $, .RADIAN. ) );
#72 = ORIENTED_EDGE ( 'NONE', *, *, #43, .T. ) ;
#73 = EDGE_LOOP ( 'NONE', ( #183, #60, #189, #69, #78 ) ) ;
#74 = DIMENSIONAL_EXPONENTS ( 1.000000000000000000, 0.000000000000000000, 0.000000000000000000, 0.000000000000000000, 0.000000000000000000, 0.000000000000000000, 0.000000000000000000 ) ;
#75 = UNCERTAINTY_MEASURE_WITH_UNIT (LENGTH_MEASURE( 1.000000000000000082E-05 ), #310, 'distance_accuracy_value', 'NONE');
#76 = AXIS2_PLACEMENT_3D ( 'NONE', #356, #246, #155 ) ;
#77 = PRODUCT_DEFINITION ( 'UNKNOWN', '', #262, #255 ) ;
#78 = ORIENTED_EDGE ( 'NONE', *, *, #121, .F. ) ;
#79 = LENGTH_MEASURE_WITH_UNIT ( LENGTH_MEASURE( 0.02539999999999999897 ), #201 );
#80 = VERTEX_POINT ( 'NONE', #126 ) ;
#81 = CARTESIAN_POINT ( 'NONE',  ( -7.654042494670957545E-18, 0.000000000000000000, 0.000000000000000000 ) ) ;
#82 = VERTEX_POINT ( 'NONE', #44 ) ;
#83 = CIRCLE ( 'NONE', #304, 0.1249999999999997224 ) ;
#84 = DIRECTION ( 'NONE',  ( -1.000000000000000000, 0.000000000000000000, 0.000000000000000000 ) ) ;
#85 = PRODUCT ( '81924', '81924', '', ( #197 ) ) ;
#86 = SURFACE_SIDE_STYLE ('',( #202 ) ) ;
#87 = CLOSED_SHELL ( 'NONE', ( #352, #358, #209, #228, #91 ) ) ;
#88 = MANIFOLD_SOLID_BREP ( 'Revolve - Cutting Edge', #87 ) ;
#89 = EDGE_CURVE ( 'NONE', #302, #230, #94, .T. ) ;
#90 = EDGE_LOOP ( 'NONE', ( #343, #200, #370, #233 ) ) ;
#91 = ADVANCED_FACE ( 'NONE', ( #322 ), #269, .T. ) ;
#92 = CIRCLE ( 'NONE', #3, 0.1249999999999999584 ) ;
#93 = FILL_AREA_STYLE_COLOUR ( '', #339 ) ;
#94 = CIRCLE ( 'NONE', #190, 0.1249999999999999584 ) ;
#95 = SURFACE_SIDE_STYLE ('',( #150 ) ) ;
#96 = ORIENTED_EDGE ( 'NONE', *, *, #312, .F. ) ;
#97 = VERTEX_POINT ( 'NONE', #140 ) ;
#98 = CARTESIAN_POINT ( 'NONE',  ( -0.1249999999999993894, 2.000000000000000000, 0.000000000000000000 ) ) ;
#99 = COLOUR_RGB ( '',1.000000000000000000, 0.000000000000000000, 0.000000000000000000 ) ;
#100 = PRESENTATION_LAYER_ASSIGNMENT (  '', '', ( #68 ) ) ;
#101 = DIRECTION ( 'NONE',  ( -1.262654765537954176E-16, 1.000000000000000000, 0.000000000000000000 ) ) ;
#102 = CARTESIAN_POINT ( 'NONE',  ( 1.530808498934191201E-17, 0.000000000000000000, 0.1249999999999999584 ) ) ;
#103 = DIMENSIONAL_EXPONENTS ( 1.000000000000000000, 0.000000000000000000, 0.000000000000000000, 0.000000000000000000, 0.000000000000000000, 0.000000000000000000, 0.000000000000000000 ) ;
#104 = ORIENTED_EDGE ( 'NONE', *, *, #289, .T. ) ;
#105 = EDGE_CURVE ( 'NONE', #80, #336, #294, .T. ) ;
#106 = AXIS2_PLACEMENT_3D ( 'NONE', #300, #301, #30 ) ;
#107 = CYLINDRICAL_SURFACE ( 'NONE', #272, 0.1249999999999999584 ) ;
#108 = ORIENTED_EDGE ( 'NONE', *, *, #216, .T. ) ;
#109 = FILL_AREA_STYLE ('',( #360 ) ) ;
#110 = ORIENTED_EDGE ( 'NONE', *, *, #114, .T. ) ;
#111 = DIRECTION ( 'NONE',  ( -0.000000000000000000, -1.000000000000000000, -0.000000000000000000 ) ) ;
#112 = FILL_AREA_STYLE_COLOUR ( '', #58 ) ;
#113 = CIRCLE ( 'NONE', #152, 0.1249999999999999584 ) ;
#114 = EDGE_CURVE ( 'NONE', #230, #274, #271, .T. ) ;
#115 = COLOUR_RGB ( '',1.000000000000000000, 0.000000000000000000, 0.000000000000000000 ) ;
#116 = MANIFOLD_SOLID_BREP ( 'Revolve - Tool Body (Straight Shanked)', #266 ) ;
#117 = FACE_OUTER_BOUND ( 'NONE', #90, .T. ) ;
#118 = VECTOR ( 'NONE', #213, 39.37007874015748143 ) ;
#119 = FILL_AREA_STYLE ('',( #5 ) ) ;
#120 = CARTESIAN_POINT ( 'NONE',  ( 2.449293598294706414E-16, 2.000000000000000000, 0.000000000000000000 ) ) ;
#121 = EDGE_CURVE ( 'NONE', #82, #274, #188, .T. ) ;
#122 = PRESENTATION_STYLE_ASSIGNMENT (( #65 ) ) ;
#123 = EDGE_LOOP ( 'NONE', ( #42, #365, #252, #160 ) ) ;
#124 =( CONVERSION_BASED_UNIT ( 'INCH', #128 ) LENGTH_UNIT ( ) NAMED_UNIT ( #103 ) );
#125 = DIMENSIONAL_EXPONENTS ( 1.000000000000000000, 0.000000000000000000, 0.000000000000000000, 0.000000000000000000, 0.000000000000000000, 0.000000000000000000, 0.000000000000000000 ) ;
#126 = CARTESIAN_POINT ( 'NONE',  ( 0.1249999999999999584, 2.000000000000000000, 1.530808498934187811E-17 ) ) ;
#127 = APPLICATION_PROTOCOL_DEFINITION ( 'draft international standard', 'automotive_design', 1998, #291 ) ;
#128 = LENGTH_MEASURE_WITH_UNIT ( LENGTH_MEASURE( 0.02539999999999999897 ), #195 );
#129 =( NAMED_UNIT ( * ) SI_UNIT ( $, .STERADIAN. ) SOLID_ANGLE_UNIT ( ) );
#130 =( NAMED_UNIT ( * ) SI_UNIT ( $, .STERADIAN. ) SOLID_ANGLE_UNIT ( ) );
#131 = AXIS2_PLACEMENT_3D ( 'NONE', #151, #27, #332 ) ;
#132 =( GEOMETRIC_REPRESENTATION_CONTEXT ( 3 ) GLOBAL_UNCERTAINTY_ASSIGNED_CONTEXT ( ( #290 ) ) GLOBAL_UNIT_ASSIGNED_CONTEXT ( ( #124, #218, #221 ) ) REPRESENTATION_CONTEXT ( 'NONE', 'WORKASPACE' ) );
#133 = CARTESIAN_POINT ( 'NONE',  ( 0.000000000000000000, 0.3749999999999999445, 0.000000000000000000 ) ) ;
#134 = ADVANCED_FACE ( 'NONE', ( #270 ), #167, .F. ) ;
#135 = CARTESIAN_POINT ( 'NONE',  ( 0.1249999999999999584, 0.1250000000000000278, 0.000000000000000000 ) ) ;
#136 = ORIENTED_EDGE ( 'NONE', *, *, #114, .F. ) ;
#137 = FILL_AREA_STYLE ('',( #321 ) ) ;
#138 =( LENGTH_UNIT ( ) NAMED_UNIT ( * ) SI_UNIT ( $, .METRE. ) );
#139 = AXIS2_PLACEMENT_3D ( 'NONE', #314, #11, #288 ) ;
#140 = CARTESIAN_POINT ( 'NONE',  ( -0.1249999999999990702, 0.3749999999999999445, 0.000000000000000000 ) ) ;
#141 = AXIS2_PLACEMENT_3D ( 'NONE', #20, #13, #282 ) ;
#142 = CIRCLE ( 'NONE', #285, 0.1249999999999995143 ) ;
#143 = EDGE_CURVE ( 'NONE', #82, #211, #113, .T. ) ;
#144 =( NAMED_UNIT ( * ) SI_UNIT ( $, .STERADIAN. ) SOLID_ANGLE_UNIT ( ) );
#145 = DIRECTION ( 'NONE',  ( -0.000000000000000000, -1.000000000000000000, -0.000000000000000000 ) ) ;
#146 = CIRCLE ( 'NONE', #76, 0.1249999999999995143 ) ;
#147 = EDGE_CURVE ( 'NONE', #154, #219, #178, .T. ) ;
#148 = CARTESIAN_POINT ( 'NONE',  ( 2.449293598294706414E-16, 2.000000000000000000, 0.000000000000000000 ) ) ;
#149 = CARTESIAN_POINT ( 'NONE',  ( 0.1249999999999999584, 2.000000000000000000, 0.000000000000000000 ) ) ;
#150 = SURFACE_STYLE_FILL_AREA ( #180 ) ;
#151 = CARTESIAN_POINT ( 'NONE',  ( -1.530808498934191509E-17, 0.1250000000000000000, 0.000000000000000000 ) ) ;
#152 = AXIS2_PLACEMENT_3D ( 'NONE', #315, #306, #38 ) ;
#153 = EDGE_CURVE ( 'NONE', #230, #219, #203, .T. ) ;
#154 = VERTEX_POINT ( 'NONE', #135 ) ;
#155 = DIRECTION ( 'NONE',  ( -1.000000000000000000, 0.000000000000000000, 0.000000000000000000 ) ) ;
#156 = ORIENTED_EDGE ( 'NONE', *, *, #89, .F. ) ;
#157 = LENGTH_MEASURE_WITH_UNIT ( LENGTH_MEASURE( 0.02539999999999999897 ), #138 );
#158 =( GEOMETRIC_REPRESENTATION_CONTEXT ( 3 ) GLOBAL_UNCERTAINTY_ASSIGNED_CONTEXT ( ( #7 ) ) GLOBAL_UNIT_ASSIGNED_CONTEXT ( ( #187, #71, #280 ) ) REPRESENTATION_CONTEXT ( 'NONE', 'WORKASPACE' ) );
#159 = DIRECTION ( 'NONE',  ( 0.000000000000000000, 0.000000000000000000, -1.000000000000000000 ) ) ;
#160 = ORIENTED_EDGE ( 'NONE', *, *, #105, .F. ) ;
#161 = DIMENSIONAL_EXPONENTS ( 1.000000000000000000, 0.000000000000000000, 0.000000000000000000, 0.000000000000000000, 0.000000000000000000, 0.000000000000000000, 0.000000000000000000 ) ;
#162 = APPLICATION_PROTOCOL_DEFINITION ( 'draft international standard', 'automotive_design', 1998, #264 ) ;
#163 = UNCERTAINTY_MEASURE_WITH_UNIT (LENGTH_MEASURE( 1.000000000000000082E-05 ), #59, 'distance_accuracy_value', 'NONE');
#164 = DIRECTION ( 'NONE',  ( -1.000000000000000000, 0.000000000000000000, 0.000000000000000000 ) ) ;
#165 = CARTESIAN_POINT ( 'NONE',  ( 0.000000000000000000, 0.1250000000000000278, 0.000000000000000000 ) ) ;
#166 =( NAMED_UNIT ( * ) PLANE_ANGLE_UNIT ( ) SI_UNIT ( $, .RADIAN. ) );
#167 = PLANE ( 'NONE',  #320 ) ;
#168 = CARTESIAN_POINT ( 'NONE',  ( 0.000000000000000000, 0.1250000000000000278, 0.000000000000000000 ) ) ;
#169 = DIRECTION ( 'NONE',  ( -0.000000000000000000, -1.000000000000000000, -0.000000000000000000 ) ) ;
#170 =( GEOMETRIC_REPRESENTATION_CONTEXT ( 3 ) GLOBAL_UNCERTAINTY_ASSIGNED_CONTEXT ( ( #19 ) ) GLOBAL_UNIT_ASSIGNED_CONTEXT ( ( #337, #49, #317 ) ) REPRESENTATION_CONTEXT ( 'NONE', 'WORKASPACE' ) );
#171 = SURFACE_STYLE_FILL_AREA ( #137 ) ;
#172 = FILL_AREA_STYLE ('',( #47 ) ) ;
#173 = DIMENSIONAL_EXPONENTS ( 1.000000000000000000, 0.000000000000000000, 0.000000000000000000, 0.000000000000000000, 0.000000000000000000, 0.000000000000000000, 0.000000000000000000 ) ;
#174 = DIRECTION ( 'NONE',  ( -0.000000000000000000, -1.000000000000000000, -0.000000000000000000 ) ) ;
#175 = AXIS2_PLACEMENT_3D ( 'NONE', #148, #63, #181 ) ;
#176 = AXIS2_PLACEMENT_3D ( 'NONE', #120, #359, #299 ) ;
#177 = LENGTH_MEASURE_WITH_UNIT ( LENGTH_MEASURE( 0.02539999999999999897 ), #273 );
#178 = CIRCLE ( 'NONE', #236, 0.1250000000000000000 ) ;
#179 =( NAMED_UNIT ( * ) SI_UNIT ( $, .STERADIAN. ) SOLID_ANGLE_UNIT ( ) );
#180 = FILL_AREA_STYLE ('',( #93 ) ) ;
#181 = DIRECTION ( 'NONE',  ( -1.000000000000000000, 0.000000000000000000, 0.000000000000000000 ) ) ;
#182 = EDGE_CURVE ( 'NONE', #37, #97, #142, .T. ) ;
#183 = ORIENTED_EDGE ( 'NONE', *, *, #143, .T. ) ;
#184 = COLOUR_RGB ( '',0.7921568627450980005, 0.8196078431372548767, 0.9333333333333333481 ) ;
#185 = MECHANICAL_DESIGN_GEOMETRIC_PRESENTATION_REPRESENTATION (  '', ( #10 ), #17 ) ;
#186 = UNCERTAINTY_MEASURE_WITH_UNIT (LENGTH_MEASURE( 1.000000000000000082E-05 ), #31, 'distance_accuracy_value', 'NONE');
#187 =( CONVERSION_BASED_UNIT ( 'INCH', #286 ) LENGTH_UNIT ( ) NAMED_UNIT ( #74 ) );
#188 = LINE ( 'NONE', #193, #367 ) ;
#189 = ORIENTED_EDGE ( 'NONE', *, *, #29, .F. ) ;
#190 = AXIS2_PLACEMENT_3D ( 'NONE', #168, #145, #329 ) ;
#191 = DIMENSIONAL_EXPONENTS ( 1.000000000000000000, 0.000000000000000000, 0.000000000000000000, 0.000000000000000000, 0.000000000000000000, 0.000000000000000000, 0.000000000000000000 ) ;
#192 = ORIENTED_EDGE ( 'NONE', *, *, #247, .T. ) ;
#193 = CARTESIAN_POINT ( 'NONE',  ( 0.000000000000000000, 0.000000000000000000, -0.1249999999999999584 ) ) ;
#194 = DIRECTION ( 'NONE',  ( -1.262654765537954176E-16, 1.000000000000000000, -0.000000000000000000 ) ) ;
#195 =( LENGTH_UNIT ( ) NAMED_UNIT ( * ) SI_UNIT ( $, .METRE. ) );
#196 = EDGE_LOOP ( 'NONE', ( #104, #72, #316, #96 ) ) ;
#197 = PRODUCT_CONTEXT ( 'NONE', #264, 'mechanical' ) ;
#198 = FACE_OUTER_BOUND ( 'NONE', #362, .T. ) ;
#199 = AXIS2_PLACEMENT_3D ( 'NONE', #298, #174, #33 ) ;
#200 = ORIENTED_EDGE ( 'NONE', *, *, #153, .T. ) ;
#201 =( LENGTH_UNIT ( ) NAMED_UNIT ( * ) SI_UNIT ( $, .METRE. ) );
#202 = SURFACE_STYLE_FILL_AREA ( #263 ) ;
#203 = CIRCLE ( 'NONE', #141, 0.1250000000000000000 ) ;
#204 = DIRECTION ( 'NONE',  ( -0.000000000000000000, -1.000000000000000000, -0.000000000000000000 ) ) ;
#205 = FACE_OUTER_BOUND ( 'NONE', #123, .T. ) ;
#206 = ADVANCED_BREP_SHAPE_REPRESENTATION ( '81924', ( #88, #116, #328 ), #311 ) ;
#207 = VECTOR ( 'NONE', #254, 39.37007874015748143 ) ;
#208 = CYLINDRICAL_SURFACE ( 'NONE', #176, 0.1249999999999996253 ) ;
#209 = ADVANCED_FACE ( 'NONE', ( #335 ), #229, .T. ) ;
#210 = ORIENTED_EDGE ( 'NONE', *, *, #143, .F. ) ;
#211 = VERTEX_POINT ( 'NONE', #231 ) ;
#212 = COLOUR_RGB ( '',0.7921568627450980005, 0.8196078431372548767, 0.9333333333333333481 ) ;
#213 = DIRECTION ( 'NONE',  ( -1.262654765537954176E-16, 1.000000000000000000, -0.000000000000000000 ) ) ;
#214 = MECHANICAL_DESIGN_GEOMETRIC_PRESENTATION_REPRESENTATION (  '', ( #4 ), #278 ) ;
#215 = SURFACE_STYLE_USAGE ( .BOTH. , #15 ) ;
#216 = EDGE_CURVE ( 'NONE', #336, #80, #83, .T. ) ;
#217 = DIRECTION ( 'NONE',  ( -0.000000000000000000, -1.000000000000000000, -0.000000000000000000 ) ) ;
#218 =( NAMED_UNIT ( * ) PLANE_ANGLE_UNIT ( ) SI_UNIT ( $, .RADIAN. ) );
#219 = VERTEX_POINT ( 'NONE', #81 ) ;
#220 =( LENGTH_UNIT ( ) NAMED_UNIT ( * ) SI_UNIT ( $, .METRE. ) );
#221 =( NAMED_UNIT ( * ) SI_UNIT ( $, .STERADIAN. ) SOLID_ANGLE_UNIT ( ) );
#222 = DIMENSIONAL_EXPONENTS ( 1.000000000000000000, 0.000000000000000000, 0.000000000000000000, 0.000000000000000000, 0.000000000000000000, 0.000000000000000000, 0.000000000000000000 ) ;
#223 = ORIENTED_EDGE ( 'NONE', *, *, #182, .F. ) ;
#224 = SHAPE_DEFINITION_REPRESENTATION ( #23, #206 ) ;
#225 = PRESENTATION_LAYER_ASSIGNMENT (  '', '', ( #10 ) ) ;
#226 =( CONVERSION_BASED_UNIT ( 'INCH', #79 ) LENGTH_UNIT ( ) NAMED_UNIT ( #161 ) );
#227 = DIRECTION ( 'NONE',  ( -0.000000000000000000, -1.000000000000000000, -0.000000000000000000 ) ) ;
#228 = ADVANCED_FACE ( 'NONE', ( #198 ), #348, .T. ) ;
#229 = PLANE ( 'NONE',  #22 ) ;
#230 = VERTEX_POINT ( 'NONE', #24 ) ;
#231 = CARTESIAN_POINT ( 'NONE',  ( 1.530808498934191201E-17, 0.3749999999999999445, 0.1249999999999999584 ) ) ;
#232 =( NAMED_UNIT ( * ) PLANE_ANGLE_UNIT ( ) SI_UNIT ( $, .RADIAN. ) );
#233 = ORIENTED_EDGE ( 'NONE', *, *, #29, .T. ) ;
#234 = DIRECTION ( 'NONE',  ( 0.000000000000000000, 0.000000000000000000, 1.000000000000000000 ) ) ;
#235 = FILL_AREA_STYLE ('',( #112 ) ) ;
#236 = AXIS2_PLACEMENT_3D ( 'NONE', #313, #159, #164 ) ;
#237 = SURFACE_STYLE_USAGE ( .BOTH. , #350 ) ;
#238 = DIRECTION ( 'NONE',  ( -1.262654765537954176E-16, 1.000000000000000000, -0.000000000000000000 ) ) ;
#239 =( LENGTH_UNIT ( ) NAMED_UNIT ( * ) SI_UNIT ( $, .METRE. ) );
#240 = AXIS2_PLACEMENT_3D ( 'NONE', #342, #46, #364 ) ;
#241 = EDGE_LOOP ( 'NONE', ( #210, #284 ) ) ;
#242 = FACE_OUTER_BOUND ( 'NONE', #73, .T. ) ;
#243 = CIRCLE ( 'NONE', #199, 0.1249999999999999584 ) ;
#244 = SURFACE_STYLE_FILL_AREA ( #119 ) ;
#245 = FACE_OUTER_BOUND ( 'NONE', #14, .T. ) ;
#246 = DIRECTION ( 'NONE',  ( -1.262654765537954176E-16, 1.000000000000000000, -0.000000000000000000 ) ) ;
#247 = EDGE_CURVE ( 'NONE', #274, #154, #243, .T. ) ;
#248 = STYLED_ITEM ( 'NONE', ( #253 ), #209 ) ;
#249 = DIRECTION ( 'NONE',  ( -1.000000000000000000, 0.000000000000000000, 0.000000000000000000 ) ) ;
#250 = DIRECTION ( 'NONE',  ( 0.000000000000000000, 0.000000000000000000, -1.000000000000000000 ) ) ;
#251 = CARTESIAN_POINT ( 'NONE',  ( 0.1249999999999999584, 0.3749999999999999445, 1.530808498934187811E-17 ) ) ;
#252 = ORIENTED_EDGE ( 'NONE', *, *, #312, .T. ) ;
#253 = PRESENTATION_STYLE_ASSIGNMENT (( #215 ) ) ;
#254 = DIRECTION ( 'NONE',  ( -0.000000000000000000, -1.000000000000000000, -0.000000000000000000 ) ) ;
#255 = PRODUCT_DEFINITION_CONTEXT ( 'detailed design', #291, 'design' ) ;
#256 = CARTESIAN_POINT ( 'NONE',  ( 0.000000000000000000, 0.3749999999999999445, 0.000000000000000000 ) ) ;
#257 = ORIENTED_EDGE ( 'NONE', *, *, #8, .T. ) ;
#258 = CARTESIAN_POINT ( 'NONE',  ( 2.449293598294706414E-16, 2.000000000000000000, 0.000000000000000000 ) ) ;
#259 = STYLED_ITEM ( 'NONE', ( #55 ), #91 ) ;
#260 = PRESENTATION_LAYER_ASSIGNMENT (  '', '', ( #25 ) ) ;
#261 = SPHERICAL_SURFACE ( 'NONE', #240, 0.1250000000000000000 ) ;
#262 = PRODUCT_DEFINITION_FORMATION_WITH_SPECIFIED_SOURCE ( 'ANY', '', #85, .NOT_KNOWN. ) ;
#263 = FILL_AREA_STYLE ('',( #1 ) ) ;
#264 = APPLICATION_CONTEXT ( 'automotive_design' ) ;
#265 =( NAMED_UNIT ( * ) PLANE_ANGLE_UNIT ( ) SI_UNIT ( $, .RADIAN. ) );
#266 = CLOSED_SHELL ( 'NONE', ( #18, #134, #296, #349 ) ) ;
#267 = AXIS2_PLACEMENT_3D ( 'NONE', #56, #204, #330 ) ;
#268 = DIRECTION ( 'NONE',  ( 1.262654765537954176E-16, -1.000000000000000000, 0.000000000000000000 ) ) ;
#269 = SPHERICAL_SURFACE ( 'NONE', #131, 0.1250000000000000000 ) ;
#270 = FACE_OUTER_BOUND ( 'NONE', #66, .T. ) ;
#271 = CIRCLE ( 'NONE', #106, 0.1249999999999999584 ) ;
#272 = AXIS2_PLACEMENT_3D ( 'NONE', #2, #217, #354 ) ;
#273 =( LENGTH_UNIT ( ) NAMED_UNIT ( * ) SI_UNIT ( $, .METRE. ) );
#274 = VERTEX_POINT ( 'NONE', #64 ) ;
#275 = LENGTH_MEASURE_WITH_UNIT ( LENGTH_MEASURE( 0.02539999999999999897 ), #220 );
#276 = ORIENTED_EDGE ( 'NONE', *, *, #121, .T. ) ;
#277 = VECTOR ( 'NONE', #194, 39.37007874015748143 ) ;
#278 =( GEOMETRIC_REPRESENTATION_CONTEXT ( 3 ) GLOBAL_UNCERTAINTY_ASSIGNED_CONTEXT ( ( #75 ) ) GLOBAL_UNIT_ASSIGNED_CONTEXT ( ( #310, #166, #144 ) ) REPRESENTATION_CONTEXT ( 'NONE', 'WORKASPACE' ) );
#279 = LINE ( 'NONE', #12, #277 ) ;
#280 =( NAMED_UNIT ( * ) SI_UNIT ( $, .STERADIAN. ) SOLID_ANGLE_UNIT ( ) );
#281 = FACE_OUTER_BOUND ( 'NONE', #196, .T. ) ;
#282 = DIRECTION ( 'NONE',  ( 1.000000000000000000, 0.000000000000000000, -1.224646799147353207E-16 ) ) ;
#283 = PRESENTATION_STYLE_ASSIGNMENT (( #293 ) ) ;
#284 = ORIENTED_EDGE ( 'NONE', *, *, #8, .F. ) ;
#285 = AXIS2_PLACEMENT_3D ( 'NONE', #318, #340, #249 ) ;
#286 = LENGTH_MEASURE_WITH_UNIT ( LENGTH_MEASURE( 0.02539999999999999897 ), #45 );
#287 = PRESENTATION_STYLE_ASSIGNMENT (( #324 ) ) ;
#288 = DIRECTION ( 'NONE',  ( -1.000000000000000000, 0.000000000000000000, 0.000000000000000000 ) ) ;
#289 = EDGE_CURVE ( 'NONE', #97, #37, #146, .T. ) ;
#290 = UNCERTAINTY_MEASURE_WITH_UNIT (LENGTH_MEASURE( 1.000000000000000082E-05 ), #124, 'distance_accuracy_value', 'NONE');
#291 = APPLICATION_CONTEXT ( 'automotive_design' ) ;
#292 = CARTESIAN_POINT ( 'NONE',  ( 0.000000000000000000, 0.000000000000000000, 0.000000000000000000 ) ) ;
#293 = SURFACE_STYLE_USAGE ( .BOTH. , #95 ) ;
#294 = CIRCLE ( 'NONE', #175, 0.1249999999999997224 ) ;
#295 = PRESENTATION_STYLE_ASSIGNMENT (( #237 ) ) ;
#296 = ADVANCED_FACE ( 'NONE', ( #205 ), #208, .T. ) ;
#297 =( NAMED_UNIT ( * ) SI_UNIT ( $, .STERADIAN. ) SOLID_ANGLE_UNIT ( ) );
#298 = CARTESIAN_POINT ( 'NONE',  ( 0.000000000000000000, 0.1250000000000000278, 0.000000000000000000 ) ) ;
#299 = DIRECTION ( 'NONE',  ( -1.000000000000000000, 0.000000000000000000, 0.000000000000000000 ) ) ;
#300 = CARTESIAN_POINT ( 'NONE',  ( 0.000000000000000000, 0.1250000000000000278, 0.000000000000000000 ) ) ;
#301 = DIRECTION ( 'NONE',  ( -0.000000000000000000, -1.000000000000000000, -0.000000000000000000 ) ) ;
#302 = VERTEX_POINT ( 'NONE', #331 ) ;
#303 = CIRCLE ( 'NONE', #355, 0.1249999999999999584 ) ;
#304 = AXIS2_PLACEMENT_3D ( 'NONE', #258, #238, #84 ) ;
#305 =( NAMED_UNIT ( * ) PLANE_ANGLE_UNIT ( ) SI_UNIT ( $, .RADIAN. ) );
#306 = DIRECTION ( 'NONE',  ( -0.000000000000000000, -1.000000000000000000, -0.000000000000000000 ) ) ;
#307 = ORIENTED_EDGE ( 'NONE', *, *, #153, .F. ) ;
#308 = MECHANICAL_DESIGN_GEOMETRIC_PRESENTATION_REPRESENTATION (  '', ( #259 ), #366 ) ;
#309 = MECHANICAL_DESIGN_GEOMETRIC_PRESENTATION_REPRESENTATION (  '', ( #248 ), #132 ) ;
#310 =( CONVERSION_BASED_UNIT ( 'INCH', #157 ) LENGTH_UNIT ( ) NAMED_UNIT ( #125 ) );
#311 =( GEOMETRIC_REPRESENTATION_CONTEXT ( 3 ) GLOBAL_UNCERTAINTY_ASSIGNED_CONTEXT ( ( #186 ) ) GLOBAL_UNIT_ASSIGNED_CONTEXT ( ( #31, #70, #130 ) ) REPRESENTATION_CONTEXT ( 'NONE', 'WORKASPACE' ) );
#312 = EDGE_CURVE ( 'NONE', #97, #336, #6, .T. ) ;
#313 = CARTESIAN_POINT ( 'NONE',  ( -1.530808498934191509E-17, 0.1250000000000000000, 0.000000000000000000 ) ) ;
#314 = CARTESIAN_POINT ( 'NONE',  ( 2.449293598294706414E-16, 2.000000000000000000, 0.000000000000000000 ) ) ;
#315 = CARTESIAN_POINT ( 'NONE',  ( 0.000000000000000000, 0.3749999999999999445, 0.000000000000000000 ) ) ;
#316 = ORIENTED_EDGE ( 'NONE', *, *, #216, .F. ) ;
#317 =( NAMED_UNIT ( * ) SI_UNIT ( $, .STERADIAN. ) SOLID_ANGLE_UNIT ( ) );
#318 = CARTESIAN_POINT ( 'NONE',  ( 4.501107592293882011E-16, 0.3749999999999999445, 0.000000000000000000 ) ) ;
#319 = CYLINDRICAL_SURFACE ( 'NONE', #139, 0.1249999999999996253 ) ;
#320 = AXIS2_PLACEMENT_3D ( 'NONE', #36, #101, #9 ) ;
#321 = FILL_AREA_STYLE_COLOUR ( '', #26 ) ;
#322 = FACE_OUTER_BOUND ( 'NONE', #353, .T. ) ;
#323 = SURFACE_SIDE_STYLE ('',( #326 ) ) ;
#324 = SURFACE_STYLE_USAGE ( .BOTH. , #51 ) ;
#325 =( CONVERSION_BASED_UNIT ( 'INCH', #347 ) LENGTH_UNIT ( ) NAMED_UNIT ( #173 ) );
#326 = SURFACE_STYLE_FILL_AREA ( #235 ) ;
#327 = PRESENTATION_LAYER_ASSIGNMENT (  '', '', ( #4 ) ) ;
#328 = AXIS2_PLACEMENT_3D ( 'NONE', #292, #234, #345 ) ;
#329 = DIRECTION ( 'NONE',  ( 0.000000000000000000, 0.000000000000000000, -1.000000000000000000 ) ) ;
#330 = DIRECTION ( 'NONE',  ( 0.000000000000000000, 0.000000000000000000, -1.000000000000000000 ) ) ;
#331 = CARTESIAN_POINT ( 'NONE',  ( 1.530808498934191201E-17, 0.1250000000000000278, 0.1249999999999999584 ) ) ;
#332 = DIRECTION ( 'NONE',  ( 1.000000000000000000, 0.000000000000000000, 0.000000000000000000 ) ) ;
#333 = STYLED_ITEM ( 'NONE', ( #122 ), #116 ) ;
#334 = UNCERTAINTY_MEASURE_WITH_UNIT (LENGTH_MEASURE( 1.000000000000000082E-05 ), #226, 'distance_accuracy_value', 'NONE');
#335 = FACE_OUTER_BOUND ( 'NONE', #241, .T. ) ;
#336 = VERTEX_POINT ( 'NONE', #28 ) ;
#337 =( CONVERSION_BASED_UNIT ( 'INCH', #275 ) LENGTH_UNIT ( ) NAMED_UNIT ( #191 ) );
#338 = ORIENTED_EDGE ( 'NONE', *, *, #105, .T. ) ;
#339 = COLOUR_RGB ( '',1.000000000000000000, 0.000000000000000000, 0.000000000000000000 ) ;
#340 = DIRECTION ( 'NONE',  ( -1.262654765537954176E-16, 1.000000000000000000, -0.000000000000000000 ) ) ;
#341 = ORIENTED_EDGE ( 'NONE', *, *, #289, .F. ) ;
#342 = CARTESIAN_POINT ( 'NONE',  ( -1.530808498934191509E-17, 0.1250000000000000000, 0.000000000000000000 ) ) ;
#343 = ORIENTED_EDGE ( 'NONE', *, *, #89, .T. ) ;
#344 = ORIENTED_EDGE ( 'NONE', *, *, #147, .T. ) ;
#345 = DIRECTION ( 'NONE',  ( 1.000000000000000000, 0.000000000000000000, 0.000000000000000000 ) ) ;
#346 = PRESENTATION_LAYER_ASSIGNMENT (  '', '', ( #248 ) ) ;
#347 = LENGTH_MEASURE_WITH_UNIT ( LENGTH_MEASURE( 0.02539999999999999897 ), #239 );
#348 = CYLINDRICAL_SURFACE ( 'NONE', #267, 0.1249999999999999584 ) ;
#349 = ADVANCED_FACE ( 'NONE', ( #245 ), #57, .F. ) ;
#350 = SURFACE_SIDE_STYLE ('',( #373 ) ) ;
#351 = PRESENTATION_LAYER_ASSIGNMENT (  '', '', ( #333 ) ) ;
#352 = ADVANCED_FACE ( 'NONE', ( #117 ), #261, .T. ) ;
#353 = EDGE_LOOP ( 'NONE', ( #307, #110, #192, #344 ) ) ;
#354 = DIRECTION ( 'NONE',  ( 0.000000000000000000, 0.000000000000000000, -1.000000000000000000 ) ) ;
#355 = AXIS2_PLACEMENT_3D ( 'NONE', #133, #111, #21 ) ;
#356 = CARTESIAN_POINT ( 'NONE',  ( 4.501107592293882011E-16, 0.3749999999999999445, 0.000000000000000000 ) ) ;
#357 = SURFACE_SIDE_STYLE ('',( #244 ) ) ;
#358 = ADVANCED_FACE ( 'NONE', ( #242 ), #107, .T. ) ;
#359 = DIRECTION ( 'NONE',  ( -1.262654765537954176E-16, 1.000000000000000000, -0.000000000000000000 ) ) ;
#360 = FILL_AREA_STYLE_COLOUR ( '', #115 ) ;
#361 = LINE ( 'NONE', #102, #207 ) ;
#362 = EDGE_LOOP ( 'NONE', ( #41, #257, #276, #136, #156 ) ) ;
#363 = SURFACE_STYLE_FILL_AREA ( #109 ) ;
#364 = DIRECTION ( 'NONE',  ( 1.000000000000000000, 0.000000000000000000, 0.000000000000000000 ) ) ;
#365 = ORIENTED_EDGE ( 'NONE', *, *, #182, .T. ) ;
#366 =( GEOMETRIC_REPRESENTATION_CONTEXT ( 3 ) GLOBAL_UNCERTAINTY_ASSIGNED_CONTEXT ( ( #163 ) ) GLOBAL_UNIT_ASSIGNED_CONTEXT ( ( #59, #305, #179 ) ) REPRESENTATION_CONTEXT ( 'NONE', 'WORKASPACE' ) );
#367 = VECTOR ( 'NONE', #169, 39.37007874015748143 ) ;
#368 = UNCERTAINTY_MEASURE_WITH_UNIT (LENGTH_MEASURE( 1.000000000000000082E-05 ), #325, 'distance_accuracy_value', 'NONE');
#369 = DIRECTION ( 'NONE',  ( 0.000000000000000000, -0.000000000000000000, 1.000000000000000000 ) ) ;
#370 = ORIENTED_EDGE ( 'NONE', *, *, #147, .F. ) ;
#371 = PRODUCT_RELATED_PRODUCT_CATEGORY ( 'part', '', ( #85 ) ) ;
#372 = DIRECTION ( 'NONE',  ( 0.000000000000000000, 1.000000000000000000, 0.000000000000000000 ) ) ;
#373 = SURFACE_STYLE_FILL_AREA ( #172 ) ;
ENDSEC;
END-ISO-10303-21;
