ISO-10303-21;
HEADER;
FILE_DESCRIPTION (( 'STEP AP214' ),
    '1' );
FILE_NAME ('Micro_GEM-140-3X.STEP',
    '2021-09-01T19:43:40',
    ( '' ),
    ( '' ),
    'SwSTEP 2.0',
    'SolidWorks 2020',
    '' );
FILE_SCHEMA (( 'AUTOMOTIVE_DESIGN' ));
ENDSEC;

DATA;
#1 = DIRECTION ( 'NONE',  ( -1.224646799147353207E-16, -0.0000000000000000000, -1.000000000000000000 ) ) ;
#2 = CARTESIAN_POINT ( 'NONE',  ( 6.123233995736766036E-17, 0.0000000000000000000, 0.5000000000000000000 ) ) ;
#3 = FACE_OUTER_BOUND ( 'NONE', #64, .T. ) ;
#4 = UNCERTAINTY_MEASURE_WITH_UNIT (LENGTH_MEASURE( 1.000000000000000082E-05 ), #222, 'distance_accuracy_value', 'NONE');
#5 = CARTESIAN_POINT ( 'NONE',  ( 6.123233995736766036E-17, 0.0000000000000000000, 0.5000000000000000000 ) ) ;
#6 = VECTOR ( 'NONE', #172, 39.37007874015748143 ) ;
#7 = DIRECTION ( 'NONE',  ( -0.0000000000000000000, -0.0000000000000000000, -1.000000000000000000 ) ) ;
#8 = EDGE_CURVE ( 'NONE', #182, #12, #252, .T. ) ;
#9 = SURFACE_SIDE_STYLE ('',( #227 ) ) ;
#10 = APPLICATION_PROTOCOL_DEFINITION ( 'draft international standard', 'automotive_design', 1998, #20 ) ;
#11 = PRESENTATION_LAYER_ASSIGNMENT (  '', '', ( #31 ) ) ;
#12 = VERTEX_POINT ( 'NONE', #146 ) ;
#13 = EDGE_CURVE ( 'NONE', #274, #184, #164, .T. ) ;
#14 =( NAMED_UNIT ( * ) SI_UNIT ( $, .STERADIAN. ) SOLID_ANGLE_UNIT ( ) );
#15 = EDGE_LOOP ( 'NONE', ( #41, #136, #89, #127 ) ) ;
#16 = ORIENTED_EDGE ( 'NONE', *, *, #8, .T. ) ;
#17 = PRODUCT_DEFINITION_SHAPE ( 'NONE', 'NONE',  #163 ) ;
#18 = DIRECTION ( 'NONE',  ( -1.000000000000000000, 0.0000000000000000000, 1.224646799147353207E-16 ) ) ;
#19 = EDGE_CURVE ( 'NONE', #289, #109, #261, .T. ) ;
#20 = APPLICATION_CONTEXT ( 'automotive_design' ) ;
#21 = DIRECTION ( 'NONE',  ( -1.000000000000000000, 0.0000000000000000000, 0.0000000000000000000 ) ) ;
#22 = CARTESIAN_POINT ( 'NONE',  ( 0.07874999999999980627, 9.644093543285380530E-18, 2.000000000000000000 ) ) ;
#23 = CARTESIAN_POINT ( 'NONE',  ( 6.123233995736766036E-17, 0.0000000000000000000, 0.5000000000000000000 ) ) ;
#24 = ADVANCED_FACE ( 'NONE', ( #71 ), #150, .T. ) ;
#25 = DIRECTION ( 'NONE',  ( 0.0000000000000000000, 0.0000000000000000000, 1.000000000000000000 ) ) ;
#26 = LINE ( 'NONE', #72, #251 ) ;
#27 = ADVANCED_FACE ( 'NONE', ( #148 ), #166, .T. ) ;
#28 = DIRECTION ( 'NONE',  ( -0.0000000000000000000, -0.0000000000000000000, -1.000000000000000000 ) ) ;
#29 = FACE_OUTER_BOUND ( 'NONE', #180, .T. ) ;
#30 =( GEOMETRIC_REPRESENTATION_CONTEXT ( 3 ) GLOBAL_UNCERTAINTY_ASSIGNED_CONTEXT ( ( #4 ) ) GLOBAL_UNIT_ASSIGNED_CONTEXT ( ( #222, #100, #242 ) ) REPRESENTATION_CONTEXT ( 'NONE', 'WORKASPACE' ) );
#31 = STYLED_ITEM ( 'NONE', ( #126 ), #154 ) ;
#32 = ADVANCED_FACE ( 'NONE', ( #47 ), #45, .T. ) ;
#33 = LENGTH_MEASURE_WITH_UNIT ( LENGTH_MEASURE( 0.02539999999999999897 ), #134 );
#34 = CARTESIAN_POINT ( 'NONE',  ( 0.07022970000000000601, 8.600657731007888113E-18, -8.600657731007888113E-18 ) ) ;
#35 = ORIENTED_EDGE ( 'NONE', *, *, #140, .T. ) ;
#36 = APPLICATION_CONTEXT ( 'automotive_design' ) ;
#37 = ORIENTED_EDGE ( 'NONE', *, *, #257, .F. ) ;
#38 = VECTOR ( 'NONE', #210, 39.37007874015748143 ) ;
#39 = ORIENTED_EDGE ( 'NONE', *, *, #257, .T. ) ;
#40 =( CONVERSION_BASED_UNIT ( 'INCH', #33 ) LENGTH_UNIT ( ) NAMED_UNIT ( #162 ) );
#41 = ORIENTED_EDGE ( 'NONE', *, *, #68, .F. ) ;
#42 = PRODUCT_RELATED_PRODUCT_CATEGORY ( 'part', '', ( #137 ) ) ;
#43 = ORIENTED_EDGE ( 'NONE', *, *, #116, .T. ) ;
#44 = LINE ( 'NONE', #22, #74 ) ;
#45 = CYLINDRICAL_SURFACE ( 'NONE', #121, 0.07022970000000000601 ) ;
#46 = DIRECTION ( 'NONE',  ( 0.0000000000000000000, 0.0000000000000000000, 1.000000000000000000 ) ) ;
#47 = FACE_OUTER_BOUND ( 'NONE', #84, .T. ) ;
#48 = ADVANCED_FACE ( 'NONE', ( #192 ), #298, .F. ) ;
#49 = AXIS2_PLACEMENT_3D ( 'NONE', #295, #277, #139 ) ;
#50 = DIRECTION ( 'NONE',  ( -1.224646799147353207E-16, -0.0000000000000000000, -1.000000000000000000 ) ) ;
#51 = DIRECTION ( 'NONE',  ( 0.0000000000000000000, 0.0000000000000000000, 1.000000000000000000 ) ) ;
#52 = CARTESIAN_POINT ( 'NONE',  ( 1.053276796084074714E-33, 0.0000000000000000000, 8.600657731007888113E-18 ) ) ;
#53 = CARTESIAN_POINT ( 'NONE',  ( 0.09375000000000001388, 1.148106374200643863E-17, 2.000000000000000000 ) ) ;
#54 = AXIS2_PLACEMENT_3D ( 'NONE', #265, #220, #77 ) ;
#55 = ORIENTED_EDGE ( 'NONE', *, *, #213, .F. ) ;
#56 = FILL_AREA_STYLE ('',( #107 ) ) ;
#57 = EDGE_CURVE ( 'NONE', #62, #12, #117, .T. ) ;
#58 = ORIENTED_EDGE ( 'NONE', *, *, #19, .T. ) ;
#59 = EDGE_LOOP ( 'NONE', ( #269, #83 ) ) ;
#60 = AXIS2_PLACEMENT_3D ( 'NONE', #52, #153, #103 ) ;
#61 =( NAMED_UNIT ( * ) PLANE_ANGLE_UNIT ( ) SI_UNIT ( $, .RADIAN. ) );
#62 = VERTEX_POINT ( 'NONE', #238 ) ;
#63 = DIMENSIONAL_EXPONENTS ( 1.000000000000000000, 0.0000000000000000000, 0.0000000000000000000, 0.0000000000000000000, 0.0000000000000000000, 0.0000000000000000000, 0.0000000000000000000 ) ;
#64 = EDGE_LOOP ( 'NONE', ( #186, #37, #183, #157 ) ) ;
#65 = CARTESIAN_POINT ( 'NONE',  ( 0.0000000000000000000, 0.0000000000000000000, 2.000000000000000000 ) ) ;
#66 = DIRECTION ( 'NONE',  ( 0.0000000000000000000, 0.0000000000000000000, -1.000000000000000000 ) ) ;
#67 = DIRECTION ( 'NONE',  ( 1.000000000000000000, 0.0000000000000000000, 0.0000000000000000000 ) ) ;
#68 = EDGE_CURVE ( 'NONE', #109, #225, #44, .T. ) ;
#69 = DIRECTION ( 'NONE',  ( 1.000000000000000000, 0.0000000000000000000, -0.0000000000000000000 ) ) ;
#70 = AXIS2_PLACEMENT_3D ( 'NONE', #171, #197, #219 ) ;
#71 = FACE_OUTER_BOUND ( 'NONE', #86, .T. ) ;
#72 = CARTESIAN_POINT ( 'NONE',  ( -0.07022970000000000601, 0.0000000000000000000, 8.600657731007888113E-18 ) ) ;
#73 = DIRECTION ( 'NONE',  ( 1.000000000000000000, 0.0000000000000000000, -0.0000000000000000000 ) ) ;
#74 = VECTOR ( 'NONE', #296, 39.37007874015748143 ) ;
#75 = DIRECTION ( 'NONE',  ( -1.224646799147353207E-16, -0.0000000000000000000, -1.000000000000000000 ) ) ;
#76 =( GEOMETRIC_REPRESENTATION_CONTEXT ( 3 ) GLOBAL_UNCERTAINTY_ASSIGNED_CONTEXT ( ( #264 ) ) GLOBAL_UNIT_ASSIGNED_CONTEXT ( ( #40, #61, #14 ) ) REPRESENTATION_CONTEXT ( 'NONE', 'WORKASPACE' ) );
#77 = DIRECTION ( 'NONE',  ( 1.000000000000000000, 0.0000000000000000000, 0.0000000000000000000 ) ) ;
#78 = DIRECTION ( 'NONE',  ( 1.000000000000000000, 0.0000000000000000000, 0.0000000000000000000 ) ) ;
#79 = PRODUCT_CONTEXT ( 'NONE', #36, 'mechanical' ) ;
#80 = AXIS2_PLACEMENT_3D ( 'NONE', #92, #25, #170 ) ;
#81 = ORIENTED_EDGE ( 'NONE', *, *, #245, .F. ) ;
#82 =( NAMED_UNIT ( * ) PLANE_ANGLE_UNIT ( ) SI_UNIT ( $, .RADIAN. ) );
#83 = ORIENTED_EDGE ( 'NONE', *, *, #267, .T. ) ;
#84 = EDGE_LOOP ( 'NONE', ( #226, #294, #246, #250 ) ) ;
#85 = SURFACE_STYLE_USAGE ( .BOTH. , #9 ) ;
#86 = EDGE_LOOP ( 'NONE', ( #231, #161, #200, #271 ) ) ;
#87 = VECTOR ( 'NONE', #224, 39.37007874015748143 ) ;
#88 = DIRECTION ( 'NONE',  ( 1.000000000000000000, 0.0000000000000000000, 0.0000000000000000000 ) ) ;
#89 = ORIENTED_EDGE ( 'NONE', *, *, #199, .T. ) ;
#90 = EDGE_CURVE ( 'NONE', #182, #274, #188, .T. ) ;
#91 = DIRECTION ( 'NONE',  ( 0.0000000000000000000, 0.0000000000000000000, -1.000000000000000000 ) ) ;
#92 = CARTESIAN_POINT ( 'NONE',  ( 0.0000000000000000000, 0.0000000000000000000, 2.000000000000000000 ) ) ;
#93 = AXIS2_PLACEMENT_3D ( 'NONE', #190, #91, #255 ) ;
#94 = CARTESIAN_POINT ( 'NONE',  ( -0.09375000000000001388, 0.0000000000000000000, 2.000000000000000000 ) ) ;
#95 = FILL_AREA_STYLE ('',( #299 ) ) ;
#96 = CARTESIAN_POINT ( 'NONE',  ( 0.0000000000000000000, 0.0000000000000000000, 0.0000000000000000000 ) ) ;
#97 = ADVANCED_FACE ( 'NONE', ( #233 ), #168, .T. ) ;
#98 = AXIS2_PLACEMENT_3D ( 'NONE', #65, #66, #21 ) ;
#99 = CARTESIAN_POINT ( 'NONE',  ( -0.07874999999999980627, 0.0000000000000000000, 2.000000000000000000 ) ) ;
#100 =( NAMED_UNIT ( * ) PLANE_ANGLE_UNIT ( ) SI_UNIT ( $, .RADIAN. ) );
#101 = AXIS2_PLACEMENT_3D ( 'NONE', #216, #28, #198 ) ;
#102 = DIRECTION ( 'NONE',  ( -0.0000000000000000000, -0.0000000000000000000, -1.000000000000000000 ) ) ;
#103 = DIRECTION ( 'NONE',  ( -1.000000000000000000, 0.0000000000000000000, 1.224646799147353207E-16 ) ) ;
#104 = VERTEX_POINT ( 'NONE', #236 ) ;
#105 = EDGE_CURVE ( 'NONE', #62, #225, #205, .T. ) ;
#106 = VERTEX_POINT ( 'NONE', #275 ) ;
#107 = FILL_AREA_STYLE_COLOUR ( '', #283 ) ;
#108 = ORIENTED_EDGE ( 'NONE', *, *, #90, .F. ) ;
#109 = VERTEX_POINT ( 'NONE', #187 ) ;
#110 = ADVANCED_FACE ( 'NONE', ( #115 ), #297, .T. ) ;
#111 = EDGE_LOOP ( 'NONE', ( #206, #35, #81, #268 ) ) ;
#112 = AXIS2_PLACEMENT_3D ( 'NONE', #243, #51, #73 ) ;
#113 =( GEOMETRIC_REPRESENTATION_CONTEXT ( 3 ) GLOBAL_UNCERTAINTY_ASSIGNED_CONTEXT ( ( #177 ) ) GLOBAL_UNIT_ASSIGNED_CONTEXT ( ( #132, #82, #203 ) ) REPRESENTATION_CONTEXT ( 'NONE', 'WORKASPACE' ) );
#114 = DIRECTION ( 'NONE',  ( -1.000000000000000000, 0.0000000000000000000, 1.224646799147353207E-16 ) ) ;
#115 = FACE_OUTER_BOUND ( 'NONE', #130, .T. ) ;
#116 = EDGE_CURVE ( 'NONE', #109, #289, #292, .T. ) ;
#117 = LINE ( 'NONE', #94, #241 ) ;
#118 = CYLINDRICAL_SURFACE ( 'NONE', #101, 0.09375000000000001388 ) ;
#119 = MANIFOLD_SOLID_BREP ( 'Cut-Revolve1', #276 ) ;
#120 = FACE_OUTER_BOUND ( 'NONE', #111, .T. ) ;
#121 = AXIS2_PLACEMENT_3D ( 'NONE', #96, #253, #114 ) ;
#122 =( LENGTH_UNIT ( ) NAMED_UNIT ( * ) SI_UNIT ( $, .METRE. ) );
#123 = CARTESIAN_POINT ( 'NONE',  ( 0.09375000000000009714, 1.148106374200644787E-17, 0.6333902497819535737 ) ) ;
#124 = AXIS2_PLACEMENT_3D ( 'NONE', #278, #281, #69 ) ;
#125 = LENGTH_MEASURE_WITH_UNIT ( LENGTH_MEASURE( 0.02539999999999999897 ), #122 );
#126 = PRESENTATION_STYLE_ASSIGNMENT (( #85 ) ) ;
#127 = ORIENTED_EDGE ( 'NONE', *, *, #147, .F. ) ;
#128 = AXIS2_PLACEMENT_3D ( 'NONE', #165, #46, #142 ) ;
#129 = LENGTH_MEASURE_WITH_UNIT ( LENGTH_MEASURE( 0.02539999999999999897 ), #249 );
#130 = EDGE_LOOP ( 'NONE', ( #108, #16, #202, #135 ) ) ;
#131 = AXIS2_PLACEMENT_3D ( 'NONE', #293, #223, #88 ) ;
#132 =( CONVERSION_BASED_UNIT ( 'INCH', #129 ) LENGTH_UNIT ( ) NAMED_UNIT ( #63 ) );
#133 = ADVANCED_FACE ( 'NONE', ( #120 ), #118, .T. ) ;
#134 =( LENGTH_UNIT ( ) NAMED_UNIT ( * ) SI_UNIT ( $, .METRE. ) );
#135 = ORIENTED_EDGE ( 'NONE', *, *, #13, .F. ) ;
#136 = ORIENTED_EDGE ( 'NONE', *, *, #19, .F. ) ;
#137 = PRODUCT ( 'Micro_GEM-140-3X', 'Micro_GEM-140-3X', '', ( #79 ) ) ;
#138 = PRODUCT_DEFINITION_FORMATION_WITH_SPECIFIED_SOURCE ( 'ANY', '', #137, .NOT_KNOWN. ) ;
#139 = DIRECTION ( 'NONE',  ( -1.000000000000000000, 0.0000000000000000000, 0.0000000000000000000 ) ) ;
#140 = EDGE_CURVE ( 'NONE', #225, #184, #285, .T. ) ;
#141 = DIRECTION ( 'NONE',  ( 0.0000000000000000000, 0.0000000000000000000, -1.000000000000000000 ) ) ;
#142 = DIRECTION ( 'NONE',  ( 1.000000000000000000, 0.0000000000000000000, 0.0000000000000000000 ) ) ;
#143 = VECTOR ( 'NONE', #102, 39.37007874015748143 ) ;
#144 = DIMENSIONAL_EXPONENTS ( 1.000000000000000000, 0.0000000000000000000, 0.0000000000000000000, 0.0000000000000000000, 0.0000000000000000000, 0.0000000000000000000, 0.0000000000000000000 ) ;
#145 = CIRCLE ( 'NONE', #181, 0.07022970000000000601 ) ;
#146 = CARTESIAN_POINT ( 'NONE',  ( -0.09374999999999991673, 0.0000000000000000000, 0.6333902497819535737 ) ) ;
#147 = EDGE_CURVE ( 'NONE', #225, #62, #235, .T. ) ;
#148 = FACE_OUTER_BOUND ( 'NONE', #290, .T. ) ;
#149 = CARTESIAN_POINT ( 'NONE',  ( -0.07022969999999995050, 1.004086073650716183E-17, 0.5000000000000000000 ) ) ;
#150 = CONICAL_SURFACE ( 'NONE', #155, 0.07874999999999980627, 0.7853981633974466137 ) ;
#151 = DIRECTION ( 'NONE',  ( 1.224646799147353207E-16, 0.0000000000000000000, 1.000000000000000000 ) ) ;
#152 = LINE ( 'NONE', #34, #87 ) ;
#153 = DIRECTION ( 'NONE',  ( -1.224646799147353207E-16, -0.0000000000000000000, -1.000000000000000000 ) ) ;
#154 = ADVANCED_BREP_SHAPE_REPRESENTATION ( 'Micro_GEM-140-3X', ( #119, #131 ), #113 ) ;
#155 = AXIS2_PLACEMENT_3D ( 'NONE', #214, #141, #212 ) ;
#156 = ORIENTED_EDGE ( 'NONE', *, *, #57, .T. ) ;
#157 = ORIENTED_EDGE ( 'NONE', *, *, #213, .T. ) ;
#158 = MECHANICAL_DESIGN_GEOMETRIC_PRESENTATION_REPRESENTATION (  '', ( #286 ), #30 ) ;
#159 = ORIENTED_EDGE ( 'NONE', *, *, #267, .F. ) ;
#160 = AXIS2_PLACEMENT_3D ( 'NONE', #5, #151, #288 ) ;
#161 = ORIENTED_EDGE ( 'NONE', *, *, #68, .T. ) ;
#162 = DIMENSIONAL_EXPONENTS ( 1.000000000000000000, 0.0000000000000000000, 0.0000000000000000000, 0.0000000000000000000, 0.0000000000000000000, 0.0000000000000000000, 0.0000000000000000000 ) ;
#163 = PRODUCT_DEFINITION ( 'UNKNOWN', '', #138, #221 ) ;
#164 = LINE ( 'NONE', #234, #38 ) ;
#165 = CARTESIAN_POINT ( 'NONE',  ( 0.0000000000000000000, 0.0000000000000000000, 2.000000000000000000 ) ) ;
#166 = CYLINDRICAL_SURFACE ( 'NONE', #179, 0.07022970000000000601 ) ;
#167 = SURFACE_STYLE_FILL_AREA ( #95 ) ;
#168 = CONICAL_SURFACE ( 'NONE', #98, 0.07874999999999980627, 0.7853981633974466137 ) ;
#169 = ADVANCED_FACE ( 'NONE', ( #29 ), #239, .T. ) ;
#170 = DIRECTION ( 'NONE',  ( 1.000000000000000000, 0.0000000000000000000, 0.0000000000000000000 ) ) ;
#171 = CARTESIAN_POINT ( 'NONE',  ( 0.0000000000000000000, 0.0000000000000000000, 1.984999999999999654 ) ) ;
#172 = DIRECTION ( 'NONE',  ( -0.7071067811865463515, 0.0000000000000000000, -0.7071067811865486830 ) ) ;
#173 = AXIS2_PLACEMENT_3D ( 'NONE', #23, #254, #67 ) ;
#174 = DIRECTION ( 'NONE',  ( -1.000000000000000000, 0.0000000000000000000, 1.224646799147353207E-16 ) ) ;
#175 = CIRCLE ( 'NONE', #194, 0.07022970000000000601 ) ;
#176 = DIRECTION ( 'NONE',  ( -1.000000000000000000, 0.0000000000000000000, 0.0000000000000000000 ) ) ;
#177 = UNCERTAINTY_MEASURE_WITH_UNIT (LENGTH_MEASURE( 1.000000000000000082E-05 ), #132, 'distance_accuracy_value', 'NONE');
#178 = DIRECTION ( 'NONE',  ( -1.224646799147353207E-16, -0.0000000000000000000, -1.000000000000000000 ) ) ;
#179 = AXIS2_PLACEMENT_3D ( 'NONE', #258, #1, #18 ) ;
#180 = EDGE_LOOP ( 'NONE', ( #58, #43 ) ) ;
#181 = AXIS2_PLACEMENT_3D ( 'NONE', #2, #75, #240 ) ;
#182 = VERTEX_POINT ( 'NONE', #149 ) ;
#183 = ORIENTED_EDGE ( 'NONE', *, *, #13, .T. ) ;
#184 = VERTEX_POINT ( 'NONE', #123 ) ;
#185 = APPLICATION_PROTOCOL_DEFINITION ( 'draft international standard', 'automotive_design', 1998, #36 ) ;
#186 = ORIENTED_EDGE ( 'NONE', *, *, #8, .F. ) ;
#187 = CARTESIAN_POINT ( 'NONE',  ( 0.07874999999999980627, 1.056257864264590573E-17, 2.000000000000000000 ) ) ;
#188 = CIRCLE ( 'NONE', #49, 0.07022970000000000601 ) ;
#189 = DIRECTION ( 'NONE',  ( -0.1736481776669311916, 2.126576849575783316E-17, 0.9848077530122080203 ) ) ;
#190 = CARTESIAN_POINT ( 'NONE',  ( 0.0000000000000000000, 0.0000000000000000000, 1.984999999999999654 ) ) ;
#191 = SURFACE_SIDE_STYLE ('',( #167 ) ) ;
#192 = FACE_OUTER_BOUND ( 'NONE', #59, .T. ) ;
#193 = AXIS2_PLACEMENT_3D ( 'NONE', #196, #7, #176 ) ;
#194 = AXIS2_PLACEMENT_3D ( 'NONE', #266, #284, #174 ) ;
#195 = LINE ( 'NONE', #99, #6 ) ;
#196 = CARTESIAN_POINT ( 'NONE',  ( 0.0000000000000000000, 0.0000000000000000000, 2.000000000000000000 ) ) ;
#197 = DIRECTION ( 'NONE',  ( 0.0000000000000000000, 0.0000000000000000000, -1.000000000000000000 ) ) ;
#198 = DIRECTION ( 'NONE',  ( -1.000000000000000000, 0.0000000000000000000, 0.0000000000000000000 ) ) ;
#199 = EDGE_CURVE ( 'NONE', #289, #62, #195, .T. ) ;
#200 = ORIENTED_EDGE ( 'NONE', *, *, #105, .F. ) ;
#201 = CARTESIAN_POINT ( 'NONE',  ( -0.07874999999999980627, 0.0000000000000000000, 2.000000000000000000 ) ) ;
#202 = ORIENTED_EDGE ( 'NONE', *, *, #245, .T. ) ;
#203 =( NAMED_UNIT ( * ) SI_UNIT ( $, .STERADIAN. ) SOLID_ANGLE_UNIT ( ) );
#204 = EDGE_LOOP ( 'NONE', ( #228, #291, #156, #55 ) ) ;
#205 = CIRCLE ( 'NONE', #93, 0.09375000000000001388 ) ;
#206 = ORIENTED_EDGE ( 'NONE', *, *, #105, .T. ) ;
#207 = ADVANCED_FACE ( 'NONE', ( #287 ), #259, .T. ) ;
#208 = AXIS2_PLACEMENT_3D ( 'NONE', #244, #178, #78 ) ;
#209 = DIRECTION ( 'NONE',  ( -0.0000000000000000000, -0.0000000000000000000, -1.000000000000000000 ) ) ;
#210 = DIRECTION ( 'NONE',  ( 0.1736481776669313859, 0.0000000000000000000, 0.9848077530122077983 ) ) ;
#211 = COLOUR_RGB ( '',0.7921568627450980005, 0.8196078431372548767, 0.9333333333333333481 ) ;
#212 = DIRECTION ( 'NONE',  ( -1.000000000000000000, 0.0000000000000000000, 0.0000000000000000000 ) ) ;
#213 = EDGE_CURVE ( 'NONE', #184, #12, #280, .T. ) ;
#214 = CARTESIAN_POINT ( 'NONE',  ( 0.0000000000000000000, 0.0000000000000000000, 2.000000000000000000 ) ) ;
#215 = CARTESIAN_POINT ( 'NONE',  ( -0.07022969999999995050, 8.600657731007888113E-18, 0.5000000000000000000 ) ) ;
#216 = CARTESIAN_POINT ( 'NONE',  ( 0.0000000000000000000, 0.0000000000000000000, 2.000000000000000000 ) ) ;
#217 = EDGE_CURVE ( 'NONE', #106, #104, #229, .T. ) ;
#218 = VECTOR ( 'NONE', #189, 39.37007874015747433 ) ;
#219 = DIRECTION ( 'NONE',  ( 1.000000000000000000, 0.0000000000000000000, 0.0000000000000000000 ) ) ;
#220 = DIRECTION ( 'NONE',  ( -1.224646799147353207E-16, -0.0000000000000000000, -1.000000000000000000 ) ) ;
#221 = PRODUCT_DEFINITION_CONTEXT ( 'detailed design', #20, 'design' ) ;
#222 =( CONVERSION_BASED_UNIT ( 'INCH', #125 ) LENGTH_UNIT ( ) NAMED_UNIT ( #144 ) );
#223 = DIRECTION ( 'NONE',  ( 0.0000000000000000000, 0.0000000000000000000, 1.000000000000000000 ) ) ;
#224 = DIRECTION ( 'NONE',  ( -1.224646799147353207E-16, -0.0000000000000000000, -1.000000000000000000 ) ) ;
#225 = VERTEX_POINT ( 'NONE', #260 ) ;
#226 = ORIENTED_EDGE ( 'NONE', *, *, #90, .T. ) ;
#227 = SURFACE_STYLE_FILL_AREA ( #56 ) ;
#228 = ORIENTED_EDGE ( 'NONE', *, *, #140, .F. ) ;
#229 = CIRCLE ( 'NONE', #60, 0.07022970000000000601 ) ;
#230 = ADVANCED_FACE ( 'NONE', ( #3 ), #232, .T. ) ;
#231 = ORIENTED_EDGE ( 'NONE', *, *, #116, .F. ) ;
#232 = CONICAL_SURFACE ( 'NONE', #160, 0.07022970000000000601, 0.1745329251994338915 ) ;
#233 = FACE_OUTER_BOUND ( 'NONE', #15, .T. ) ;
#234 = CARTESIAN_POINT ( 'NONE',  ( 0.07022970000000007540, 0.0000000000000000000, 0.5000000000000000000 ) ) ;
#235 = CIRCLE ( 'NONE', #70, 0.09375000000000001388 ) ;
#236 = CARTESIAN_POINT ( 'NONE',  ( 0.07022970000000000601, 8.600657731007888113E-18, 0.0000000000000000000 ) ) ;
#237 = MECHANICAL_DESIGN_GEOMETRIC_PRESENTATION_REPRESENTATION (  '', ( #31 ), #76 ) ;
#238 = CARTESIAN_POINT ( 'NONE',  ( -0.09375000000000001388, 0.0000000000000000000, 1.984999999999999654 ) ) ;
#239 = PLANE ( 'NONE',  #112 ) ;
#240 = DIRECTION ( 'NONE',  ( -1.000000000000000000, 0.0000000000000000000, 0.0000000000000000000 ) ) ;
#241 = VECTOR ( 'NONE', #209, 39.37007874015748143 ) ;
#242 =( NAMED_UNIT ( * ) SI_UNIT ( $, .STERADIAN. ) SOLID_ANGLE_UNIT ( ) );
#243 = CARTESIAN_POINT ( 'NONE',  ( 0.0000000000000000000, 0.0000000000000000000, 2.000000000000000000 ) ) ;
#244 = CARTESIAN_POINT ( 'NONE',  ( 7.756793420066120836E-17, 0.0000000000000000000, 0.6333902497819535737 ) ) ;
#245 = EDGE_CURVE ( 'NONE', #12, #184, #262, .T. ) ;
#246 = ORIENTED_EDGE ( 'NONE', *, *, #217, .F. ) ;
#247 = ORIENTED_EDGE ( 'NONE', *, *, #282, .F. ) ;
#248 = PRESENTATION_LAYER_ASSIGNMENT (  '', '', ( #286 ) ) ;
#249 =( LENGTH_UNIT ( ) NAMED_UNIT ( * ) SI_UNIT ( $, .METRE. ) );
#250 = ORIENTED_EDGE ( 'NONE', *, *, #272, .F. ) ;
#251 = VECTOR ( 'NONE', #50, 39.37007874015748143 ) ;
#252 = LINE ( 'NONE', #215, #218 ) ;
#253 = DIRECTION ( 'NONE',  ( -1.224646799147353207E-16, -0.0000000000000000000, -1.000000000000000000 ) ) ;
#254 = DIRECTION ( 'NONE',  ( 1.224646799147353207E-16, 0.0000000000000000000, 1.000000000000000000 ) ) ;
#255 = DIRECTION ( 'NONE',  ( 1.000000000000000000, 0.0000000000000000000, 0.0000000000000000000 ) ) ;
#256 = PRESENTATION_STYLE_ASSIGNMENT (( #279 ) ) ;
#257 = EDGE_CURVE ( 'NONE', #274, #182, #145, .T. ) ;
#258 = CARTESIAN_POINT ( 'NONE',  ( 0.0000000000000000000, 0.0000000000000000000, 0.0000000000000000000 ) ) ;
#259 = CYLINDRICAL_SURFACE ( 'NONE', #193, 0.09375000000000001388 ) ;
#260 = CARTESIAN_POINT ( 'NONE',  ( 0.09375000000000001388, 1.148106374200643863E-17, 1.984999999999999654 ) ) ;
#261 = CIRCLE ( 'NONE', #80, 0.07874999999999980627 ) ;
#262 = CIRCLE ( 'NONE', #208, 0.09375000000000001388 ) ;
#263 = CARTESIAN_POINT ( 'NONE',  ( 0.07022970000000007540, 0.0000000000000000000, 0.5000000000000000000 ) ) ;
#264 = UNCERTAINTY_MEASURE_WITH_UNIT (LENGTH_MEASURE( 1.000000000000000082E-05 ), #40, 'distance_accuracy_value', 'NONE');
#265 = CARTESIAN_POINT ( 'NONE',  ( 7.756793420066120836E-17, 0.0000000000000000000, 0.6333902497819535737 ) ) ;
#266 = CARTESIAN_POINT ( 'NONE',  ( 1.053276796084074714E-33, 0.0000000000000000000, 8.600657731007888113E-18 ) ) ;
#267 = EDGE_CURVE ( 'NONE', #104, #106, #175, .T. ) ;
#268 = ORIENTED_EDGE ( 'NONE', *, *, #57, .F. ) ;
#269 = ORIENTED_EDGE ( 'NONE', *, *, #217, .T. ) ;
#270 = ORIENTED_EDGE ( 'NONE', *, *, #272, .T. ) ;
#271 = ORIENTED_EDGE ( 'NONE', *, *, #199, .F. ) ;
#272 = EDGE_CURVE ( 'NONE', #182, #106, #26, .T. ) ;
#273 = SHAPE_DEFINITION_REPRESENTATION ( #17, #154 ) ;
#274 = VERTEX_POINT ( 'NONE', #263 ) ;
#275 = CARTESIAN_POINT ( 'NONE',  ( -0.07022970000000000601, 0.0000000000000000000, 1.720131546201577623E-17 ) ) ;
#276 = CLOSED_SHELL ( 'NONE', ( #32, #110, #24, #133, #207, #169, #97, #230, #27, #48 ) ) ;
#277 = DIRECTION ( 'NONE',  ( -1.224646799147353207E-16, -0.0000000000000000000, -1.000000000000000000 ) ) ;
#278 = CARTESIAN_POINT ( 'NONE',  ( 0.0000000000000000000, 0.0000000000000000000, 0.0000000000000000000 ) ) ;
#279 = SURFACE_STYLE_USAGE ( .BOTH. , #191 ) ;
#280 = CIRCLE ( 'NONE', #54, 0.09375000000000001388 ) ;
#281 = DIRECTION ( 'NONE',  ( 0.0000000000000000000, 0.0000000000000000000, 1.000000000000000000 ) ) ;
#282 = EDGE_CURVE ( 'NONE', #274, #104, #152, .T. ) ;
#283 = COLOUR_RGB ( '',0.7921568627450980005, 0.8196078431372548767, 0.9333333333333333481 ) ;
#284 = DIRECTION ( 'NONE',  ( -1.224646799147353207E-16, -0.0000000000000000000, -1.000000000000000000 ) ) ;
#285 = LINE ( 'NONE', #53, #143 ) ;
#286 = STYLED_ITEM ( 'NONE', ( #256 ), #119 ) ;
#287 = FACE_OUTER_BOUND ( 'NONE', #204, .T. ) ;
#288 = DIRECTION ( 'NONE',  ( 1.000000000000000000, 0.0000000000000000000, 0.0000000000000000000 ) ) ;
#289 = VERTEX_POINT ( 'NONE', #201 ) ;
#290 = EDGE_LOOP ( 'NONE', ( #247, #39, #270, #159 ) ) ;
#291 = ORIENTED_EDGE ( 'NONE', *, *, #147, .T. ) ;
#292 = CIRCLE ( 'NONE', #128, 0.07874999999999980627 ) ;
#293 = CARTESIAN_POINT ( 'NONE',  ( 0.0000000000000000000, 0.0000000000000000000, 0.0000000000000000000 ) ) ;
#294 = ORIENTED_EDGE ( 'NONE', *, *, #282, .T. ) ;
#295 = CARTESIAN_POINT ( 'NONE',  ( 6.123233995736766036E-17, 0.0000000000000000000, 0.5000000000000000000 ) ) ;
#296 = DIRECTION ( 'NONE',  ( 0.7071067811865463515, 8.659560562354916834E-17, -0.7071067811865486830 ) ) ;
#297 = CONICAL_SURFACE ( 'NONE', #173, 0.07022970000000000601, 0.1745329251994338915 ) ;
#298 = PLANE ( 'NONE',  #124 ) ;
#299 = FILL_AREA_STYLE_COLOUR ( '', #211 ) ;
ENDSEC;
END-ISO-10303-21;
