ISO-10303-21;
HEADER;
FILE_DESCRIPTION (( 'STEP AP214' ),
    '1' );
FILE_NAME ('01660.STEP',
    '2023-06-22T14:42:09',
    ( '' ),
    ( '' ),
    'SwSTEP 2.0',
    'SolidWorks 2023',
    '' );
FILE_SCHEMA (( 'AUTOMOTIVE_DESIGN' ));
ENDSEC;

DATA;
#1 = APPLICATION_CONTEXT ( 'automotive_design' ) ;
#2 = CARTESIAN_POINT ( 'NONE',  ( 4.592425496802575451E-17, 0.000000000000000000, 0.3750000000000000555 ) ) ;
#3 = DIMENSIONAL_EXPONENTS ( 1.000000000000000000, 0.000000000000000000, 0.000000000000000000, 0.000000000000000000, 0.000000000000000000, 0.000000000000000000, 0.000000000000000000 ) ;
#4 = PRODUCT_CONTEXT ( 'NONE', #124, 'mechanical' ) ;
#5 = ORIENTED_EDGE ( 'NONE', *, *, #297, .T. ) ;
#6 =( LENGTH_UNIT ( ) NAMED_UNIT ( * ) SI_UNIT ( $, .METRE. ) );
#7 = SURFACE_STYLE_FILL_AREA ( #181 ) ;
#8 = VERTEX_POINT ( 'NONE', #144 ) ;
#9 = SURFACE_STYLE_USAGE ( .BOTH. , #155 ) ;
#10 = CLOSED_SHELL ( 'NONE', ( #215, #214, #226, #12 ) ) ;
#11 = STYLED_ITEM ( 'NONE', ( #228 ), #237 ) ;
#12 = ADVANCED_FACE ( 'NONE', ( #240 ), #221, .F. ) ;
#13 = ORIENTED_EDGE ( 'NONE', *, *, #277, .T. ) ;
#14 = PRODUCT_DEFINITION ( 'UNKNOWN', '', #285, #286 ) ;
#15 = LINE ( 'NONE', #95, #31 ) ;
#16 = SURFACE_STYLE_FILL_AREA ( #41 ) ;
#17 = FACE_OUTER_BOUND ( 'NONE', #269, .T. ) ;
#18 = LINE ( 'NONE', #283, #154 ) ;
#19 =( LENGTH_UNIT ( ) NAMED_UNIT ( * ) SI_UNIT ( $, .METRE. ) );
#20 = FILL_AREA_STYLE_COLOUR ( '', #141 ) ;
#21 = LENGTH_MEASURE_WITH_UNIT ( LENGTH_MEASURE( 0.02539999999999999897 ), #190 );
#22 = PRODUCT_DEFINITION_SHAPE ( 'NONE', 'NONE',  #14 ) ;
#23 = FILL_AREA_STYLE_COLOUR ( '', #250 ) ;
#24 = AXIS2_PLACEMENT_3D ( 'NONE', #48, #260, #49 ) ;
#25 =( NAMED_UNIT ( * ) SI_UNIT ( $, .STERADIAN. ) SOLID_ANGLE_UNIT ( ) );
#26 = DIRECTION ( 'NONE',  ( 1.031281515071456046E-16, 1.000000000000000000, -0.000000000000000000 ) ) ;
#27 =( NAMED_UNIT ( * ) PLANE_ANGLE_UNIT ( ) SI_UNIT ( $, .RADIAN. ) );
#28 = CARTESIAN_POINT ( 'NONE',  ( 0.000000000000000000, 1.625000000000000000, 0.000000000000000000 ) ) ;
#29 = ORIENTED_EDGE ( 'NONE', *, *, #166, .F. ) ;
#30 = CARTESIAN_POINT ( 'NONE',  ( 4.592425496802575451E-17, 0.000000000000000000, 0.3750000000000000555 ) ) ;
#31 = VECTOR ( 'NONE', #131, 39.37007874015748143 ) ;
#32 = EDGE_LOOP ( 'NONE', ( #153, #34 ) ) ;
#33 = ORIENTED_EDGE ( 'NONE', *, *, #119, .T. ) ;
#34 = ORIENTED_EDGE ( 'NONE', *, *, #297, .F. ) ;
#35 = VERTEX_POINT ( 'NONE', #301 ) ;
#36 = LENGTH_MEASURE_WITH_UNIT ( LENGTH_MEASURE( 0.02539999999999999897 ), #6 );
#37 = CARTESIAN_POINT ( 'NONE',  ( -0.3750000000000000555, 1.625000000000000000, 0.000000000000000000 ) ) ;
#38 = EDGE_CURVE ( 'NONE', #176, #120, #103, .T. ) ;
#39 =( NAMED_UNIT ( * ) PLANE_ANGLE_UNIT ( ) SI_UNIT ( $, .RADIAN. ) );
#40 =( GEOMETRIC_REPRESENTATION_CONTEXT ( 3 ) GLOBAL_UNCERTAINTY_ASSIGNED_CONTEXT ( ( #98 ) ) GLOBAL_UNIT_ASSIGNED_CONTEXT ( ( #249, #90, #25 ) ) REPRESENTATION_CONTEXT ( 'NONE', 'WORKASPACE' ) );
#41 = FILL_AREA_STYLE ('',( #225 ) ) ;
#42 = PRESENTATION_STYLE_ASSIGNMENT (( #251 ) ) ;
#43 = PRESENTATION_STYLE_ASSIGNMENT (( #157 ) ) ;
#44 = CARTESIAN_POINT ( 'NONE',  ( 0.000000000000000000, 0.000000000000000000, -0.3750000000000000555 ) ) ;
#45 = DIRECTION ( 'NONE',  ( 0.000000000000000000, 0.000000000000000000, -1.000000000000000000 ) ) ;
#46 = DIRECTION ( 'NONE',  ( -0.000000000000000000, -1.000000000000000000, -0.000000000000000000 ) ) ;
#47 =( GEOMETRIC_REPRESENTATION_CONTEXT ( 3 ) GLOBAL_UNCERTAINTY_ASSIGNED_CONTEXT ( ( #188 ) ) GLOBAL_UNIT_ASSIGNED_CONTEXT ( ( #60, #126, #204 ) ) REPRESENTATION_CONTEXT ( 'NONE', 'WORKASPACE' ) );
#48 = CARTESIAN_POINT ( 'NONE',  ( 0.000000000000000000, 1.625000000000000000, 0.000000000000000000 ) ) ;
#49 = DIRECTION ( 'NONE',  ( 0.000000000000000000, -0.000000000000000000, 1.000000000000000000 ) ) ;
#50 = AXIS2_PLACEMENT_3D ( 'NONE', #205, #264, #82 ) ;
#51 = CARTESIAN_POINT ( 'NONE',  ( -3.032960542342103792E-32, 1.625000000000000000, 0.000000000000000000 ) ) ;
#52 = ADVANCED_FACE ( 'NONE', ( #133 ), #72, .T. ) ;
#53 = DIRECTION ( 'NONE',  ( 0.000000000000000000, 0.000000000000000000, -1.000000000000000000 ) ) ;
#54 = DIMENSIONAL_EXPONENTS ( 1.000000000000000000, 0.000000000000000000, 0.000000000000000000, 0.000000000000000000, 0.000000000000000000, 0.000000000000000000, 0.000000000000000000 ) ;
#55 = VERTEX_POINT ( 'NONE', #135 ) ;
#56 = PRESENTATION_LAYER_ASSIGNMENT (  '', '', ( #163 ) ) ;
#57 = AXIS2_PLACEMENT_3D ( 'NONE', #99, #194, #171 ) ;
#58 = ORIENTED_EDGE ( 'NONE', *, *, #166, .T. ) ;
#59 = MANIFOLD_SOLID_BREP ( 'Revolve - Cutting Edge', #189 ) ;
#60 =( CONVERSION_BASED_UNIT ( 'INCH', #143 ) LENGTH_UNIT ( ) NAMED_UNIT ( #245 ) );
#61 = ORIENTED_EDGE ( 'NONE', *, *, #164, .F. ) ;
#62 = CARTESIAN_POINT ( 'NONE',  ( 0.000000000000000000, 0.000000000000000000, 0.000000000000000000 ) ) ;
#63 = ORIENTED_EDGE ( 'NONE', *, *, #164, .T. ) ;
#64 = DIRECTION ( 'NONE',  ( 1.031281515071456169E-16, 1.000000000000000000, -0.000000000000000000 ) ) ;
#65 = FACE_OUTER_BOUND ( 'NONE', #182, .T. ) ;
#66 = EDGE_LOOP ( 'NONE', ( #86, #13, #151, #203 ) ) ;
#67 = SURFACE_SIDE_STYLE ('',( #305 ) ) ;
#68 = DIRECTION ( 'NONE',  ( 1.000000000000000000, -1.031281515071456169E-16, 0.000000000000000000 ) ) ;
#69 = DIRECTION ( 'NONE',  ( -1.000000000000000000, 0.000000000000000000, 0.000000000000000000 ) ) ;
#70 = PRESENTATION_STYLE_ASSIGNMENT (( #192 ) ) ;
#71 = SURFACE_STYLE_FILL_AREA ( #276 ) ;
#72 = CYLINDRICAL_SURFACE ( 'NONE', #234, 0.3750000000000000555 ) ;
#73 =( LENGTH_UNIT ( ) NAMED_UNIT ( * ) SI_UNIT ( $, .METRE. ) );
#74 = PLANE ( 'NONE',  #85 ) ;
#75 = PRODUCT_RELATED_PRODUCT_CATEGORY ( 'part', '', ( #252 ) ) ;
#76 = DIRECTION ( 'NONE',  ( 1.031281515071456046E-16, 1.000000000000000000, -0.000000000000000000 ) ) ;
#77 = MECHANICAL_DESIGN_GEOMETRIC_PRESENTATION_REPRESENTATION (  '', ( #229 ), #175 ) ;
#78 = DIRECTION ( 'NONE',  ( -1.000000000000000000, 0.000000000000000000, 0.000000000000000000 ) ) ;
#79 =( NAMED_UNIT ( * ) PLANE_ANGLE_UNIT ( ) SI_UNIT ( $, .RADIAN. ) );
#80 = PRESENTATION_LAYER_ASSIGNMENT (  '', '', ( #229 ) ) ;
#81 = LENGTH_MEASURE_WITH_UNIT ( LENGTH_MEASURE( 0.02539999999999999897 ), #97 );
#82 = DIRECTION ( 'NONE',  ( -1.000000000000000000, 0.000000000000000000, 0.000000000000000000 ) ) ;
#83 = UNCERTAINTY_MEASURE_WITH_UNIT (LENGTH_MEASURE( 1.000000000000000082E-05 ), #121, 'distance_accuracy_value', 'NONE');
#84 = FILL_AREA_STYLE_COLOUR ( '', #145 ) ;
#85 = AXIS2_PLACEMENT_3D ( 'NONE', #107, #136, #127 ) ;
#86 = ORIENTED_EDGE ( 'NONE', *, *, #265, .F. ) ;
#87 =( NAMED_UNIT ( * ) PLANE_ANGLE_UNIT ( ) SI_UNIT ( $, .RADIAN. ) );
#88 = ORIENTED_EDGE ( 'NONE', *, *, #289, .T. ) ;
#89 = DIRECTION ( 'NONE',  ( -0.000000000000000000, -1.000000000000000000, -0.000000000000000000 ) ) ;
#90 =( NAMED_UNIT ( * ) PLANE_ANGLE_UNIT ( ) SI_UNIT ( $, .RADIAN. ) );
#91 =( CONVERSION_BASED_UNIT ( 'INCH', #210 ) LENGTH_UNIT ( ) NAMED_UNIT ( #54 ) );
#92 = DIRECTION ( 'NONE',  ( 1.031281515071456046E-16, 1.000000000000000000, -0.000000000000000000 ) ) ;
#93 = AXIS2_PLACEMENT_3D ( 'NONE', #112, #89, #302 ) ;
#94 = PRESENTATION_LAYER_ASSIGNMENT (  '', '', ( #216 ) ) ;
#95 = CARTESIAN_POINT ( 'NONE',  ( -0.3749999999999996114, 4.000000000000000000, 0.000000000000000000 ) ) ;
#96 = FILL_AREA_STYLE ('',( #23 ) ) ;
#97 =( LENGTH_UNIT ( ) NAMED_UNIT ( * ) SI_UNIT ( $, .METRE. ) );
#98 = UNCERTAINTY_MEASURE_WITH_UNIT (LENGTH_MEASURE( 1.000000000000000082E-05 ), #249, 'distance_accuracy_value', 'NONE');
#99 = CARTESIAN_POINT ( 'NONE',  ( 0.000000000000000000, 0.000000000000000000, 0.000000000000000000 ) ) ;
#100 = CARTESIAN_POINT ( 'NONE',  ( -3.032960542342103792E-32, 1.625000000000000000, 0.000000000000000000 ) ) ;
#101 = CIRCLE ( 'NONE', #115, 0.3749999999999997780 ) ;
#102 = AXIS2_PLACEMENT_3D ( 'NONE', #162, #167, #69 ) ;
#103 = CIRCLE ( 'NONE', #93, 0.3750000000000000555 ) ;
#104 = COLOUR_RGB ( '',1.000000000000000000, 0.000000000000000000, 0.000000000000000000 ) ;
#105 =( GEOMETRIC_REPRESENTATION_CONTEXT ( 3 ) GLOBAL_UNCERTAINTY_ASSIGNED_CONTEXT ( ( #220 ) ) GLOBAL_UNIT_ASSIGNED_CONTEXT ( ( #168, #79, #140 ) ) REPRESENTATION_CONTEXT ( 'NONE', 'WORKASPACE' ) );
#106 = CARTESIAN_POINT ( 'NONE',  ( 2.449293598294707400E-16, 4.000000000000000000, 0.000000000000000000 ) ) ;
#107 = CARTESIAN_POINT ( 'NONE',  ( 0.000000000000000000, 0.000000000000000000, 0.000000000000000000 ) ) ;
#108 =( NAMED_UNIT ( * ) SI_UNIT ( $, .STERADIAN. ) SOLID_ANGLE_UNIT ( ) );
#109 =( CONVERSION_BASED_UNIT ( 'INCH', #21 ) LENGTH_UNIT ( ) NAMED_UNIT ( #149 ) );
#110 = AXIS2_PLACEMENT_3D ( 'NONE', #150, #173, #243 ) ;
#111 = VECTOR ( 'NONE', #233, 39.37007874015748143 ) ;
#112 = CARTESIAN_POINT ( 'NONE',  ( 0.000000000000000000, 0.000000000000000000, 0.000000000000000000 ) ) ;
#113 = CARTESIAN_POINT ( 'NONE',  ( 1.994140431240145858E-33, 1.625000000000000000, 0.000000000000000000 ) ) ;
#114 = EDGE_CURVE ( 'NONE', #8, #174, #101, .T. ) ;
#115 = AXIS2_PLACEMENT_3D ( 'NONE', #227, #26, #132 ) ;
#116 = UNCERTAINTY_MEASURE_WITH_UNIT (LENGTH_MEASURE( 1.000000000000000082E-05 ), #109, 'distance_accuracy_value', 'NONE');
#117 = VECTOR ( 'NONE', #46, 39.37007874015748143 ) ;
#118 = FACE_OUTER_BOUND ( 'NONE', #32, .T. ) ;
#119 = EDGE_CURVE ( 'NONE', #55, #8, #18, .T. ) ;
#120 = VERTEX_POINT ( 'NONE', #198 ) ;
#121 =( CONVERSION_BASED_UNIT ( 'INCH', #36 ) LENGTH_UNIT ( ) NAMED_UNIT ( #197 ) );
#122 = EDGE_LOOP ( 'NONE', ( #58, #180 ) ) ;
#123 = SURFACE_STYLE_FILL_AREA ( #222 ) ;
#124 = APPLICATION_CONTEXT ( 'automotive_design' ) ;
#125 = MECHANICAL_DESIGN_GEOMETRIC_PRESENTATION_REPRESENTATION (  '', ( #284 ), #183 ) ;
#126 =( NAMED_UNIT ( * ) PLANE_ANGLE_UNIT ( ) SI_UNIT ( $, .RADIAN. ) );
#127 = DIRECTION ( 'NONE',  ( 0.000000000000000000, 0.000000000000000000, -1.000000000000000000 ) ) ;
#128 =( GEOMETRIC_REPRESENTATION_CONTEXT ( 3 ) GLOBAL_UNCERTAINTY_ASSIGNED_CONTEXT ( ( #307 ) ) GLOBAL_UNIT_ASSIGNED_CONTEXT ( ( #91, #161, #108 ) ) REPRESENTATION_CONTEXT ( 'NONE', 'WORKASPACE' ) );
#129 =( GEOMETRIC_REPRESENTATION_CONTEXT ( 3 ) GLOBAL_UNCERTAINTY_ASSIGNED_CONTEXT ( ( #259 ) ) GLOBAL_UNIT_ASSIGNED_CONTEXT ( ( #280, #27, #138 ) ) REPRESENTATION_CONTEXT ( 'NONE', 'WORKASPACE' ) );
#130 = EDGE_CURVE ( 'NONE', #35, #290, #292, .T. ) ;
#131 = DIRECTION ( 'NONE',  ( 1.031281515071456169E-16, 1.000000000000000000, -0.000000000000000000 ) ) ;
#132 = DIRECTION ( 'NONE',  ( -1.000000000000000000, 0.000000000000000000, 0.000000000000000000 ) ) ;
#133 = FACE_OUTER_BOUND ( 'NONE', #66, .T. ) ;
#134 = CYLINDRICAL_SURFACE ( 'NONE', #300, 0.3749999999999998890 ) ;
#135 = CARTESIAN_POINT ( 'NONE',  ( 0.3750000000000000555, 1.625000000000000000, 4.592425496802573602E-17 ) ) ;
#136 = DIRECTION ( 'NONE',  ( 0.000000000000000000, -1.000000000000000000, -0.000000000000000000 ) ) ;
#137 = PRESENTATION_LAYER_ASSIGNMENT (  '', '', ( #284 ) ) ;
#138 =( NAMED_UNIT ( * ) SI_UNIT ( $, .STERADIAN. ) SOLID_ANGLE_UNIT ( ) );
#139 = APPLICATION_PROTOCOL_DEFINITION ( 'draft international standard', 'automotive_design', 1998, #1 ) ;
#140 =( NAMED_UNIT ( * ) SI_UNIT ( $, .STERADIAN. ) SOLID_ANGLE_UNIT ( ) );
#141 = COLOUR_RGB ( '',1.000000000000000000, 0.000000000000000000, 0.000000000000000000 ) ;
#142 = DIRECTION ( 'NONE',  ( -1.000000000000000000, 0.000000000000000000, 0.000000000000000000 ) ) ;
#143 = LENGTH_MEASURE_WITH_UNIT ( LENGTH_MEASURE( 0.02539999999999999897 ), #272 );
#144 = CARTESIAN_POINT ( 'NONE',  ( 0.3750000000000000555, 4.000000000000000000, 4.592425496802573602E-17 ) ) ;
#145 = COLOUR_RGB ( '',1.000000000000000000, 0.000000000000000000, 0.000000000000000000 ) ;
#146 = AXIS2_PLACEMENT_3D ( 'NONE', #100, #230, #142 ) ;
#147 = SURFACE_STYLE_USAGE ( .BOTH. , #199 ) ;
#148 = ORIENTED_EDGE ( 'NONE', *, *, #231, .T. ) ;
#149 = DIMENSIONAL_EXPONENTS ( 1.000000000000000000, 0.000000000000000000, 0.000000000000000000, 0.000000000000000000, 0.000000000000000000, 0.000000000000000000, 0.000000000000000000 ) ;
#150 = CARTESIAN_POINT ( 'NONE',  ( 0.000000000000000000, 0.000000000000000000, 0.000000000000000000 ) ) ;
#151 = ORIENTED_EDGE ( 'NONE', *, *, #217, .T. ) ;
#152 = DIRECTION ( 'NONE',  ( -0.000000000000000000, -1.000000000000000000, -0.000000000000000000 ) ) ;
#153 = ORIENTED_EDGE ( 'NONE', *, *, #289, .F. ) ;
#154 = VECTOR ( 'NONE', #64, 39.37007874015748143 ) ;
#155 = SURFACE_SIDE_STYLE ('',( #7 ) ) ;
#156 = MANIFOLD_SOLID_BREP ( 'Revolve - Tool Body (Straight Shanked)', #10 ) ;
#157 = SURFACE_STYLE_USAGE ( .BOTH. , #279 ) ;
#158 = CARTESIAN_POINT ( 'NONE',  ( 0.3750000000000000555, 4.000000000000000000, 0.000000000000000000 ) ) ;
#159 = SURFACE_STYLE_USAGE ( .BOTH. , #67 ) ;
#160 = ADVANCED_FACE ( 'NONE', ( #65 ), #179, .T. ) ;
#161 =( NAMED_UNIT ( * ) PLANE_ANGLE_UNIT ( ) SI_UNIT ( $, .RADIAN. ) );
#162 = CARTESIAN_POINT ( 'NONE',  ( 2.449293598294707400E-16, 4.000000000000000000, 0.000000000000000000 ) ) ;
#163 = STYLED_ITEM ( 'NONE', ( #267 ), #156 ) ;
#164 = EDGE_CURVE ( 'NONE', #174, #8, #246, .T. ) ;
#165 = DIRECTION ( 'NONE',  ( -0.000000000000000000, -1.000000000000000000, -0.000000000000000000 ) ) ;
#166 = EDGE_CURVE ( 'NONE', #120, #176, #257, .T. ) ;
#167 = DIRECTION ( 'NONE',  ( 1.031281515071456046E-16, 1.000000000000000000, -0.000000000000000000 ) ) ;
#168 =( CONVERSION_BASED_UNIT ( 'INCH', #81 ) LENGTH_UNIT ( ) NAMED_UNIT ( #218 ) );
#169 = AXIS2_PLACEMENT_3D ( 'NONE', #158, #224, #68 ) ;
#170 = AXIS2_PLACEMENT_3D ( 'NONE', #62, #152, #296 ) ;
#171 = DIRECTION ( 'NONE',  ( 1.000000000000000000, 0.000000000000000000, 0.000000000000000000 ) ) ;
#172 = LINE ( 'NONE', #2, #111 ) ;
#173 = DIRECTION ( 'NONE',  ( -0.000000000000000000, -1.000000000000000000, -0.000000000000000000 ) ) ;
#174 = VERTEX_POINT ( 'NONE', #239 ) ;
#175 =( GEOMETRIC_REPRESENTATION_CONTEXT ( 3 ) GLOBAL_UNCERTAINTY_ASSIGNED_CONTEXT ( ( #83 ) ) GLOBAL_UNIT_ASSIGNED_CONTEXT ( ( #121, #87, #270 ) ) REPRESENTATION_CONTEXT ( 'NONE', 'WORKASPACE' ) );
#176 = VERTEX_POINT ( 'NONE', #30 ) ;
#177 = FILL_AREA_STYLE_COLOUR ( '', #196 ) ;
#178 = ORIENTED_EDGE ( 'NONE', *, *, #265, .T. ) ;
#179 = CYLINDRICAL_SURFACE ( 'NONE', #170, 0.3750000000000000555 ) ;
#180 = ORIENTED_EDGE ( 'NONE', *, *, #38, .T. ) ;
#181 = FILL_AREA_STYLE ('',( #84 ) ) ;
#182 = EDGE_LOOP ( 'NONE', ( #201, #178, #29, #242 ) ) ;
#183 =( GEOMETRIC_REPRESENTATION_CONTEXT ( 3 ) GLOBAL_UNCERTAINTY_ASSIGNED_CONTEXT ( ( #116 ) ) GLOBAL_UNIT_ASSIGNED_CONTEXT ( ( #109, #39, #308 ) ) REPRESENTATION_CONTEXT ( 'NONE', 'WORKASPACE' ) );
#184 = FACE_OUTER_BOUND ( 'NONE', #298, .T. ) ;
#185 = CIRCLE ( 'NONE', #209, 0.3750000000000000555 ) ;
#186 = FACE_OUTER_BOUND ( 'NONE', #122, .T. ) ;
#187 = FILL_AREA_STYLE_COLOUR ( '', #104 ) ;
#188 = UNCERTAINTY_MEASURE_WITH_UNIT (LENGTH_MEASURE( 1.000000000000000082E-05 ), #60, 'distance_accuracy_value', 'NONE');
#189 = CLOSED_SHELL ( 'NONE', ( #160, #256, #52, #237 ) ) ;
#190 =( LENGTH_UNIT ( ) NAMED_UNIT ( * ) SI_UNIT ( $, .METRE. ) );
#191 = MECHANICAL_DESIGN_GEOMETRIC_PRESENTATION_REPRESENTATION (  '', ( #11 ), #40 ) ;
#192 = SURFACE_STYLE_USAGE ( .BOTH. , #254 ) ;
#193 = SURFACE_STYLE_FILL_AREA ( #96 ) ;
#194 = DIRECTION ( 'NONE',  ( 0.000000000000000000, 0.000000000000000000, 1.000000000000000000 ) ) ;
#195 = MECHANICAL_DESIGN_GEOMETRIC_PRESENTATION_REPRESENTATION (  '', ( #262 ), #128 ) ;
#196 = COLOUR_RGB ( '',0.7921568627450980005, 0.8196078431372548767, 0.9333333333333333481 ) ;
#197 = DIMENSIONAL_EXPONENTS ( 1.000000000000000000, 0.000000000000000000, 0.000000000000000000, 0.000000000000000000, 0.000000000000000000, 0.000000000000000000, 0.000000000000000000 ) ;
#198 = CARTESIAN_POINT ( 'NONE',  ( 0.000000000000000000, 0.000000000000000000, -0.3750000000000000555 ) ) ;
#199 = SURFACE_SIDE_STYLE ('',( #123 ) ) ;
#200 = AXIS2_PLACEMENT_3D ( 'NONE', #113, #253, #255 ) ;
#201 = ORIENTED_EDGE ( 'NONE', *, *, #130, .T. ) ;
#202 = DIRECTION ( 'NONE',  ( -0.000000000000000000, -1.000000000000000000, -0.000000000000000000 ) ) ;
#203 = ORIENTED_EDGE ( 'NONE', *, *, #38, .F. ) ;
#204 =( NAMED_UNIT ( * ) SI_UNIT ( $, .STERADIAN. ) SOLID_ANGLE_UNIT ( ) );
#205 = CARTESIAN_POINT ( 'NONE',  ( 2.449293598294707400E-16, 4.000000000000000000, 0.000000000000000000 ) ) ;
#206 = PRESENTATION_LAYER_ASSIGNMENT (  '', '', ( #11 ) ) ;
#207 = ADVANCED_BREP_SHAPE_REPRESENTATION ( '01660', ( #59, #156, #57 ), #105 ) ;
#208 = PLANE ( 'NONE',  #200 ) ;
#209 = AXIS2_PLACEMENT_3D ( 'NONE', #51, #76, #78 ) ;
#210 = LENGTH_MEASURE_WITH_UNIT ( LENGTH_MEASURE( 0.02539999999999999897 ), #19 );
#211 = PLANE ( 'NONE',  #24 ) ;
#212 = SURFACE_SIDE_STYLE ('',( #71 ) ) ;
#213 = FILL_AREA_STYLE ('',( #20 ) ) ;
#214 = ADVANCED_FACE ( 'NONE', ( #118 ), #208, .F. ) ;
#215 = ADVANCED_FACE ( 'NONE', ( #275 ), #303, .T. ) ;
#216 = STYLED_ITEM ( 'NONE', ( #42 ), #256 ) ;
#217 = EDGE_CURVE ( 'NONE', #35, #120, #299, .T. ) ;
#218 = DIMENSIONAL_EXPONENTS ( 1.000000000000000000, 0.000000000000000000, 0.000000000000000000, 0.000000000000000000, 0.000000000000000000, 0.000000000000000000, 0.000000000000000000 ) ;
#219 = VERTEX_POINT ( 'NONE', #37 ) ;
#220 = UNCERTAINTY_MEASURE_WITH_UNIT (LENGTH_MEASURE( 1.000000000000000082E-05 ), #168, 'distance_accuracy_value', 'NONE');
#221 = PLANE ( 'NONE',  #169 ) ;
#222 = FILL_AREA_STYLE ('',( #177 ) ) ;
#223 = MECHANICAL_DESIGN_GEOMETRIC_PRESENTATION_REPRESENTATION (  '', ( #163 ), #47 ) ;
#224 = DIRECTION ( 'NONE',  ( -1.031281515071456169E-16, -1.000000000000000000, 0.000000000000000000 ) ) ;
#225 = FILL_AREA_STYLE_COLOUR ( '', #282 ) ;
#226 = ADVANCED_FACE ( 'NONE', ( #184 ), #134, .T. ) ;
#227 = CARTESIAN_POINT ( 'NONE',  ( 2.449293598294707400E-16, 4.000000000000000000, 0.000000000000000000 ) ) ;
#228 = PRESENTATION_STYLE_ASSIGNMENT (( #159 ) ) ;
#229 = STYLED_ITEM ( 'NONE', ( #291 ), #160 ) ;
#230 = DIRECTION ( 'NONE',  ( 1.031281515071456046E-16, 1.000000000000000000, -0.000000000000000000 ) ) ;
#231 = EDGE_CURVE ( 'NONE', #219, #174, #15, .T. ) ;
#232 = SHAPE_DEFINITION_REPRESENTATION ( #22, #207 ) ;
#233 = DIRECTION ( 'NONE',  ( -0.000000000000000000, -1.000000000000000000, -0.000000000000000000 ) ) ;
#234 = AXIS2_PLACEMENT_3D ( 'NONE', #306, #165, #45 ) ;
#235 = AXIS2_PLACEMENT_3D ( 'NONE', #28, #261, #53 ) ;
#236 =( LENGTH_UNIT ( ) NAMED_UNIT ( * ) SI_UNIT ( $, .METRE. ) );
#237 = ADVANCED_FACE ( 'NONE', ( #186 ), #74, .T. ) ;
#238 = EDGE_LOOP ( 'NONE', ( #63, #266 ) ) ;
#239 = CARTESIAN_POINT ( 'NONE',  ( -0.3749999999999995004, 4.000000000000000000, 0.000000000000000000 ) ) ;
#240 = FACE_OUTER_BOUND ( 'NONE', #238, .T. ) ;
#241 = DIRECTION ( 'NONE',  ( 0.000000000000000000, 0.000000000000000000, -1.000000000000000000 ) ) ;
#242 = ORIENTED_EDGE ( 'NONE', *, *, #217, .F. ) ;
#243 = DIRECTION ( 'NONE',  ( 0.000000000000000000, 0.000000000000000000, -1.000000000000000000 ) ) ;
#244 = CARTESIAN_POINT ( 'NONE',  ( 0.000000000000000000, 1.625000000000000000, 0.000000000000000000 ) ) ;
#245 = DIMENSIONAL_EXPONENTS ( 1.000000000000000000, 0.000000000000000000, 0.000000000000000000, 0.000000000000000000, 0.000000000000000000, 0.000000000000000000, 0.000000000000000000 ) ;
#246 = CIRCLE ( 'NONE', #50, 0.3749999999999997780 ) ;
#247 = ORIENTED_EDGE ( 'NONE', *, *, #119, .F. ) ;
#248 = LENGTH_MEASURE_WITH_UNIT ( LENGTH_MEASURE( 0.02539999999999999897 ), #73 );
#249 =( CONVERSION_BASED_UNIT ( 'INCH', #248 ) LENGTH_UNIT ( ) NAMED_UNIT ( #268 ) );
#250 = COLOUR_RGB ( '',0.7921568627450980005, 0.8196078431372548767, 0.9333333333333333481 ) ;
#251 = SURFACE_STYLE_USAGE ( .BOTH. , #212 ) ;
#252 = PRODUCT ( '01660', '01660', '', ( #4 ) ) ;
#253 = DIRECTION ( 'NONE',  ( 1.031281515071456169E-16, 1.000000000000000000, -0.000000000000000000 ) ) ;
#254 = SURFACE_SIDE_STYLE ('',( #16 ) ) ;
#255 = DIRECTION ( 'NONE',  ( -1.000000000000000000, 1.031281515071456169E-16, 0.000000000000000000 ) ) ;
#256 = ADVANCED_FACE ( 'NONE', ( #17 ), #211, .T. ) ;
#257 = CIRCLE ( 'NONE', #110, 0.3750000000000000555 ) ;
#258 = APPLICATION_PROTOCOL_DEFINITION ( 'draft international standard', 'automotive_design', 1998, #124 ) ;
#259 = UNCERTAINTY_MEASURE_WITH_UNIT (LENGTH_MEASURE( 1.000000000000000082E-05 ), #280, 'distance_accuracy_value', 'NONE');
#260 = DIRECTION ( 'NONE',  ( 0.000000000000000000, 1.000000000000000000, 0.000000000000000000 ) ) ;
#261 = DIRECTION ( 'NONE',  ( -0.000000000000000000, -1.000000000000000000, -0.000000000000000000 ) ) ;
#262 = STYLED_ITEM ( 'NONE', ( #70 ), #52 ) ;
#263 = LENGTH_MEASURE_WITH_UNIT ( LENGTH_MEASURE( 0.02539999999999999897 ), #236 );
#264 = DIRECTION ( 'NONE',  ( 1.031281515071456046E-16, 1.000000000000000000, -0.000000000000000000 ) ) ;
#265 = EDGE_CURVE ( 'NONE', #290, #176, #172, .T. ) ;
#266 = ORIENTED_EDGE ( 'NONE', *, *, #114, .T. ) ;
#267 = PRESENTATION_STYLE_ASSIGNMENT (( #147 ) ) ;
#268 = DIMENSIONAL_EXPONENTS ( 1.000000000000000000, 0.000000000000000000, 0.000000000000000000, 0.000000000000000000, 0.000000000000000000, 0.000000000000000000, 0.000000000000000000 ) ;
#269 = EDGE_LOOP ( 'NONE', ( #294, #295 ) ) ;
#270 =( NAMED_UNIT ( * ) SI_UNIT ( $, .STERADIAN. ) SOLID_ANGLE_UNIT ( ) );
#271 = ORIENTED_EDGE ( 'NONE', *, *, #231, .F. ) ;
#272 =( LENGTH_UNIT ( ) NAMED_UNIT ( * ) SI_UNIT ( $, .METRE. ) );
#273 = ORIENTED_EDGE ( 'NONE', *, *, #114, .F. ) ;
#274 = DIRECTION ( 'NONE',  ( -1.000000000000000000, 0.000000000000000000, 0.000000000000000000 ) ) ;
#275 = FACE_OUTER_BOUND ( 'NONE', #288, .T. ) ;
#276 = FILL_AREA_STYLE ('',( #187 ) ) ;
#277 = EDGE_CURVE ( 'NONE', #290, #35, #293, .T. ) ;
#278 = CIRCLE ( 'NONE', #146, 0.3750000000000000555 ) ;
#279 = SURFACE_SIDE_STYLE ('',( #193 ) ) ;
#280 =( CONVERSION_BASED_UNIT ( 'INCH', #263 ) LENGTH_UNIT ( ) NAMED_UNIT ( #3 ) );
#281 = PRESENTATION_LAYER_ASSIGNMENT (  '', '', ( #262 ) ) ;
#282 = COLOUR_RGB ( '',1.000000000000000000, 0.000000000000000000, 0.000000000000000000 ) ;
#283 = CARTESIAN_POINT ( 'NONE',  ( 0.3750000000000001665, 4.000000000000000000, 4.592425496802572986E-17 ) ) ;
#284 = STYLED_ITEM ( 'NONE', ( #43 ), #59 ) ;
#285 = PRODUCT_DEFINITION_FORMATION_WITH_SPECIFIED_SOURCE ( 'ANY', '', #252, .NOT_KNOWN. ) ;
#286 = PRODUCT_DEFINITION_CONTEXT ( 'detailed design', #1, 'design' ) ;
#287 = CARTESIAN_POINT ( 'NONE',  ( 4.592425496802575451E-17, 1.625000000000000000, 0.3750000000000000555 ) ) ;
#288 = EDGE_LOOP ( 'NONE', ( #88, #33, #61, #271 ) ) ;
#289 = EDGE_CURVE ( 'NONE', #219, #55, #278, .T. ) ;
#290 = VERTEX_POINT ( 'NONE', #287 ) ;
#291 = PRESENTATION_STYLE_ASSIGNMENT (( #9 ) ) ;
#292 = CIRCLE ( 'NONE', #309, 0.3750000000000000555 ) ;
#293 = CIRCLE ( 'NONE', #235, 0.3750000000000000555 ) ;
#294 = ORIENTED_EDGE ( 'NONE', *, *, #130, .F. ) ;
#295 = ORIENTED_EDGE ( 'NONE', *, *, #277, .F. ) ;
#296 = DIRECTION ( 'NONE',  ( 0.000000000000000000, 0.000000000000000000, -1.000000000000000000 ) ) ;
#297 = EDGE_CURVE ( 'NONE', #55, #219, #185, .T. ) ;
#298 = EDGE_LOOP ( 'NONE', ( #247, #5, #148, #273 ) ) ;
#299 = LINE ( 'NONE', #44, #117 ) ;
#300 = AXIS2_PLACEMENT_3D ( 'NONE', #106, #92, #274 ) ;
#301 = CARTESIAN_POINT ( 'NONE',  ( 0.000000000000000000, 1.625000000000000000, -0.3750000000000000555 ) ) ;
#302 = DIRECTION ( 'NONE',  ( 0.000000000000000000, 0.000000000000000000, -1.000000000000000000 ) ) ;
#303 = CYLINDRICAL_SURFACE ( 'NONE', #102, 0.3749999999999998890 ) ;
#304 = MECHANICAL_DESIGN_GEOMETRIC_PRESENTATION_REPRESENTATION (  '', ( #216 ), #129 ) ;
#305 = SURFACE_STYLE_FILL_AREA ( #213 ) ;
#306 = CARTESIAN_POINT ( 'NONE',  ( 0.000000000000000000, 0.000000000000000000, 0.000000000000000000 ) ) ;
#307 = UNCERTAINTY_MEASURE_WITH_UNIT (LENGTH_MEASURE( 1.000000000000000082E-05 ), #91, 'distance_accuracy_value', 'NONE');
#308 =( NAMED_UNIT ( * ) SI_UNIT ( $, .STERADIAN. ) SOLID_ANGLE_UNIT ( ) );
#309 = AXIS2_PLACEMENT_3D ( 'NONE', #244, #202, #241 ) ;
ENDSEC;
END-ISO-10303-21;
