ISO-10303-21;
HEADER;
FILE_DESCRIPTION (( 'STEP AP214' ),
    '1' );
FILE_NAME ('82268.STEP',
    '2023-06-23T04:57:42',
    ( '' ),
    ( '' ),
    'SwSTEP 2.0',
    'SolidWorks 2023',
    '' );
FILE_SCHEMA (( 'AUTOMOTIVE_DESIGN' ));
ENDSEC;

DATA;
#1 = DIRECTION ( 'NONE',  ( 0.000000000000000000, -1.000000000000000000, -0.000000000000000000 ) ) ;
#2 =( GEOMETRIC_REPRESENTATION_CONTEXT ( 3 ) GLOBAL_UNCERTAINTY_ASSIGNED_CONTEXT ( ( #107 ) ) GLOBAL_UNIT_ASSIGNED_CONTEXT ( ( #79, #72, #267 ) ) REPRESENTATION_CONTEXT ( 'NONE', 'WORKASPACE' ) );
#3 = VERTEX_POINT ( 'NONE', #281 ) ;
#4 = CARTESIAN_POINT ( 'NONE',  ( 0.000000000000000000, 1.000000000000000000, 0.000000000000000000 ) ) ;
#5 = DIRECTION ( 'NONE',  ( 0.000000000000000000, 0.000000000000000000, -1.000000000000000000 ) ) ;
#6 = AXIS2_PLACEMENT_3D ( 'NONE', #68, #65, #187 ) ;
#7 = EDGE_CURVE ( 'NONE', #258, #3, #293, .T. ) ;
#8 = CIRCLE ( 'NONE', #63, 0.1875000000000001388 ) ;
#9 = CARTESIAN_POINT ( 'NONE',  ( 3.032960542342103792E-32, 1.000000000000000000, 0.000000000000000000 ) ) ;
#10 = CARTESIAN_POINT ( 'NONE',  ( -1.224646799147353700E-16, 3.000000000000000444, 0.000000000000000000 ) ) ;
#11 = DIRECTION ( 'NONE',  ( -6.123233995736769734E-17, 1.000000000000000000, 0.000000000000000000 ) ) ;
#12 = AXIS2_PLACEMENT_3D ( 'NONE', #9, #61, #198 ) ;
#13 = VERTEX_POINT ( 'NONE', #184 ) ;
#14 = ORIENTED_EDGE ( 'NONE', *, *, #294, .T. ) ;
#15 = ADVANCED_FACE ( 'NONE', ( #226 ), #94, .T. ) ;
#16 = VERTEX_POINT ( 'NONE', #259 ) ;
#17 = DIRECTION ( 'NONE',  ( 6.123233995736769734E-17, -1.000000000000000000, 0.000000000000000000 ) ) ;
#18 = APPLICATION_CONTEXT ( 'automotive_design' ) ;
#19 = VECTOR ( 'NONE', #161, 39.37007874015748143 ) ;
#20 =( CONVERSION_BASED_UNIT ( 'INCH', #231 ) LENGTH_UNIT ( ) NAMED_UNIT ( #77 ) );
#21 = PRODUCT_DEFINITION_SHAPE ( 'NONE', 'NONE',  #146 ) ;
#22 =( LENGTH_UNIT ( ) NAMED_UNIT ( * ) SI_UNIT ( $, .METRE. ) );
#23 = DIRECTION ( 'NONE',  ( -0.000000000000000000, -1.000000000000000000, -0.000000000000000000 ) ) ;
#24 = VECTOR ( 'NONE', #25, 39.37007874015748143 ) ;
#25 = DIRECTION ( 'NONE',  ( -0.000000000000000000, -1.000000000000000000, -0.000000000000000000 ) ) ;
#26 =( CONVERSION_BASED_UNIT ( 'INCH', #288 ) LENGTH_UNIT ( ) NAMED_UNIT ( #262 ) );
#27 = EDGE_CURVE ( 'NONE', #16, #13, #117, .T. ) ;
#28 = LENGTH_MEASURE_WITH_UNIT ( LENGTH_MEASURE( 0.02539999999999999897 ), #22 );
#29 = FACE_OUTER_BOUND ( 'NONE', #227, .T. ) ;
#30 = DIRECTION ( 'NONE',  ( 0.000000000000000000, 0.000000000000000000, 1.000000000000000000 ) ) ;
#31 = APPLICATION_CONTEXT ( 'automotive_design' ) ;
#32 = ORIENTED_EDGE ( 'NONE', *, *, #108, .F. ) ;
#33 = CARTESIAN_POINT ( 'NONE',  ( 0.000000000000000000, 0.000000000000000000, 0.000000000000000000 ) ) ;
#34 =( NAMED_UNIT ( * ) SI_UNIT ( $, .STERADIAN. ) SOLID_ANGLE_UNIT ( ) );
#35 = EDGE_LOOP ( 'NONE', ( #178, #133, #70, #91 ) ) ;
#36 = PRESENTATION_STYLE_ASSIGNMENT (( #271 ) ) ;
#37 = EDGE_CURVE ( 'NONE', #207, #92, #217, .T. ) ;
#38 = CIRCLE ( 'NONE', #210, 0.1875000000000000278 ) ;
#39 = STYLED_ITEM ( 'NONE', ( #201 ), #182 ) ;
#40 = CARTESIAN_POINT ( 'NONE',  ( -1.224646799147353700E-16, 3.000000000000000444, 0.000000000000000000 ) ) ;
#41 = SURFACE_SIDE_STYLE ('',( #64 ) ) ;
#42 = VERTEX_POINT ( 'NONE', #97 ) ;
#43 =( LENGTH_UNIT ( ) NAMED_UNIT ( * ) SI_UNIT ( $, .METRE. ) );
#44 = ORIENTED_EDGE ( 'NONE', *, *, #134, .F. ) ;
#45 = DIRECTION ( 'NONE',  ( -1.000000000000000000, 0.000000000000000000, 0.000000000000000000 ) ) ;
#46 = SURFACE_SIDE_STYLE ('',( #283 ) ) ;
#47 = EDGE_LOOP ( 'NONE', ( #60, #254, #252, #212 ) ) ;
#48 = COLOUR_RGB ( '',1.000000000000000000, 0.000000000000000000, 0.000000000000000000 ) ;
#49 = FILL_AREA_STYLE_COLOUR ( '', #80 ) ;
#50 =( NAMED_UNIT ( * ) SI_UNIT ( $, .STERADIAN. ) SOLID_ANGLE_UNIT ( ) );
#51 = CARTESIAN_POINT ( 'NONE',  ( 0.000000000000000000, 1.000000000000000000, 0.000000000000000000 ) ) ;
#52 = CARTESIAN_POINT ( 'NONE',  ( 2.296212748401287726E-17, 0.000000000000000000, 0.1875000000000000278 ) ) ;
#53 = DIRECTION ( 'NONE',  ( 0.000000000000000000, 0.000000000000000000, -1.000000000000000000 ) ) ;
#54 = MECHANICAL_DESIGN_GEOMETRIC_PRESENTATION_REPRESENTATION (  '', ( #307 ), #276 ) ;
#55 = SHAPE_DEFINITION_REPRESENTATION ( #21, #214 ) ;
#56 = PLANE ( 'NONE',  #66 ) ;
#57 = ORIENTED_EDGE ( 'NONE', *, *, #272, .T. ) ;
#58 = PRODUCT_CONTEXT ( 'NONE', #18, 'mechanical' ) ;
#59 = ADVANCED_FACE ( 'NONE', ( #260 ), #233, .T. ) ;
#60 = ORIENTED_EDGE ( 'NONE', *, *, #160, .F. ) ;
#61 = DIRECTION ( 'NONE',  ( -6.123233995736769734E-17, 1.000000000000000000, -0.000000000000000000 ) ) ;
#62 = ORIENTED_EDGE ( 'NONE', *, *, #120, .T. ) ;
#63 = AXIS2_PLACEMENT_3D ( 'NONE', #118, #78, #213 ) ;
#64 = SURFACE_STYLE_FILL_AREA ( #89 ) ;
#65 = DIRECTION ( 'NONE',  ( -6.123233995736769734E-17, 1.000000000000000000, -0.000000000000000000 ) ) ;
#66 = AXIS2_PLACEMENT_3D ( 'NONE', #114, #11, #206 ) ;
#67 = CIRCLE ( 'NONE', #200, 0.1875000000000000278 ) ;
#68 = CARTESIAN_POINT ( 'NONE',  ( -1.224646799147353700E-16, 3.000000000000000444, 0.000000000000000000 ) ) ;
#69 = LINE ( 'NONE', #137, #287 ) ;
#70 = ORIENTED_EDGE ( 'NONE', *, *, #208, .T. ) ;
#71 = EDGE_CURVE ( 'NONE', #258, #92, #172, .T. ) ;
#72 =( NAMED_UNIT ( * ) PLANE_ANGLE_UNIT ( ) SI_UNIT ( $, .RADIAN. ) );
#73 =( GEOMETRIC_REPRESENTATION_CONTEXT ( 3 ) GLOBAL_UNCERTAINTY_ASSIGNED_CONTEXT ( ( #85 ) ) GLOBAL_UNIT_ASSIGNED_CONTEXT ( ( #240, #304, #238 ) ) REPRESENTATION_CONTEXT ( 'NONE', 'WORKASPACE' ) );
#74 = CARTESIAN_POINT ( 'NONE',  ( 0.000000000000000000, 0.000000000000000000, 0.000000000000000000 ) ) ;
#75 = SURFACE_STYLE_USAGE ( .BOTH. , #46 ) ;
#76 = DIRECTION ( 'NONE',  ( 0.000000000000000000, 0.000000000000000000, -1.000000000000000000 ) ) ;
#77 = DIMENSIONAL_EXPONENTS ( 1.000000000000000000, 0.000000000000000000, 0.000000000000000000, 0.000000000000000000, 0.000000000000000000, 0.000000000000000000, 0.000000000000000000 ) ;
#78 = DIRECTION ( 'NONE',  ( -6.123233995736769734E-17, 1.000000000000000000, -0.000000000000000000 ) ) ;
#79 =( CONVERSION_BASED_UNIT ( 'INCH', #28 ) LENGTH_UNIT ( ) NAMED_UNIT ( #243 ) );
#80 = COLOUR_RGB ( '',1.000000000000000000, 0.000000000000000000, 0.000000000000000000 ) ;
#81 = UNCERTAINTY_MEASURE_WITH_UNIT (LENGTH_MEASURE( 1.000000000000000082E-05 ), #197, 'distance_accuracy_value', 'NONE');
#82 = MECHANICAL_DESIGN_GEOMETRIC_PRESENTATION_REPRESENTATION (  '', ( #39 ), #221 ) ;
#83 = DIRECTION ( 'NONE',  ( -0.000000000000000000, -1.000000000000000000, -0.000000000000000000 ) ) ;
#84 = LENGTH_MEASURE_WITH_UNIT ( LENGTH_MEASURE( 0.02539999999999999897 ), #132 );
#85 = UNCERTAINTY_MEASURE_WITH_UNIT (LENGTH_MEASURE( 1.000000000000000082E-05 ), #240, 'distance_accuracy_value', 'NONE');
#86 = COLOUR_RGB ( '',1.000000000000000000, 0.000000000000000000, 0.000000000000000000 ) ;
#87 = AXIS2_PLACEMENT_3D ( 'NONE', #40, #256, #168 ) ;
#88 = SURFACE_STYLE_FILL_AREA ( #162 ) ;
#89 = FILL_AREA_STYLE ('',( #109 ) ) ;
#90 = STYLED_ITEM ( 'NONE', ( #36 ), #140 ) ;
#91 = ORIENTED_EDGE ( 'NONE', *, *, #120, .F. ) ;
#92 = VERTEX_POINT ( 'NONE', #196 ) ;
#93 = CYLINDRICAL_SURFACE ( 'NONE', #87, 0.1875000000000000833 ) ;
#94 = CYLINDRICAL_SURFACE ( 'NONE', #257, 0.1875000000000000833 ) ;
#95 = AXIS2_PLACEMENT_3D ( 'NONE', #74, #1, #53 ) ;
#96 = COLOUR_RGB ( '',0.7921568627450980005, 0.8196078431372548767, 0.9333333333333333481 ) ;
#97 = CARTESIAN_POINT ( 'NONE',  ( 2.296212748401287726E-17, 0.000000000000000000, 0.1875000000000000278 ) ) ;
#98 = SURFACE_SIDE_STYLE ('',( #124 ) ) ;
#99 = CARTESIAN_POINT ( 'NONE',  ( 0.1875000000000000278, 3.000000000000000444, 2.296212748401288650E-17 ) ) ;
#100 = CIRCLE ( 'NONE', #12, 0.1875000000000000278 ) ;
#101 = FILL_AREA_STYLE ('',( #190 ) ) ;
#102 = DIRECTION ( 'NONE',  ( 1.000000000000000000, 0.000000000000000000, 0.000000000000000000 ) ) ;
#103 = DIMENSIONAL_EXPONENTS ( 1.000000000000000000, 0.000000000000000000, 0.000000000000000000, 0.000000000000000000, 0.000000000000000000, 0.000000000000000000, 0.000000000000000000 ) ;
#104 = LENGTH_MEASURE_WITH_UNIT ( LENGTH_MEASURE( 0.02539999999999999897 ), #129 );
#105 =( GEOMETRIC_REPRESENTATION_CONTEXT ( 3 ) GLOBAL_UNCERTAINTY_ASSIGNED_CONTEXT ( ( #81 ) ) GLOBAL_UNIT_ASSIGNED_CONTEXT ( ( #197, #291, #34 ) ) REPRESENTATION_CONTEXT ( 'NONE', 'WORKASPACE' ) );
#106 = CARTESIAN_POINT ( 'NONE',  ( 0.000000000000000000, 0.000000000000000000, -0.1875000000000000278 ) ) ;
#107 = UNCERTAINTY_MEASURE_WITH_UNIT (LENGTH_MEASURE( 1.000000000000000082E-05 ), #79, 'distance_accuracy_value', 'NONE');
#108 = EDGE_CURVE ( 'NONE', #295, #42, #38, .T. ) ;
#109 = FILL_AREA_STYLE_COLOUR ( '', #48 ) ;
#110 = CARTESIAN_POINT ( 'NONE',  ( 0.000000000000000000, 1.000000000000000000, 0.000000000000000000 ) ) ;
#111 = PRESENTATION_LAYER_ASSIGNMENT (  '', '', ( #235 ) ) ;
#112 = LENGTH_MEASURE_WITH_UNIT ( LENGTH_MEASURE( 0.02539999999999999897 ), #43 );
#113 = SURFACE_STYLE_FILL_AREA ( #255 ) ;
#114 = CARTESIAN_POINT ( 'NONE',  ( 3.515061990613733472E-34, 1.000000000000000000, 0.000000000000000000 ) ) ;
#115 = ADVANCED_FACE ( 'NONE', ( #29 ), #285, .T. ) ;
#116 = CARTESIAN_POINT ( 'NONE',  ( 3.032960542342103792E-32, 1.000000000000000000, 0.000000000000000000 ) ) ;
#117 = CIRCLE ( 'NONE', #179, 0.1875000000000000278 ) ;
#118 = CARTESIAN_POINT ( 'NONE',  ( -1.224646799147353700E-16, 3.000000000000000444, 0.000000000000000000 ) ) ;
#119 = PRODUCT_DEFINITION_FORMATION_WITH_SPECIFIED_SOURCE ( 'ANY', '', #158, .NOT_KNOWN. ) ;
#120 = EDGE_CURVE ( 'NONE', #42, #295, #67, .T. ) ;
#121 = ORIENTED_EDGE ( 'NONE', *, *, #37, .T. ) ;
#122 =( NAMED_UNIT ( * ) PLANE_ANGLE_UNIT ( ) SI_UNIT ( $, .RADIAN. ) );
#123 = DIRECTION ( 'NONE',  ( 0.000000000000000000, 0.000000000000000000, -1.000000000000000000 ) ) ;
#124 = SURFACE_STYLE_FILL_AREA ( #211 ) ;
#125 =( LENGTH_UNIT ( ) NAMED_UNIT ( * ) SI_UNIT ( $, .METRE. ) );
#126 = STYLED_ITEM ( 'NONE', ( #274 ), #59 ) ;
#127 = PRESENTATION_STYLE_ASSIGNMENT (( #284 ) ) ;
#128 = DIRECTION ( 'NONE',  ( 0.000000000000000000, 0.000000000000000000, -1.000000000000000000 ) ) ;
#129 =( LENGTH_UNIT ( ) NAMED_UNIT ( * ) SI_UNIT ( $, .METRE. ) );
#130 = PRESENTATION_LAYER_ASSIGNMENT (  '', '', ( #194 ) ) ;
#131 = COLOUR_RGB ( '',0.7921568627450980005, 0.8196078431372548767, 0.9333333333333333481 ) ;
#132 =( LENGTH_UNIT ( ) NAMED_UNIT ( * ) SI_UNIT ( $, .METRE. ) );
#133 = ORIENTED_EDGE ( 'NONE', *, *, #27, .T. ) ;
#134 = EDGE_CURVE ( 'NONE', #3, #258, #100, .T. ) ;
#135 =( NAMED_UNIT ( * ) SI_UNIT ( $, .STERADIAN. ) SOLID_ANGLE_UNIT ( ) );
#136 = AXIS2_PLACEMENT_3D ( 'NONE', #241, #17, #148 ) ;
#137 = CARTESIAN_POINT ( 'NONE',  ( 0.1874999999999999445, 3.000000000000000444, 2.296212748401288342E-17 ) ) ;
#138 = SURFACE_STYLE_USAGE ( .BOTH. , #41 ) ;
#139 = ORIENTED_EDGE ( 'NONE', *, *, #230, .F. ) ;
#140 = MANIFOLD_SOLID_BREP ( 'Revolve - Cutting Edge', #306 ) ;
#141 = FACE_OUTER_BOUND ( 'NONE', #228, .T. ) ;
#142 = ORIENTED_EDGE ( 'NONE', *, *, #108, .T. ) ;
#143 = DIRECTION ( 'NONE',  ( -1.000000000000000000, 0.000000000000000000, 0.000000000000000000 ) ) ;
#144 = ADVANCED_FACE ( 'NONE', ( #141 ), #56, .F. ) ;
#145 = EDGE_LOOP ( 'NONE', ( #296, #121 ) ) ;
#146 = PRODUCT_DEFINITION ( 'UNKNOWN', '', #119, #302 ) ;
#147 = AXIS2_PLACEMENT_3D ( 'NONE', #289, #30, #102 ) ;
#148 = DIRECTION ( 'NONE',  ( 1.000000000000000000, 6.123233995736769734E-17, 0.000000000000000000 ) ) ;
#149 = SURFACE_SIDE_STYLE ('',( #174 ) ) ;
#150 = CARTESIAN_POINT ( 'NONE',  ( 0.000000000000000000, 0.000000000000000000, 0.000000000000000000 ) ) ;
#151 = DIRECTION ( 'NONE',  ( 0.000000000000000000, 1.000000000000000000, 0.000000000000000000 ) ) ;
#152 = LENGTH_MEASURE_WITH_UNIT ( LENGTH_MEASURE( 0.02539999999999999897 ), #280 );
#153 = PRESENTATION_LAYER_ASSIGNMENT (  '', '', ( #126 ) ) ;
#154 = AXIS2_PLACEMENT_3D ( 'NONE', #4, #83, #5 ) ;
#155 =( NAMED_UNIT ( * ) PLANE_ANGLE_UNIT ( ) SI_UNIT ( $, .RADIAN. ) );
#156 = ADVANCED_FACE ( 'NONE', ( #278 ), #93, .T. ) ;
#157 = CARTESIAN_POINT ( 'NONE',  ( -0.1875000000000002220, 3.000000000000000444, 0.000000000000000000 ) ) ;
#158 = PRODUCT ( '82268', '82268', '', ( #58 ) ) ;
#159 = DIRECTION ( 'NONE',  ( 0.000000000000000000, 0.000000000000000000, -1.000000000000000000 ) ) ;
#160 = EDGE_CURVE ( 'NONE', #3, #207, #69, .T. ) ;
#161 = DIRECTION ( 'NONE',  ( -0.000000000000000000, -1.000000000000000000, -0.000000000000000000 ) ) ;
#162 = FILL_AREA_STYLE ('',( #290 ) ) ;
#163 = DIRECTION ( 'NONE',  ( -6.123233995736769734E-17, 1.000000000000000000, -0.000000000000000000 ) ) ;
#164 = FILL_AREA_STYLE_COLOUR ( '', #86 ) ;
#165 = EDGE_LOOP ( 'NONE', ( #142, #62 ) ) ;
#166 = CIRCLE ( 'NONE', #154, 0.1875000000000000278 ) ;
#167 = DIRECTION ( 'NONE',  ( -6.123233995736769734E-17, 1.000000000000000000, -0.000000000000000000 ) ) ;
#168 = DIRECTION ( 'NONE',  ( -1.000000000000000000, 0.000000000000000000, 0.000000000000000000 ) ) ;
#169 = EDGE_LOOP ( 'NONE', ( #277, #222, #139, #273 ) ) ;
#170 = CARTESIAN_POINT ( 'NONE',  ( 0.000000000000000000, 0.000000000000000000, -0.1875000000000000278 ) ) ;
#171 = SURFACE_STYLE_USAGE ( .BOTH. , #98 ) ;
#172 = LINE ( 'NONE', #157, #298 ) ;
#173 = UNCERTAINTY_MEASURE_WITH_UNIT (LENGTH_MEASURE( 1.000000000000000082E-05 ), #26, 'distance_accuracy_value', 'NONE');
#174 = SURFACE_STYLE_FILL_AREA ( #188 ) ;
#175 = FILL_AREA_STYLE_COLOUR ( '', #96 ) ;
#176 = LINE ( 'NONE', #52, #19 ) ;
#177 = APPLICATION_PROTOCOL_DEFINITION ( 'draft international standard', 'automotive_design', 1998, #18 ) ;
#178 = ORIENTED_EDGE ( 'NONE', *, *, #294, .F. ) ;
#179 = AXIS2_PLACEMENT_3D ( 'NONE', #110, #202, #300 ) ;
#180 =( GEOMETRIC_REPRESENTATION_CONTEXT ( 3 ) GLOBAL_UNCERTAINTY_ASSIGNED_CONTEXT ( ( #199 ) ) GLOBAL_UNIT_ASSIGNED_CONTEXT ( ( #219, #239, #192 ) ) REPRESENTATION_CONTEXT ( 'NONE', 'WORKASPACE' ) );
#181 = SURFACE_SIDE_STYLE ('',( #88 ) ) ;
#182 = ADVANCED_FACE ( 'NONE', ( #225 ), #275, .T. ) ;
#183 = MECHANICAL_DESIGN_GEOMETRIC_PRESENTATION_REPRESENTATION (  '', ( #194 ), #73 ) ;
#184 = CARTESIAN_POINT ( 'NONE',  ( 0.000000000000000000, 1.000000000000000000, -0.1875000000000000278 ) ) ;
#185 = SURFACE_STYLE_USAGE ( .BOTH. , #205 ) ;
#186 = ADVANCED_FACE ( 'NONE', ( #305 ), #303, .F. ) ;
#187 = DIRECTION ( 'NONE',  ( -1.000000000000000000, 0.000000000000000000, 0.000000000000000000 ) ) ;
#188 = FILL_AREA_STYLE ('',( #49 ) ) ;
#189 = DIMENSIONAL_EXPONENTS ( 1.000000000000000000, 0.000000000000000000, 0.000000000000000000, 0.000000000000000000, 0.000000000000000000, 0.000000000000000000, 0.000000000000000000 ) ;
#190 = FILL_AREA_STYLE_COLOUR ( '', #253 ) ;
#191 =( NAMED_UNIT ( * ) PLANE_ANGLE_UNIT ( ) SI_UNIT ( $, .RADIAN. ) );
#192 =( NAMED_UNIT ( * ) SI_UNIT ( $, .STERADIAN. ) SOLID_ANGLE_UNIT ( ) );
#193 = UNCERTAINTY_MEASURE_WITH_UNIT (LENGTH_MEASURE( 1.000000000000000082E-05 ), #20, 'distance_accuracy_value', 'NONE');
#194 = STYLED_ITEM ( 'NONE', ( #127 ), #115 ) ;
#195 = MECHANICAL_DESIGN_GEOMETRIC_PRESENTATION_REPRESENTATION (  '', ( #90 ), #2 ) ;
#196 = CARTESIAN_POINT ( 'NONE',  ( -0.1875000000000002776, 3.000000000000000444, 0.000000000000000000 ) ) ;
#197 =( CONVERSION_BASED_UNIT ( 'INCH', #84 ) LENGTH_UNIT ( ) NAMED_UNIT ( #189 ) );
#198 = DIRECTION ( 'NONE',  ( -1.000000000000000000, 0.000000000000000000, 0.000000000000000000 ) ) ;
#199 = UNCERTAINTY_MEASURE_WITH_UNIT (LENGTH_MEASURE( 1.000000000000000082E-05 ), #219, 'distance_accuracy_value', 'NONE');
#200 = AXIS2_PLACEMENT_3D ( 'NONE', #242, #23, #123 ) ;
#201 = PRESENTATION_STYLE_ASSIGNMENT (( #138 ) ) ;
#202 = DIRECTION ( 'NONE',  ( -0.000000000000000000, -1.000000000000000000, -0.000000000000000000 ) ) ;
#203 = PRESENTATION_LAYER_ASSIGNMENT (  '', '', ( #90 ) ) ;
#204 =( CONVERSION_BASED_UNIT ( 'INCH', #112 ) LENGTH_UNIT ( ) NAMED_UNIT ( #103 ) );
#205 = SURFACE_SIDE_STYLE ('',( #113 ) ) ;
#206 = DIRECTION ( 'NONE',  ( -1.000000000000000000, -6.123233995736769734E-17, 0.000000000000000000 ) ) ;
#207 = VERTEX_POINT ( 'NONE', #99 ) ;
#208 = EDGE_CURVE ( 'NONE', #13, #295, #301, .T. ) ;
#209 = ORIENTED_EDGE ( 'NONE', *, *, #27, .F. ) ;
#210 = AXIS2_PLACEMENT_3D ( 'NONE', #218, #263, #76 ) ;
#211 = FILL_AREA_STYLE ('',( #175 ) ) ;
#212 = ORIENTED_EDGE ( 'NONE', *, *, #37, .F. ) ;
#213 = DIRECTION ( 'NONE',  ( -1.000000000000000000, 0.000000000000000000, 0.000000000000000000 ) ) ;
#214 = ADVANCED_BREP_SHAPE_REPRESENTATION ( '82268', ( #140, #232, #147 ), #105 ) ;
#215 =( LENGTH_UNIT ( ) NAMED_UNIT ( * ) SI_UNIT ( $, .METRE. ) );
#216 = CYLINDRICAL_SURFACE ( 'NONE', #299, 0.1875000000000000278 ) ;
#217 = CIRCLE ( 'NONE', #6, 0.1875000000000001388 ) ;
#218 = CARTESIAN_POINT ( 'NONE',  ( 0.000000000000000000, 0.000000000000000000, 0.000000000000000000 ) ) ;
#219 =( CONVERSION_BASED_UNIT ( 'INCH', #152 ) LENGTH_UNIT ( ) NAMED_UNIT ( #220 ) );
#220 = DIMENSIONAL_EXPONENTS ( 1.000000000000000000, 0.000000000000000000, 0.000000000000000000, 0.000000000000000000, 0.000000000000000000, 0.000000000000000000, 0.000000000000000000 ) ;
#221 =( GEOMETRIC_REPRESENTATION_CONTEXT ( 3 ) GLOBAL_UNCERTAINTY_ASSIGNED_CONTEXT ( ( #292 ) ) GLOBAL_UNIT_ASSIGNED_CONTEXT ( ( #204, #191, #50 ) ) REPRESENTATION_CONTEXT ( 'NONE', 'WORKASPACE' ) );
#222 = ORIENTED_EDGE ( 'NONE', *, *, #160, .T. ) ;
#223 =( GEOMETRIC_REPRESENTATION_CONTEXT ( 3 ) GLOBAL_UNCERTAINTY_ASSIGNED_CONTEXT ( ( #173 ) ) GLOBAL_UNIT_ASSIGNED_CONTEXT ( ( #26, #155, #309 ) ) REPRESENTATION_CONTEXT ( 'NONE', 'WORKASPACE' ) );
#224 = EDGE_LOOP ( 'NONE', ( #57, #14, #32, #279 ) ) ;
#225 = FACE_OUTER_BOUND ( 'NONE', #35, .T. ) ;
#226 = FACE_OUTER_BOUND ( 'NONE', #169, .T. ) ;
#227 = EDGE_LOOP ( 'NONE', ( #270, #209 ) ) ;
#228 = EDGE_LOOP ( 'NONE', ( #229, #44 ) ) ;
#229 = ORIENTED_EDGE ( 'NONE', *, *, #7, .F. ) ;
#230 = EDGE_CURVE ( 'NONE', #92, #207, #8, .T. ) ;
#231 = LENGTH_MEASURE_WITH_UNIT ( LENGTH_MEASURE( 0.02539999999999999897 ), #125 );
#232 = MANIFOLD_SOLID_BREP ( 'Revolve - Tool Body (Straight Shanked)', #250 ) ;
#233 = PLANE ( 'NONE',  #95 ) ;
#234 = MECHANICAL_DESIGN_GEOMETRIC_PRESENTATION_REPRESENTATION (  '', ( #126 ), #223 ) ;
#235 = STYLED_ITEM ( 'NONE', ( #236 ), #232 ) ;
#236 = PRESENTATION_STYLE_ASSIGNMENT (( #171 ) ) ;
#237 = ADVANCED_FACE ( 'NONE', ( #261 ), #216, .T. ) ;
#238 =( NAMED_UNIT ( * ) SI_UNIT ( $, .STERADIAN. ) SOLID_ANGLE_UNIT ( ) );
#239 =( NAMED_UNIT ( * ) PLANE_ANGLE_UNIT ( ) SI_UNIT ( $, .RADIAN. ) );
#240 =( CONVERSION_BASED_UNIT ( 'INCH', #104 ) LENGTH_UNIT ( ) NAMED_UNIT ( #247 ) );
#241 = CARTESIAN_POINT ( 'NONE',  ( 0.1875000000000000278, 3.000000000000000444, 0.000000000000000000 ) ) ;
#242 = CARTESIAN_POINT ( 'NONE',  ( 0.000000000000000000, 0.000000000000000000, 0.000000000000000000 ) ) ;
#243 = DIMENSIONAL_EXPONENTS ( 1.000000000000000000, 0.000000000000000000, 0.000000000000000000, 0.000000000000000000, 0.000000000000000000, 0.000000000000000000, 0.000000000000000000 ) ;
#244 = AXIS2_PLACEMENT_3D ( 'NONE', #116, #297, #45 ) ;
#245 = PRESENTATION_LAYER_ASSIGNMENT (  '', '', ( #307 ) ) ;
#246 = APPLICATION_PROTOCOL_DEFINITION ( 'draft international standard', 'automotive_design', 1998, #31 ) ;
#247 = DIMENSIONAL_EXPONENTS ( 1.000000000000000000, 0.000000000000000000, 0.000000000000000000, 0.000000000000000000, 0.000000000000000000, 0.000000000000000000, 0.000000000000000000 ) ;
#248 = DIRECTION ( 'NONE',  ( -6.123233995736769734E-17, 1.000000000000000000, -0.000000000000000000 ) ) ;
#249 = CARTESIAN_POINT ( 'NONE',  ( -0.1875000000000000278, 1.000000000000000000, 0.000000000000000000 ) ) ;
#250 = CLOSED_SHELL ( 'NONE', ( #15, #144, #156, #186 ) ) ;
#251 = AXIS2_PLACEMENT_3D ( 'NONE', #150, #308, #128 ) ;
#252 = ORIENTED_EDGE ( 'NONE', *, *, #71, .T. ) ;
#253 = COLOUR_RGB ( '',1.000000000000000000, 0.000000000000000000, 0.000000000000000000 ) ;
#254 = ORIENTED_EDGE ( 'NONE', *, *, #134, .T. ) ;
#255 = FILL_AREA_STYLE ('',( #164 ) ) ;
#256 = DIRECTION ( 'NONE',  ( -6.123233995736769734E-17, 1.000000000000000000, -0.000000000000000000 ) ) ;
#257 = AXIS2_PLACEMENT_3D ( 'NONE', #10, #167, #143 ) ;
#258 = VERTEX_POINT ( 'NONE', #249 ) ;
#259 = CARTESIAN_POINT ( 'NONE',  ( 2.296212748401287726E-17, 1.000000000000000000, 0.1875000000000000278 ) ) ;
#260 = FACE_OUTER_BOUND ( 'NONE', #165, .T. ) ;
#261 = FACE_OUTER_BOUND ( 'NONE', #224, .T. ) ;
#262 = DIMENSIONAL_EXPONENTS ( 1.000000000000000000, 0.000000000000000000, 0.000000000000000000, 0.000000000000000000, 0.000000000000000000, 0.000000000000000000, 0.000000000000000000 ) ;
#263 = DIRECTION ( 'NONE',  ( -0.000000000000000000, -1.000000000000000000, -0.000000000000000000 ) ) ;
#264 = PRESENTATION_STYLE_ASSIGNMENT (( #75 ) ) ;
#265 = DIRECTION ( 'NONE',  ( 0.000000000000000000, -0.000000000000000000, 1.000000000000000000 ) ) ;
#266 = AXIS2_PLACEMENT_3D ( 'NONE', #51, #151, #265 ) ;
#267 =( NAMED_UNIT ( * ) SI_UNIT ( $, .STERADIAN. ) SOLID_ANGLE_UNIT ( ) );
#268 = DIRECTION ( 'NONE',  ( -0.000000000000000000, -1.000000000000000000, -0.000000000000000000 ) ) ;
#269 = PRESENTATION_LAYER_ASSIGNMENT (  '', '', ( #39 ) ) ;
#270 = ORIENTED_EDGE ( 'NONE', *, *, #272, .F. ) ;
#271 = SURFACE_STYLE_USAGE ( .BOTH. , #181 ) ;
#272 = EDGE_CURVE ( 'NONE', #13, #16, #166, .T. ) ;
#273 = ORIENTED_EDGE ( 'NONE', *, *, #71, .F. ) ;
#274 = PRESENTATION_STYLE_ASSIGNMENT (( #185 ) ) ;
#275 = CYLINDRICAL_SURFACE ( 'NONE', #251, 0.1875000000000000278 ) ;
#276 =( GEOMETRIC_REPRESENTATION_CONTEXT ( 3 ) GLOBAL_UNCERTAINTY_ASSIGNED_CONTEXT ( ( #193 ) ) GLOBAL_UNIT_ASSIGNED_CONTEXT ( ( #20, #122, #135 ) ) REPRESENTATION_CONTEXT ( 'NONE', 'WORKASPACE' ) );
#277 = ORIENTED_EDGE ( 'NONE', *, *, #7, .T. ) ;
#278 = FACE_OUTER_BOUND ( 'NONE', #47, .T. ) ;
#279 = ORIENTED_EDGE ( 'NONE', *, *, #208, .F. ) ;
#280 =( LENGTH_UNIT ( ) NAMED_UNIT ( * ) SI_UNIT ( $, .METRE. ) );
#281 = CARTESIAN_POINT ( 'NONE',  ( 0.1875000000000000278, 1.000000000000000000, 2.296212748401288650E-17 ) ) ;
#282 = MECHANICAL_DESIGN_GEOMETRIC_PRESENTATION_REPRESENTATION (  '', ( #235 ), #180 ) ;
#283 = SURFACE_STYLE_FILL_AREA ( #101 ) ;
#284 = SURFACE_STYLE_USAGE ( .BOTH. , #149 ) ;
#285 = PLANE ( 'NONE',  #266 ) ;
#286 = PRODUCT_RELATED_PRODUCT_CATEGORY ( 'part', '', ( #158 ) ) ;
#287 = VECTOR ( 'NONE', #163, 39.37007874015748143 ) ;
#288 = LENGTH_MEASURE_WITH_UNIT ( LENGTH_MEASURE( 0.02539999999999999897 ), #215 );
#289 = CARTESIAN_POINT ( 'NONE',  ( 0.000000000000000000, 0.000000000000000000, 0.000000000000000000 ) ) ;
#290 = FILL_AREA_STYLE_COLOUR ( '', #131 ) ;
#291 =( NAMED_UNIT ( * ) PLANE_ANGLE_UNIT ( ) SI_UNIT ( $, .RADIAN. ) );
#292 = UNCERTAINTY_MEASURE_WITH_UNIT (LENGTH_MEASURE( 1.000000000000000082E-05 ), #204, 'distance_accuracy_value', 'NONE');
#293 = CIRCLE ( 'NONE', #244, 0.1875000000000000278 ) ;
#294 = EDGE_CURVE ( 'NONE', #16, #42, #176, .T. ) ;
#295 = VERTEX_POINT ( 'NONE', #106 ) ;
#296 = ORIENTED_EDGE ( 'NONE', *, *, #230, .T. ) ;
#297 = DIRECTION ( 'NONE',  ( -6.123233995736769734E-17, 1.000000000000000000, -0.000000000000000000 ) ) ;
#298 = VECTOR ( 'NONE', #248, 39.37007874015748143 ) ;
#299 = AXIS2_PLACEMENT_3D ( 'NONE', #33, #268, #159 ) ;
#300 = DIRECTION ( 'NONE',  ( 0.000000000000000000, 0.000000000000000000, -1.000000000000000000 ) ) ;
#301 = LINE ( 'NONE', #170, #24 ) ;
#302 = PRODUCT_DEFINITION_CONTEXT ( 'detailed design', #31, 'design' ) ;
#303 = PLANE ( 'NONE',  #136 ) ;
#304 =( NAMED_UNIT ( * ) PLANE_ANGLE_UNIT ( ) SI_UNIT ( $, .RADIAN. ) );
#305 = FACE_OUTER_BOUND ( 'NONE', #145, .T. ) ;
#306 = CLOSED_SHELL ( 'NONE', ( #237, #115, #182, #59 ) ) ;
#307 = STYLED_ITEM ( 'NONE', ( #264 ), #237 ) ;
#308 = DIRECTION ( 'NONE',  ( -0.000000000000000000, -1.000000000000000000, -0.000000000000000000 ) ) ;
#309 =( NAMED_UNIT ( * ) SI_UNIT ( $, .STERADIAN. ) SOLID_ANGLE_UNIT ( ) );
ENDSEC;
END-ISO-10303-21;
