ISO-10303-21;
HEADER;
FILE_DESCRIPTION (( 'STEP AP214' ),
    '1' );
FILE_NAME ('Micro_GEC-187-2-030.STEP',
    '2021-09-03T17:09:36',
    ( '' ),
    ( '' ),
    'SwSTEP 2.0',
    'SolidWorks 2020',
    '' );
FILE_SCHEMA (( 'AUTOMOTIVE_DESIGN' ));
ENDSEC;

DATA;
#1 = EDGE_LOOP ( 'NONE', ( #35, #84, #135, #2 ) ) ;
#2 = ORIENTED_EDGE ( 'NONE', *, *, #299, .F. ) ;
#3 =( GEOMETRIC_REPRESENTATION_CONTEXT ( 3 ) GLOBAL_UNCERTAINTY_ASSIGNED_CONTEXT ( ( #263 ) ) GLOBAL_UNIT_ASSIGNED_CONTEXT ( ( #134, #10, #106 ) ) REPRESENTATION_CONTEXT ( 'NONE', 'WORKASPACE' ) );
#4 = CIRCLE ( 'NONE', #165, 0.03000000000000000583 ) ;
#5 = DIRECTION ( 'NONE',  ( 1.000000000000000000, 0.0000000000000000000, 0.0000000000000000000 ) ) ;
#6 = VERTEX_POINT ( 'NONE', #271 ) ;
#7 = VECTOR ( 'NONE', #292, 39.37007874015748143 ) ;
#8 = ORIENTED_EDGE ( 'NONE', *, *, #125, .F. ) ;
#9 = ADVANCED_FACE ( 'NONE', ( #332 ), #295, .T. ) ;
#10 =( NAMED_UNIT ( * ) PLANE_ANGLE_UNIT ( ) SI_UNIT ( $, .RADIAN. ) );
#11 = ORIENTED_EDGE ( 'NONE', *, *, #104, .T. ) ;
#12 = DIRECTION ( 'NONE',  ( 1.000000000000000000, 0.0000000000000000000, 0.0000000000000000000 ) ) ;
#13 = AXIS2_PLACEMENT_3D ( 'NONE', #232, #42, #73 ) ;
#14 = CARTESIAN_POINT ( 'NONE',  ( 0.0000000000000000000, 0.0000000000000000000, 2.000000000000000000 ) ) ;
#15 = PLANE ( 'NONE',  #231 ) ;
#16 = CARTESIAN_POINT ( 'NONE',  ( -0.07874999999999980627, 0.0000000000000000000, 2.000000000000000000 ) ) ;
#17 = DIRECTION ( 'NONE',  ( 1.224646799147353207E-16, 0.0000000000000000000, 1.000000000000000000 ) ) ;
#18 = DIRECTION ( 'NONE',  ( -0.0000000000000000000, -0.0000000000000000000, -1.000000000000000000 ) ) ;
#19 = DIRECTION ( 'NONE',  ( 1.000000000000000000, 0.0000000000000000000, 0.0000000000000000000 ) ) ;
#20 =( CONVERSION_BASED_UNIT ( 'INCH', #75 ) LENGTH_UNIT ( ) NAMED_UNIT ( #95 ) );
#21 = AXIS2_PLACEMENT_3D ( 'NONE', #291, #26, #5 ) ;
#22 = AXIS2_PLACEMENT_3D ( 'NONE', #280, #336, #279 ) ;
#23 = CARTESIAN_POINT ( 'NONE',  ( 0.09365625000000006584, 0.0000000000000000000, 0.6250000000000000000 ) ) ;
#24 = EDGE_LOOP ( 'NONE', ( #11, #266, #186, #37 ) ) ;
#25 = DIRECTION ( 'NONE',  ( 1.000000000000000000, 0.0000000000000000000, 0.0000000000000000000 ) ) ;
#26 = DIRECTION ( 'NONE',  ( 0.0000000000000000000, 0.0000000000000000000, 1.000000000000000000 ) ) ;
#27 = FILL_AREA_STYLE ('',( #216 ) ) ;
#28 = ADVANCED_FACE ( 'NONE', ( #83 ), #264, .T. ) ;
#29 = EDGE_LOOP ( 'NONE', ( #214, #162 ) ) ;
#30 = ORIENTED_EDGE ( 'NONE', *, *, #104, .F. ) ;
#31 = CIRCLE ( 'NONE', #226, 0.06365624999999998368 ) ;
#32 = AXIS2_PLACEMENT_3D ( 'NONE', #48, #316, #74 ) ;
#33 =( LENGTH_UNIT ( ) NAMED_UNIT ( * ) SI_UNIT ( $, .METRE. ) );
#34 = EDGE_LOOP ( 'NONE', ( #168, #53, #234, #97 ) ) ;
#35 = ORIENTED_EDGE ( 'NONE', *, *, #161, .T. ) ;
#36 = CARTESIAN_POINT ( 'NONE',  ( 0.0000000000000000000, 0.0000000000000000000, 2.000000000000000000 ) ) ;
#37 = ORIENTED_EDGE ( 'NONE', *, *, #315, .F. ) ;
#38 = MANIFOLD_SOLID_BREP ( 'Fillet1', #203 ) ;
#39 = DIRECTION ( 'NONE',  ( -1.000000000000000000, 0.0000000000000000000, 0.0000000000000000000 ) ) ;
#40 = LINE ( 'NONE', #90, #47 ) ;
#41 = CARTESIAN_POINT ( 'NONE',  ( 3.673940397442059960E-18, 0.0000000000000000000, 0.03000000000000000583 ) ) ;
#42 = DIRECTION ( 'NONE',  ( 0.0000000000000000000, 0.0000000000000000000, -1.000000000000000000 ) ) ;
#43 = EDGE_CURVE ( 'NONE', #240, #274, #319, .T. ) ;
#44 = LINE ( 'NONE', #255, #77 ) ;
#45 = AXIS2_PLACEMENT_3D ( 'NONE', #114, #17, #141 ) ;
#46 = AXIS2_PLACEMENT_3D ( 'NONE', #201, #259, #19 ) ;
#47 = VECTOR ( 'NONE', #116, 39.37007874015748143 ) ;
#48 = CARTESIAN_POINT ( 'NONE',  ( 0.0000000000000000000, 0.0000000000000000000, 0.0000000000000000000 ) ) ;
#49 = ORIENTED_EDGE ( 'NONE', *, *, #65, .F. ) ;
#50 =( LENGTH_UNIT ( ) NAMED_UNIT ( * ) SI_UNIT ( $, .METRE. ) );
#51 = CARTESIAN_POINT ( 'NONE',  ( 0.06365624999999998368, 0.0000000000000000000, 0.02999999999999999889 ) ) ;
#52 = ORIENTED_EDGE ( 'NONE', *, *, #299, .T. ) ;
#53 = ORIENTED_EDGE ( 'NONE', *, *, #249, .F. ) ;
#54 = EDGE_CURVE ( 'NONE', #6, #172, #149, .T. ) ;
#55 = PRODUCT_CONTEXT ( 'NONE', #136, 'mechanical' ) ;
#56 = ORIENTED_EDGE ( 'NONE', *, *, #223, .F. ) ;
#57 = APPLICATION_PROTOCOL_DEFINITION ( 'draft international standard', 'automotive_design', 1998, #189 ) ;
#58 = SURFACE_STYLE_USAGE ( .BOTH. , #301 ) ;
#59 = EDGE_LOOP ( 'NONE', ( #267, #138, #159, #129 ) ) ;
#60 = CIRCLE ( 'NONE', #242, 0.09375000000000001388 ) ;
#61 = MECHANICAL_DESIGN_GEOMETRIC_PRESENTATION_REPRESENTATION (  '', ( #320 ), #281 ) ;
#62 = CARTESIAN_POINT ( 'NONE',  ( 7.660553729477949085E-17, 0.0000000000000000000, 0.6255316826705892286 ) ) ;
#63 = FACE_OUTER_BOUND ( 'NONE', #277, .T. ) ;
#64 = ORIENTED_EDGE ( 'NONE', *, *, #87, .T. ) ;
#65 = EDGE_CURVE ( 'NONE', #330, #172, #324, .T. ) ;
#66 = DIRECTION ( 'NONE',  ( 1.000000000000000000, 0.0000000000000000000, 0.0000000000000000000 ) ) ;
#67 = PRODUCT_DEFINITION ( 'UNKNOWN', '', #248, #153 ) ;
#68 = DIMENSIONAL_EXPONENTS ( 1.000000000000000000, 0.0000000000000000000, 0.0000000000000000000, 0.0000000000000000000, 0.0000000000000000000, 0.0000000000000000000, 0.0000000000000000000 ) ;
#69 = CARTESIAN_POINT ( 'NONE',  ( 7.654042494670957853E-17, 0.0000000000000000000, 0.6250000000000000000 ) ) ;
#70 = FACE_OUTER_BOUND ( 'NONE', #268, .T. ) ;
#71 = CARTESIAN_POINT ( 'NONE',  ( 0.0000000000000000000, 0.0000000000000000000, 2.000000000000000000 ) ) ;
#72 = CARTESIAN_POINT ( 'NONE',  ( 0.09375000000000001388, 1.148106374200643863E-17, 2.000000000000000000 ) ) ;
#73 = DIRECTION ( 'NONE',  ( -1.000000000000000000, 0.0000000000000000000, 0.0000000000000000000 ) ) ;
#74 = DIRECTION ( 'NONE',  ( -1.000000000000000000, 0.0000000000000000000, 1.224646799147352961E-16 ) ) ;
#75 = LENGTH_MEASURE_WITH_UNIT ( LENGTH_MEASURE( 0.02539999999999999897 ), #347 );
#76 = CIRCLE ( 'NONE', #254, 0.09365624999999999645 ) ;
#77 = VECTOR ( 'NONE', #18, 39.37007874015748143 ) ;
#78 =( NAMED_UNIT ( * ) PLANE_ANGLE_UNIT ( ) SI_UNIT ( $, .RADIAN. ) );
#79 = CARTESIAN_POINT ( 'NONE',  ( 0.09365625000000006584, 0.0000000000000000000, 0.6250000000000000000 ) ) ;
#80 = ORIENTED_EDGE ( 'NONE', *, *, #331, .F. ) ;
#81 = CONICAL_SURFACE ( 'NONE', #13, 0.07874999999999980627, 0.7853981633974466137 ) ;
#82 = ORIENTED_EDGE ( 'NONE', *, *, #191, .F. ) ;
#83 = FACE_OUTER_BOUND ( 'NONE', #29, .T. ) ;
#84 = ORIENTED_EDGE ( 'NONE', *, *, #312, .T. ) ;
#85 = AXIS2_PLACEMENT_3D ( 'NONE', #207, #122, #229 ) ;
#86 = CARTESIAN_POINT ( 'NONE',  ( 3.673940397442059190E-18, 0.0000000000000000000, 0.02999999999999999889 ) ) ;
#87 = EDGE_CURVE ( 'NONE', #215, #240, #213, .T. ) ;
#88 = DIRECTION ( 'NONE',  ( 0.0000000000000000000, 0.0000000000000000000, 1.000000000000000000 ) ) ;
#89 = CONICAL_SURFACE ( 'NONE', #45, 0.09365624999999999645, 0.1745329251994338360 ) ;
#90 = CARTESIAN_POINT ( 'NONE',  ( 0.07874999999999980627, 9.644093543285380530E-18, 2.000000000000000000 ) ) ;
#91 = TOROIDAL_SURFACE ( 'NONE', #288, 0.06365624999999998368, 0.02999999999999999889 ) ;
#92 = CARTESIAN_POINT ( 'NONE',  ( 0.09365624999999999645, 1.146958267826442798E-17, -1.146958267826442798E-17 ) ) ;
#93 = CARTESIAN_POINT ( 'NONE',  ( -0.06365624999999998368, 9.632612479543399156E-18, 0.0000000000000000000 ) ) ;
#94 = LINE ( 'NONE', #72, #145 ) ;
#95 = DIMENSIONAL_EXPONENTS ( 1.000000000000000000, 0.0000000000000000000, 0.0000000000000000000, 0.0000000000000000000, 0.0000000000000000000, 0.0000000000000000000, 0.0000000000000000000 ) ;
#96 = CARTESIAN_POINT ( 'NONE',  ( -0.09365624999999999645, 0.0000000000000000000, 0.03000000000000000583 ) ) ;
#97 = ORIENTED_EDGE ( 'NONE', *, *, #302, .T. ) ;
#98 = DIRECTION ( 'NONE',  ( -1.000000000000000000, 0.0000000000000000000, 1.224646799147352961E-16 ) ) ;
#99 = ORIENTED_EDGE ( 'NONE', *, *, #191, .T. ) ;
#100 = AXIS2_PLACEMENT_3D ( 'NONE', #41, #244, #12 ) ;
#101 = PRESENTATION_STYLE_ASSIGNMENT (( #238 ) ) ;
#102 = DIRECTION ( 'NONE',  ( 1.000000000000000000, 0.0000000000000000000, 0.0000000000000000000 ) ) ;
#103 = ORIENTED_EDGE ( 'NONE', *, *, #246, .T. ) ;
#104 = EDGE_CURVE ( 'NONE', #163, #330, #108, .T. ) ;
#105 = CARTESIAN_POINT ( 'NONE',  ( 0.0000000000000000000, 0.0000000000000000000, 2.000000000000000000 ) ) ;
#106 =( NAMED_UNIT ( * ) SI_UNIT ( $, .STERADIAN. ) SOLID_ANGLE_UNIT ( ) );
#107 = ORIENTED_EDGE ( 'NONE', *, *, #261, .F. ) ;
#108 = CIRCLE ( 'NONE', #164, 0.09365624999999999645 ) ;
#109 = DIRECTION ( 'NONE',  ( 0.0000000000000000000, 0.0000000000000000000, 1.000000000000000000 ) ) ;
#110 = SURFACE_STYLE_FILL_AREA ( #133 ) ;
#111 = ORIENTED_EDGE ( 'NONE', *, *, #302, .F. ) ;
#112 = ORIENTED_EDGE ( 'NONE', *, *, #117, .F. ) ;
#113 = ADVANCED_FACE ( 'NONE', ( #63 ), #195, .T. ) ;
#114 = CARTESIAN_POINT ( 'NONE',  ( 7.654042494670957853E-17, 0.0000000000000000000, 0.6250000000000000000 ) ) ;
#115 = FACE_OUTER_BOUND ( 'NONE', #289, .T. ) ;
#116 = DIRECTION ( 'NONE',  ( 0.7071067811865463515, 8.659560562354916834E-17, -0.7071067811865486830 ) ) ;
#117 = EDGE_CURVE ( 'NONE', #156, #192, #198, .T. ) ;
#118 = DIRECTION ( 'NONE',  ( -0.7071067811865463515, 0.0000000000000000000, -0.7071067811865486830 ) ) ;
#119 = COLOUR_RGB ( '',0.7921568627450980005, 0.8196078431372548767, 0.9333333333333333481 ) ;
#120 = DIRECTION ( 'NONE',  ( 1.000000000000000000, 0.0000000000000000000, -0.0000000000000000000 ) ) ;
#121 = AXIS2_PLACEMENT_3D ( 'NONE', #140, #272, #137 ) ;
#122 = DIRECTION ( 'NONE',  ( -1.224646799147353207E-16, -0.0000000000000000000, -1.000000000000000000 ) ) ;
#123 = ADVANCED_FACE ( 'NONE', ( #273 ), #307, .T. ) ;
#124 = CARTESIAN_POINT ( 'NONE',  ( -0.09365624999999999645, 0.0000000000000000000, 1.146958267826442798E-17 ) ) ;
#125 = EDGE_CURVE ( 'NONE', #192, #156, #327, .T. ) ;
#126 = UNCERTAINTY_MEASURE_WITH_UNIT (LENGTH_MEASURE( 1.000000000000000082E-05 ), #300, 'distance_accuracy_value', 'NONE');
#127 = FACE_OUTER_BOUND ( 'NONE', #323, .T. ) ;
#128 = DIRECTION ( 'NONE',  ( 0.0000000000000000000, 0.0000000000000000000, 1.000000000000000000 ) ) ;
#129 = ORIENTED_EDGE ( 'NONE', *, *, #87, .F. ) ;
#130 = AXIS2_PLACEMENT_3D ( 'NONE', #318, #147, #98 ) ;
#131 = PRODUCT ( 'Micro_GEC-187-2-030', 'Micro_GEC-187-2-030', '', ( #55 ) ) ;
#132 = PRESENTATION_STYLE_ASSIGNMENT (( #58 ) ) ;
#133 = FILL_AREA_STYLE ('',( #210 ) ) ;
#134 =( CONVERSION_BASED_UNIT ( 'INCH', #237 ) LENGTH_UNIT ( ) NAMED_UNIT ( #68 ) );
#135 = ORIENTED_EDGE ( 'NONE', *, *, #54, .F. ) ;
#136 = APPLICATION_CONTEXT ( 'automotive_design' ) ;
#137 = DIRECTION ( 'NONE',  ( -1.000000000000000000, 0.0000000000000000000, 0.0000000000000000000 ) ) ;
#138 = ORIENTED_EDGE ( 'NONE', *, *, #331, .T. ) ;
#139 = VECTOR ( 'NONE', #118, 39.37007874015748143 ) ;
#140 = CARTESIAN_POINT ( 'NONE',  ( 0.0000000000000000000, 0.0000000000000000000, 2.000000000000000000 ) ) ;
#141 = DIRECTION ( 'NONE',  ( 1.000000000000000000, 0.0000000000000000000, 0.0000000000000000000 ) ) ;
#142 = CARTESIAN_POINT ( 'NONE',  ( 0.0000000000000000000, 0.0000000000000000000, 1.984999999999999654 ) ) ;
#143 = FACE_OUTER_BOUND ( 'NONE', #303, .T. ) ;
#144 = DIRECTION ( 'NONE',  ( 1.000000000000000000, 0.0000000000000000000, 0.0000000000000000000 ) ) ;
#145 = VECTOR ( 'NONE', #233, 39.37007874015748143 ) ;
#146 = CYLINDRICAL_SURFACE ( 'NONE', #32, 0.09365624999999999645 ) ;
#147 = DIRECTION ( 'NONE',  ( -1.224646799147353207E-16, -0.0000000000000000000, -1.000000000000000000 ) ) ;
#148 = EDGE_CURVE ( 'NONE', #156, #218, #40, .T. ) ;
#149 = CIRCLE ( 'NONE', #187, 0.09375000000000001388 ) ;
#150 = FACE_OUTER_BOUND ( 'NONE', #350, .T. ) ;
#151 = CIRCLE ( 'NONE', #235, 0.06365624999999998368 ) ;
#152 = PRESENTATION_LAYER_ASSIGNMENT (  '', '', ( #270 ) ) ;
#153 = PRODUCT_DEFINITION_CONTEXT ( 'detailed design', #189, 'design' ) ;
#154 =( NAMED_UNIT ( * ) SI_UNIT ( $, .STERADIAN. ) SOLID_ANGLE_UNIT ( ) );
#155 = ORIENTED_EDGE ( 'NONE', *, *, #225, .T. ) ;
#156 = VERTEX_POINT ( 'NONE', #171 ) ;
#157 = PRODUCT_RELATED_PRODUCT_CATEGORY ( 'part', '', ( #131 ) ) ;
#158 = ORIENTED_EDGE ( 'NONE', *, *, #148, .T. ) ;
#159 = ORIENTED_EDGE ( 'NONE', *, *, #43, .F. ) ;
#160 = LENGTH_MEASURE_WITH_UNIT ( LENGTH_MEASURE( 0.02539999999999999897 ), #50 );
#161 = EDGE_CURVE ( 'NONE', #333, #218, #60, .T. ) ;
#162 = ORIENTED_EDGE ( 'NONE', *, *, #117, .T. ) ;
#163 = VERTEX_POINT ( 'NONE', #222 ) ;
#164 = AXIS2_PLACEMENT_3D ( 'NONE', #69, #169, #39 ) ;
#165 = AXIS2_PLACEMENT_3D ( 'NONE', #257, #177, #256 ) ;
#166 = MECHANICAL_DESIGN_GEOMETRIC_PRESENTATION_REPRESENTATION (  '', ( #270 ), #3 ) ;
#167 = DIRECTION ( 'NONE',  ( -1.224646799147353207E-16, -0.0000000000000000000, -1.000000000000000000 ) ) ;
#168 = ORIENTED_EDGE ( 'NONE', *, *, #325, .F. ) ;
#169 = DIRECTION ( 'NONE',  ( -1.224646799147353207E-16, -0.0000000000000000000, -1.000000000000000000 ) ) ;
#170 = ORIENTED_EDGE ( 'NONE', *, *, #261, .T. ) ;
#171 = CARTESIAN_POINT ( 'NONE',  ( 0.07874999999999980627, 1.056257864264590573E-17, 2.000000000000000000 ) ) ;
#172 = VERTEX_POINT ( 'NONE', #341 ) ;
#173 = VECTOR ( 'NONE', #183, 39.37007874015747433 ) ;
#174 = DIRECTION ( 'NONE',  ( 0.0000000000000000000, -1.000000000000000000, 0.0000000000000000000 ) ) ;
#175 = CARTESIAN_POINT ( 'NONE',  ( 0.0000000000000000000, 0.0000000000000000000, 0.0000000000000000000 ) ) ;
#176 = DIRECTION ( 'NONE',  ( 0.0000000000000000000, 0.0000000000000000000, 1.000000000000000000 ) ) ;
#177 = DIRECTION ( 'NONE',  ( 1.224646799147353207E-16, 1.000000000000000000, -0.0000000000000000000 ) ) ;
#178 = FACE_OUTER_BOUND ( 'NONE', #59, .T. ) ;
#179 = VECTOR ( 'NONE', #310, 39.37007874015748143 ) ;
#180 =( NAMED_UNIT ( * ) PLANE_ANGLE_UNIT ( ) SI_UNIT ( $, .RADIAN. ) );
#181 = AXIS2_PLACEMENT_3D ( 'NONE', #71, #304, #251 ) ;
#182 = UNCERTAINTY_MEASURE_WITH_UNIT (LENGTH_MEASURE( 1.000000000000000082E-05 ), #20, 'distance_accuracy_value', 'NONE');
#183 = DIRECTION ( 'NONE',  ( -0.1736481776669311639, 2.126576849575782392E-17, 0.9848077530122080203 ) ) ;
#184 = EDGE_LOOP ( 'NONE', ( #112, #158, #269, #82 ) ) ;
#185 = ADVANCED_FACE ( 'NONE', ( #115 ), #89, .T. ) ;
#186 = ORIENTED_EDGE ( 'NONE', *, *, #43, .T. ) ;
#187 = AXIS2_PLACEMENT_3D ( 'NONE', #62, #167, #211 ) ;
#188 = ADVANCED_FACE ( 'NONE', ( #143 ), #91, .T. ) ;
#189 = APPLICATION_CONTEXT ( 'automotive_design' ) ;
#190 = DIRECTION ( 'NONE',  ( 0.0000000000000000000, 0.0000000000000000000, 1.000000000000000000 ) ) ;
#191 = EDGE_CURVE ( 'NONE', #192, #333, #194, .T. ) ;
#192 = VERTEX_POINT ( 'NONE', #224 ) ;
#193 = DIRECTION ( 'NONE',  ( -0.0000000000000000000, -0.0000000000000000000, -1.000000000000000000 ) ) ;
#194 = LINE ( 'NONE', #16, #139 ) ;
#195 = CYLINDRICAL_SURFACE ( 'NONE', #22, 0.09375000000000001388 ) ;
#196 = AXIS2_PLACEMENT_3D ( 'NONE', #14, #88, #144 ) ;
#197 = VECTOR ( 'NONE', #349, 39.37007874015748143 ) ;
#198 = CIRCLE ( 'NONE', #181, 0.07874999999999980627 ) ;
#199 = CARTESIAN_POINT ( 'NONE',  ( 7.654042494670957853E-17, 0.0000000000000000000, 0.6250000000000000000 ) ) ;
#200 = DIRECTION ( 'NONE',  ( -1.000000000000000000, 0.0000000000000000000, 0.0000000000000000000 ) ) ;
#201 = CARTESIAN_POINT ( 'NONE',  ( 0.0000000000000000000, 0.0000000000000000000, 1.984999999999999654 ) ) ;
#202 = CIRCLE ( 'NONE', #46, 0.09375000000000001388 ) ;
#203 = CLOSED_SHELL ( 'NONE', ( #252, #284, #185, #9, #123, #113, #28, #342, #205, #317, #212, #188 ) ) ;
#204 = LINE ( 'NONE', #314, #173 ) ;
#205 = ADVANCED_FACE ( 'NONE', ( #250 ), #339, .T. ) ;
#206 = DIRECTION ( 'NONE',  ( -0.0000000000000000000, -0.0000000000000000000, -1.000000000000000000 ) ) ;
#207 = CARTESIAN_POINT ( 'NONE',  ( 7.660553729477949085E-17, 0.0000000000000000000, 0.6255316826705892286 ) ) ;
#208 = AXIS2_PLACEMENT_3D ( 'NONE', #36, #338, #200 ) ;
#209 = PRESENTATION_LAYER_ASSIGNMENT (  '', '', ( #320 ) ) ;
#210 = FILL_AREA_STYLE_COLOUR ( '', #119 ) ;
#211 = DIRECTION ( 'NONE',  ( 1.000000000000000000, 0.0000000000000000000, 0.0000000000000000000 ) ) ;
#212 = ADVANCED_FACE ( 'NONE', ( #70 ), #15, .F. ) ;
#213 = CIRCLE ( 'NONE', #322, 0.02999999999999999889 ) ;
#214 = ORIENTED_EDGE ( 'NONE', *, *, #125, .T. ) ;
#215 = VERTEX_POINT ( 'NONE', #337 ) ;
#216 = FILL_AREA_STYLE_COLOUR ( '', #297 ) ;
#217 = ORIENTED_EDGE ( 'NONE', *, *, #249, .T. ) ;
#218 = VERTEX_POINT ( 'NONE', #221 ) ;
#219 = CARTESIAN_POINT ( 'NONE',  ( 0.09365624999999999645, 1.146958267826442798E-17, 0.03000000000000000583 ) ) ;
#220 = ORIENTED_EDGE ( 'NONE', *, *, #225, .F. ) ;
#221 = CARTESIAN_POINT ( 'NONE',  ( 0.09375000000000001388, 1.148106374200643863E-17, 1.984999999999999654 ) ) ;
#222 = CARTESIAN_POINT ( 'NONE',  ( -0.09365624999999992706, 1.147532321013543253E-17, 0.6250000000000000000 ) ) ;
#223 = EDGE_CURVE ( 'NONE', #330, #240, #228, .T. ) ;
#224 = CARTESIAN_POINT ( 'NONE',  ( -0.07874999999999980627, 0.0000000000000000000, 2.000000000000000000 ) ) ;
#225 = EDGE_CURVE ( 'NONE', #274, #240, #340, .T. ) ;
#226 = AXIS2_PLACEMENT_3D ( 'NONE', #334, #193, #343 ) ;
#227 = TOROIDAL_SURFACE ( 'NONE', #313, 0.06365624999999998368, 0.02999999999999999889 ) ;
#228 = LINE ( 'NONE', #92, #179 ) ;
#229 = DIRECTION ( 'NONE',  ( 1.000000000000000000, 0.0000000000000000000, 0.0000000000000000000 ) ) ;
#230 = CYLINDRICAL_SURFACE ( 'NONE', #130, 0.09365624999999999645 ) ;
#231 = AXIS2_PLACEMENT_3D ( 'NONE', #175, #253, #120 ) ;
#232 = CARTESIAN_POINT ( 'NONE',  ( 0.0000000000000000000, 0.0000000000000000000, 2.000000000000000000 ) ) ;
#233 = DIRECTION ( 'NONE',  ( -0.0000000000000000000, -0.0000000000000000000, -1.000000000000000000 ) ) ;
#234 = ORIENTED_EDGE ( 'NONE', *, *, #65, .T. ) ;
#235 = AXIS2_PLACEMENT_3D ( 'NONE', #260, #206, #25 ) ;
#236 = SHAPE_DEFINITION_REPRESENTATION ( #275, #335 ) ;
#237 = LENGTH_MEASURE_WITH_UNIT ( LENGTH_MEASURE( 0.02539999999999999897 ), #33 );
#238 = SURFACE_STYLE_USAGE ( .BOTH. , #351 ) ;
#239 = ORIENTED_EDGE ( 'NONE', *, *, #54, .T. ) ;
#240 = VERTEX_POINT ( 'NONE', #219 ) ;
#241 = AXIS2_PLACEMENT_3D ( 'NONE', #105, #190, #243 ) ;
#242 = AXIS2_PLACEMENT_3D ( 'NONE', #142, #309, #66 ) ;
#243 = DIRECTION ( 'NONE',  ( 1.000000000000000000, 0.0000000000000000000, -0.0000000000000000000 ) ) ;
#244 = DIRECTION ( 'NONE',  ( 0.0000000000000000000, 0.0000000000000000000, 1.000000000000000000 ) ) ;
#245 = ORIENTED_EDGE ( 'NONE', *, *, #325, .T. ) ;
#246 = EDGE_CURVE ( 'NONE', #293, #215, #31, .T. ) ;
#247 = DIRECTION ( 'NONE',  ( 1.000000000000000000, 0.0000000000000000000, 0.0000000000000000000 ) ) ;
#248 = PRODUCT_DEFINITION_FORMATION_WITH_SPECIFIED_SOURCE ( 'ANY', '', #131, .NOT_KNOWN. ) ;
#249 = EDGE_CURVE ( 'NONE', #330, #163, #76, .T. ) ;
#250 = FACE_OUTER_BOUND ( 'NONE', #34, .T. ) ;
#251 = DIRECTION ( 'NONE',  ( 1.000000000000000000, 0.0000000000000000000, 0.0000000000000000000 ) ) ;
#252 = ADVANCED_FACE ( 'NONE', ( #178 ), #227, .T. ) ;
#253 = DIRECTION ( 'NONE',  ( 0.0000000000000000000, 0.0000000000000000000, 1.000000000000000000 ) ) ;
#254 = AXIS2_PLACEMENT_3D ( 'NONE', #311, #290, #344 ) ;
#255 = CARTESIAN_POINT ( 'NONE',  ( -0.09375000000000001388, 0.0000000000000000000, 2.000000000000000000 ) ) ;
#256 = DIRECTION ( 'NONE',  ( -1.000000000000000000, 1.224646799147352961E-16, 0.0000000000000000000 ) ) ;
#257 = CARTESIAN_POINT ( 'NONE',  ( -0.06365624999999998368, 7.795642280822368790E-18, 0.02999999999999999889 ) ) ;
#258 = CIRCLE ( 'NONE', #85, 0.09375000000000001388 ) ;
#259 = DIRECTION ( 'NONE',  ( 0.0000000000000000000, 0.0000000000000000000, -1.000000000000000000 ) ) ;
#260 = CARTESIAN_POINT ( 'NONE',  ( 3.673940397442059190E-18, 0.0000000000000000000, 0.0000000000000000000 ) ) ;
#261 = EDGE_CURVE ( 'NONE', #215, #293, #151, .T. ) ;
#262 = ORIENTED_EDGE ( 'NONE', *, *, #148, .F. ) ;
#263 = UNCERTAINTY_MEASURE_WITH_UNIT (LENGTH_MEASURE( 1.000000000000000082E-05 ), #134, 'distance_accuracy_value', 'NONE');
#264 = PLANE ( 'NONE',  #241 ) ;
#265 = APPLICATION_PROTOCOL_DEFINITION ( 'draft international standard', 'automotive_design', 1998, #136 ) ;
#266 = ORIENTED_EDGE ( 'NONE', *, *, #223, .T. ) ;
#267 = ORIENTED_EDGE ( 'NONE', *, *, #246, .F. ) ;
#268 = EDGE_LOOP ( 'NONE', ( #170, #103 ) ) ;
#269 = ORIENTED_EDGE ( 'NONE', *, *, #161, .F. ) ;
#270 = STYLED_ITEM ( 'NONE', ( #132 ), #38 ) ;
#271 = CARTESIAN_POINT ( 'NONE',  ( -0.09374999999999994449, 0.0000000000000000000, 0.6255316826705892286 ) ) ;
#272 = DIRECTION ( 'NONE',  ( 0.0000000000000000000, 0.0000000000000000000, -1.000000000000000000 ) ) ;
#273 = FACE_OUTER_BOUND ( 'NONE', #1, .T. ) ;
#274 = VERTEX_POINT ( 'NONE', #96 ) ;
#275 = PRODUCT_DEFINITION_SHAPE ( 'NONE', 'NONE',  #67 ) ;
#276 = DIRECTION ( 'NONE',  ( 1.000000000000000000, 0.0000000000000000000, 0.0000000000000000000 ) ) ;
#277 = EDGE_LOOP ( 'NONE', ( #296, #326, #52, #111 ) ) ;
#278 = DIRECTION ( 'NONE',  ( 0.0000000000000000000, 0.0000000000000000000, -1.000000000000000000 ) ) ;
#279 = DIRECTION ( 'NONE',  ( -1.000000000000000000, 0.0000000000000000000, 0.0000000000000000000 ) ) ;
#280 = CARTESIAN_POINT ( 'NONE',  ( 0.0000000000000000000, 0.0000000000000000000, 2.000000000000000000 ) ) ;
#281 =( GEOMETRIC_REPRESENTATION_CONTEXT ( 3 ) GLOBAL_UNCERTAINTY_ASSIGNED_CONTEXT ( ( #126 ) ) GLOBAL_UNIT_ASSIGNED_CONTEXT ( ( #300, #78, #154 ) ) REPRESENTATION_CONTEXT ( 'NONE', 'WORKASPACE' ) );
#282 = CARTESIAN_POINT ( 'NONE',  ( -0.09375000000000001388, 0.0000000000000000000, 1.984999999999999654 ) ) ;
#283 = CARTESIAN_POINT ( 'NONE',  ( 3.673940397442059190E-18, 0.0000000000000000000, 0.02999999999999999889 ) ) ;
#284 = ADVANCED_FACE ( 'NONE', ( #345 ), #146, .T. ) ;
#285 = DIRECTION ( 'NONE',  ( 1.000000000000000000, 0.0000000000000000000, 0.0000000000000000000 ) ) ;
#286 = AXIS2_PLACEMENT_3D ( 'NONE', #298, #109, #102 ) ;
#287 = LINE ( 'NONE', #124, #197 ) ;
#288 = AXIS2_PLACEMENT_3D ( 'NONE', #86, #176, #276 ) ;
#289 = EDGE_LOOP ( 'NONE', ( #30, #245, #239, #49 ) ) ;
#290 = DIRECTION ( 'NONE',  ( -1.224646799147353207E-16, -0.0000000000000000000, -1.000000000000000000 ) ) ;
#291 = CARTESIAN_POINT ( 'NONE',  ( 0.0000000000000000000, 0.0000000000000000000, 0.0000000000000000000 ) ) ;
#292 = DIRECTION ( 'NONE',  ( 0.1736481776669313304, 0.0000000000000000000, 0.9848077530122077983 ) ) ;
#293 = VERTEX_POINT ( 'NONE', #93 ) ;
#294 =( GEOMETRIC_REPRESENTATION_CONTEXT ( 3 ) GLOBAL_UNCERTAINTY_ASSIGNED_CONTEXT ( ( #182 ) ) GLOBAL_UNIT_ASSIGNED_CONTEXT ( ( #20, #180, #321 ) ) REPRESENTATION_CONTEXT ( 'NONE', 'WORKASPACE' ) );
#295 = CONICAL_SURFACE ( 'NONE', #121, 0.07874999999999980627, 0.7853981633974466137 ) ;
#296 = ORIENTED_EDGE ( 'NONE', *, *, #312, .F. ) ;
#297 = COLOUR_RGB ( '',0.7921568627450980005, 0.8196078431372548767, 0.9333333333333333481 ) ;
#298 = CARTESIAN_POINT ( 'NONE',  ( 3.673940397442059960E-18, 0.0000000000000000000, 0.03000000000000000583 ) ) ;
#299 = EDGE_CURVE ( 'NONE', #333, #6, #44, .T. ) ;
#300 =( CONVERSION_BASED_UNIT ( 'INCH', #160 ) LENGTH_UNIT ( ) NAMED_UNIT ( #346 ) );
#301 = SURFACE_SIDE_STYLE ('',( #329 ) ) ;
#302 = EDGE_CURVE ( 'NONE', #172, #6, #258, .T. ) ;
#303 = EDGE_LOOP ( 'NONE', ( #80, #107, #64, #220 ) ) ;
#304 = DIRECTION ( 'NONE',  ( 0.0000000000000000000, 0.0000000000000000000, 1.000000000000000000 ) ) ;
#305 = DIRECTION ( 'NONE',  ( 1.224646799147353207E-16, 0.0000000000000000000, 1.000000000000000000 ) ) ;
#306 = EDGE_CURVE ( 'NONE', #218, #333, #202, .T. ) ;
#307 = CYLINDRICAL_SURFACE ( 'NONE', #208, 0.09375000000000001388 ) ;
#308 = AXIS2_PLACEMENT_3D ( 'NONE', #199, #305, #247 ) ;
#309 = DIRECTION ( 'NONE',  ( 0.0000000000000000000, 0.0000000000000000000, -1.000000000000000000 ) ) ;
#310 = DIRECTION ( 'NONE',  ( -1.224646799147353207E-16, -0.0000000000000000000, -1.000000000000000000 ) ) ;
#311 = CARTESIAN_POINT ( 'NONE',  ( 7.654042494670957853E-17, 0.0000000000000000000, 0.6250000000000000000 ) ) ;
#312 = EDGE_CURVE ( 'NONE', #218, #172, #94, .T. ) ;
#313 = AXIS2_PLACEMENT_3D ( 'NONE', #283, #128, #285 ) ;
#314 = CARTESIAN_POINT ( 'NONE',  ( -0.09365624999999992706, 1.146958267826442798E-17, 0.6250000000000000000 ) ) ;
#315 = EDGE_CURVE ( 'NONE', #163, #274, #287, .T. ) ;
#316 = DIRECTION ( 'NONE',  ( -1.224646799147353207E-16, -0.0000000000000000000, -1.000000000000000000 ) ) ;
#317 = ADVANCED_FACE ( 'NONE', ( #150 ), #230, .T. ) ;
#318 = CARTESIAN_POINT ( 'NONE',  ( 0.0000000000000000000, 0.0000000000000000000, 0.0000000000000000000 ) ) ;
#319 = CIRCLE ( 'NONE', #286, 0.09365624999999999645 ) ;
#320 = STYLED_ITEM ( 'NONE', ( #101 ), #335 ) ;
#321 =( NAMED_UNIT ( * ) SI_UNIT ( $, .STERADIAN. ) SOLID_ANGLE_UNIT ( ) );
#322 = AXIS2_PLACEMENT_3D ( 'NONE', #51, #174, #278 ) ;
#323 = EDGE_LOOP ( 'NONE', ( #262, #8, #99, #328 ) ) ;
#324 = LINE ( 'NONE', #79, #7 ) ;
#325 = EDGE_CURVE ( 'NONE', #163, #6, #204, .T. ) ;
#326 = ORIENTED_EDGE ( 'NONE', *, *, #306, .T. ) ;
#327 = CIRCLE ( 'NONE', #196, 0.07874999999999980627 ) ;
#328 = ORIENTED_EDGE ( 'NONE', *, *, #306, .F. ) ;
#329 = SURFACE_STYLE_FILL_AREA ( #27 ) ;
#330 = VERTEX_POINT ( 'NONE', #23 ) ;
#331 = EDGE_CURVE ( 'NONE', #293, #274, #4, .T. ) ;
#332 = FACE_OUTER_BOUND ( 'NONE', #184, .T. ) ;
#333 = VERTEX_POINT ( 'NONE', #282 ) ;
#334 = CARTESIAN_POINT ( 'NONE',  ( 3.673940397442059190E-18, 0.0000000000000000000, 0.0000000000000000000 ) ) ;
#335 = ADVANCED_BREP_SHAPE_REPRESENTATION ( 'Micro_GEC-187-2-030', ( #38, #21 ), #294 ) ;
#336 = DIRECTION ( 'NONE',  ( -0.0000000000000000000, -0.0000000000000000000, -1.000000000000000000 ) ) ;
#337 = CARTESIAN_POINT ( 'NONE',  ( 0.06365624999999998368, 0.0000000000000000000, 0.0000000000000000000 ) ) ;
#338 = DIRECTION ( 'NONE',  ( -0.0000000000000000000, -0.0000000000000000000, -1.000000000000000000 ) ) ;
#339 = CONICAL_SURFACE ( 'NONE', #308, 0.09365624999999999645, 0.1745329251994338360 ) ;
#340 = CIRCLE ( 'NONE', #100, 0.09365624999999999645 ) ;
#341 = CARTESIAN_POINT ( 'NONE',  ( 0.09375000000000006939, 1.148106374200644633E-17, 0.6255316826705892286 ) ) ;
#342 = ADVANCED_FACE ( 'NONE', ( #127 ), #81, .T. ) ;
#343 = DIRECTION ( 'NONE',  ( 1.000000000000000000, 0.0000000000000000000, 0.0000000000000000000 ) ) ;
#344 = DIRECTION ( 'NONE',  ( -1.000000000000000000, 0.0000000000000000000, 0.0000000000000000000 ) ) ;
#345 = FACE_OUTER_BOUND ( 'NONE', #24, .T. ) ;
#346 = DIMENSIONAL_EXPONENTS ( 1.000000000000000000, 0.0000000000000000000, 0.0000000000000000000, 0.0000000000000000000, 0.0000000000000000000, 0.0000000000000000000, 0.0000000000000000000 ) ;
#347 =( LENGTH_UNIT ( ) NAMED_UNIT ( * ) SI_UNIT ( $, .METRE. ) );
#348 = ORIENTED_EDGE ( 'NONE', *, *, #315, .T. ) ;
#349 = DIRECTION ( 'NONE',  ( -1.224646799147353207E-16, -0.0000000000000000000, -1.000000000000000000 ) ) ;
#350 = EDGE_LOOP ( 'NONE', ( #56, #217, #348, #155 ) ) ;
#351 = SURFACE_SIDE_STYLE ('',( #110 ) ) ;
ENDSEC;
END-ISO-10303-21;
