ISO-10303-21;
HEADER;
FILE_DESCRIPTION (( 'STEP AP214' ),
    '1' );
FILE_NAME ('Micro_DMM-120-490.STEP',
    '2021-09-02T16:33:54',
    ( '' ),
    ( '' ),
    'SwSTEP 2.0',
    'SolidWorks 2020',
    '' );
FILE_SCHEMA (( 'AUTOMOTIVE_DESIGN' ));
ENDSEC;

DATA;
#1 = APPLICATION_PROTOCOL_DEFINITION ( 'draft international standard', 'automotive_design', 1998, #245 ) ;
#2 = DIRECTION ( 'NONE',  ( -0.0000000000000000000, -0.0000000000000000000, -1.000000000000000000 ) ) ;
#3 = EDGE_CURVE ( 'NONE', #216, #292, #134, .T. ) ;
#4 = ORIENTED_EDGE ( 'NONE', *, *, #32, .F. ) ;
#5 = CARTESIAN_POINT ( 'NONE',  ( 0.0000000000000000000, 0.0000000000000000000, 0.0000000000000000000 ) ) ;
#6 = CARTESIAN_POINT ( 'NONE',  ( -0.2361705000000001164, 0.0000000000000000000, 1.181102000000000096 ) ) ;
#7 = PRODUCT ( 'Micro_DMM-120-490', 'Micro_DMM-120-490', '', ( #168 ) ) ;
#8 = EDGE_CURVE ( 'NONE', #162, #46, #198, .T. ) ;
#9 =( NAMED_UNIT ( * ) PLANE_ANGLE_UNIT ( ) SI_UNIT ( $, .RADIAN. ) );
#10 = ORIENTED_EDGE ( 'NONE', *, *, #40, .F. ) ;
#11 = MANIFOLD_SOLID_BREP ( 'Cut-Revolve4', #152 ) ;
#12 =( NAMED_UNIT ( * ) SI_UNIT ( $, .STERADIAN. ) SOLID_ANGLE_UNIT ( ) );
#13 = AXIS2_PLACEMENT_3D ( 'NONE', #271, #269, #29 ) ;
#14 = AXIS2_PLACEMENT_3D ( 'NONE', #156, #308, #235 ) ;
#15 =( LENGTH_UNIT ( ) NAMED_UNIT ( * ) SI_UNIT ( $, .METRE. ) );
#16 = LINE ( 'NONE', #73, #230 ) ;
#17 = CIRCLE ( 'NONE', #181, 0.2212205000000019295 ) ;
#18 = ORIENTED_EDGE ( 'NONE', *, *, #225, .F. ) ;
#19 = ORIENTED_EDGE ( 'NONE', *, *, #65, .T. ) ;
#20 = DIRECTION ( 'NONE',  ( 1.000000000000000000, 0.0000000000000000000, 0.0000000000000000000 ) ) ;
#21 = CARTESIAN_POINT ( 'NONE',  ( 0.2362204999999999999, 2.892866792179872647E-17, 3.252717000000002301 ) ) ;
#22 = ADVANCED_FACE ( 'NONE', ( #264 ), #93, .T. ) ;
#23 = DIRECTION ( 'NONE',  ( 1.000000000000000000, 0.0000000000000000000, 0.0000000000000000000 ) ) ;
#24 = CARTESIAN_POINT ( 'NONE',  ( -0.007499999999999999722, 1.492051489358176146E-17, 1.707404996040164512E-17 ) ) ;
#25 = CIRCLE ( 'NONE', #33, 0.007499999999999999722 ) ;
#26 = DIRECTION ( 'NONE',  ( 1.000000000000000000, 0.0000000000000000000, 0.0000000000000000000 ) ) ;
#27 = CARTESIAN_POINT ( 'NONE',  ( 0.0000000000000000000, 0.0000000000000000000, 1.707404996040164512E-17 ) ) ;
#28 = DIRECTION ( 'NONE',  ( 0.7071067811865474617, 8.659560562354932858E-17, -0.7071067811865474617 ) ) ;
#29 = DIRECTION ( 'NONE',  ( -1.000000000000000000, 0.0000000000000000000, 0.0000000000000000000 ) ) ;
#30 = DIRECTION ( 'NONE',  ( -1.000000000000000000, 0.0000000000000000000, 0.0000000000000000000 ) ) ;
#31 = LENGTH_MEASURE_WITH_UNIT ( LENGTH_MEASURE( 0.02539999999999999897 ), #172 );
#32 = EDGE_CURVE ( 'NONE', #292, #239, #194, .T. ) ;
#33 = AXIS2_PLACEMENT_3D ( 'NONE', #164, #142, #218 ) ;
#34 =( GEOMETRIC_REPRESENTATION_CONTEXT ( 3 ) GLOBAL_UNCERTAINTY_ASSIGNED_CONTEXT ( ( #72 ) ) GLOBAL_UNIT_ASSIGNED_CONTEXT ( ( #96, #133, #12 ) ) REPRESENTATION_CONTEXT ( 'NONE', 'WORKASPACE' ) );
#35 = EDGE_LOOP ( 'NONE', ( #104, #323, #49, #136 ) ) ;
#36 = DIRECTION ( 'NONE',  ( 0.0000000000000000000, 0.0000000000000000000, 1.000000000000000000 ) ) ;
#37 = AXIS2_PLACEMENT_3D ( 'NONE', #126, #70, #26 ) ;
#38 = DIMENSIONAL_EXPONENTS ( 1.000000000000000000, 0.0000000000000000000, 0.0000000000000000000, 0.0000000000000000000, 0.0000000000000000000, 0.0000000000000000000, 0.0000000000000000000 ) ;
#39 = ORIENTED_EDGE ( 'NONE', *, *, #145, .T. ) ;
#40 = EDGE_CURVE ( 'NONE', #162, #319, #220, .T. ) ;
#41 =( LENGTH_UNIT ( ) NAMED_UNIT ( * ) SI_UNIT ( $, .METRE. ) );
#42 = VECTOR ( 'NONE', #56, 39.37007874015748854 ) ;
#43 =( GEOMETRIC_REPRESENTATION_CONTEXT ( 3 ) GLOBAL_UNCERTAINTY_ASSIGNED_CONTEXT ( ( #94 ) ) GLOBAL_UNIT_ASSIGNED_CONTEXT ( ( #68, #9, #313 ) ) REPRESENTATION_CONTEXT ( 'NONE', 'WORKASPACE' ) );
#44 = CARTESIAN_POINT ( 'NONE',  ( -0.2362204999999999999, 0.0000000000000000000, 3.252717000000002301 ) ) ;
#45 = DIRECTION ( 'NONE',  ( -1.000000000000000000, 0.0000000000000000000, 0.0000000000000000000 ) ) ;
#46 = VERTEX_POINT ( 'NONE', #21 ) ;
#47 = CIRCLE ( 'NONE', #37, 0.2362204999999999999 ) ;
#48 = ORIENTED_EDGE ( 'NONE', *, *, #195, .T. ) ;
#49 = ORIENTED_EDGE ( 'NONE', *, *, #229, .T. ) ;
#50 = DIRECTION ( 'NONE',  ( -1.000000000000000000, 0.0000000000000000000, 0.0000000000000000000 ) ) ;
#51 = EDGE_CURVE ( 'NONE', #327, #46, #64, .T. ) ;
#52 = DIRECTION ( 'NONE',  ( 1.000000000000000000, 0.0000000000000000000, 0.0000000000000000000 ) ) ;
#53 = CARTESIAN_POINT ( 'NONE',  ( 0.0000000000000000000, 0.0000000000000000000, 0.2286704999999991939 ) ) ;
#54 = COLOUR_RGB ( '',0.7921568627450980005, 0.8196078431372548767, 0.9333333333333333481 ) ;
#55 = ORIENTED_EDGE ( 'NONE', *, *, #160, .T. ) ;
#56 = DIRECTION ( 'NONE',  ( -0.7071067811865474617, 0.0000000000000000000, -0.7071067811865474617 ) ) ;
#57 = DIRECTION ( 'NONE',  ( -1.000000000000000000, 0.0000000000000000000, 0.0000000000000000000 ) ) ;
#58 = CARTESIAN_POINT ( 'NONE',  ( 0.007499999999999999722, 0.0000000000000000000, 1.707404996040164512E-17 ) ) ;
#59 = VERTEX_POINT ( 'NONE', #58 ) ;
#60 = DIMENSIONAL_EXPONENTS ( 1.000000000000000000, 0.0000000000000000000, 0.0000000000000000000, 0.0000000000000000000, 0.0000000000000000000, 0.0000000000000000000, 0.0000000000000000000 ) ;
#61 = EDGE_LOOP ( 'NONE', ( #200, #138, #266, #4 ) ) ;
#62 = CIRCLE ( 'NONE', #325, 0.2362204999999999999 ) ;
#63 = ORIENTED_EDGE ( 'NONE', *, *, #40, .T. ) ;
#64 = CIRCLE ( 'NONE', #316, 0.2362204999999999999 ) ;
#65 = EDGE_CURVE ( 'NONE', #239, #83, #265, .T. ) ;
#66 = ORIENTED_EDGE ( 'NONE', *, *, #8, .T. ) ;
#67 = LINE ( 'NONE', #175, #246 ) ;
#68 =( CONVERSION_BASED_UNIT ( 'INCH', #232 ) LENGTH_UNIT ( ) NAMED_UNIT ( #38 ) );
#69 =( GEOMETRIC_REPRESENTATION_CONTEXT ( 3 ) GLOBAL_UNCERTAINTY_ASSIGNED_CONTEXT ( ( #155 ) ) GLOBAL_UNIT_ASSIGNED_CONTEXT ( ( #190, #167, #118 ) ) REPRESENTATION_CONTEXT ( 'NONE', 'WORKASPACE' ) );
#70 = DIRECTION ( 'NONE',  ( 0.0000000000000000000, 0.0000000000000000000, -1.000000000000000000 ) ) ;
#71 = ORIENTED_EDGE ( 'NONE', *, *, #328, .F. ) ;
#72 = UNCERTAINTY_MEASURE_WITH_UNIT (LENGTH_MEASURE( 1.000000000000000082E-05 ), #96, 'distance_accuracy_value', 'NONE');
#73 = CARTESIAN_POINT ( 'NONE',  ( 0.007499999999999999722, 0.0000000000000000000, 1.707404996040164512E-17 ) ) ;
#74 = EDGE_LOOP ( 'NONE', ( #183, #112 ) ) ;
#75 = VECTOR ( 'NONE', #302, 39.37007874015748143 ) ;
#76 = LINE ( 'NONE', #289, #163 ) ;
#77 = ORIENTED_EDGE ( 'NONE', *, *, #153, .T. ) ;
#78 = PRODUCT_RELATED_PRODUCT_CATEGORY ( 'part', '', ( #7 ) ) ;
#79 = DIRECTION ( 'NONE',  ( -1.000000000000000000, 0.0000000000000000000, 0.0000000000000000000 ) ) ;
#80 = DIRECTION ( 'NONE',  ( 1.000000000000000000, 0.0000000000000000000, -0.0000000000000000000 ) ) ;
#81 = CARTESIAN_POINT ( 'NONE',  ( 0.2212205000000019295, 2.709169772307794108E-17, 3.267717000000000649 ) ) ;
#82 = CARTESIAN_POINT ( 'NONE',  ( 0.0000000000000000000, 0.0000000000000000000, 3.267717000000000649 ) ) ;
#83 = VERTEX_POINT ( 'NONE', #295 ) ;
#84 = PLANE ( 'NONE',  #107 ) ;
#85 = ORIENTED_EDGE ( 'NONE', *, *, #179, .T. ) ;
#86 = FACE_OUTER_BOUND ( 'NONE', #321, .T. ) ;
#87 = DIRECTION ( 'NONE',  ( 0.0000000000000000000, 0.0000000000000000000, 1.000000000000000000 ) ) ;
#88 = EDGE_CURVE ( 'NONE', #292, #216, #127, .T. ) ;
#89 = DIRECTION ( 'NONE',  ( 1.000000000000000000, 0.0000000000000000000, 0.0000000000000000000 ) ) ;
#90 = AXIS2_PLACEMENT_3D ( 'NONE', #249, #87, #52 ) ;
#91 = DIRECTION ( 'NONE',  ( 1.000000000000000000, 0.0000000000000000000, -0.0000000000000000000 ) ) ;
#92 = LINE ( 'NONE', #132, #203 ) ;
#93 = CONICAL_SURFACE ( 'NONE', #13, 0.2212205000000019295, 0.7853981633974482790 ) ;
#94 = UNCERTAINTY_MEASURE_WITH_UNIT (LENGTH_MEASURE( 1.000000000000000082E-05 ), #68, 'distance_accuracy_value', 'NONE');
#95 = SURFACE_STYLE_FILL_AREA ( #312 ) ;
#96 =( CONVERSION_BASED_UNIT ( 'INCH', #205 ) LENGTH_UNIT ( ) NAMED_UNIT ( #60 ) );
#97 = ORIENTED_EDGE ( 'NONE', *, *, #51, .F. ) ;
#98 = ORIENTED_EDGE ( 'NONE', *, *, #195, .F. ) ;
#99 = EDGE_CURVE ( 'NONE', #255, #294, #62, .T. ) ;
#100 = ORIENTED_EDGE ( 'NONE', *, *, #240, .F. ) ;
#101 = DIRECTION ( 'NONE',  ( -0.0000000000000000000, -0.0000000000000000000, -1.000000000000000000 ) ) ;
#102 = CARTESIAN_POINT ( 'NONE',  ( 0.0000000000000000000, 0.0000000000000000000, 1.181102000000000096 ) ) ;
#103 = FACE_OUTER_BOUND ( 'NONE', #228, .T. ) ;
#104 = ORIENTED_EDGE ( 'NONE', *, *, #8, .F. ) ;
#105 = FACE_OUTER_BOUND ( 'NONE', #61, .T. ) ;
#106 = FACE_OUTER_BOUND ( 'NONE', #215, .T. ) ;
#107 = AXIS2_PLACEMENT_3D ( 'NONE', #281, #128, #173 ) ;
#108 = DIRECTION ( 'NONE',  ( -1.000000000000000000, 0.0000000000000000000, 0.0000000000000000000 ) ) ;
#109 = FILL_AREA_STYLE_COLOUR ( '', #54 ) ;
#110 = AXIS2_PLACEMENT_3D ( 'NONE', #147, #326, #80 ) ;
#111 = ORIENTED_EDGE ( 'NONE', *, *, #88, .F. ) ;
#112 = ORIENTED_EDGE ( 'NONE', *, *, #309, .T. ) ;
#113 = AXIS2_PLACEMENT_3D ( 'NONE', #82, #171, #30 ) ;
#114 = SURFACE_SIDE_STYLE ('',( #314 ) ) ;
#115 = DIRECTION ( 'NONE',  ( 0.7071067811865489050, 0.0000000000000000000, 0.7071067811865461294 ) ) ;
#116 = AXIS2_PLACEMENT_3D ( 'NONE', #5, #307, #91 ) ;
#117 = VERTEX_POINT ( 'NONE', #24 ) ;
#118 =( NAMED_UNIT ( * ) SI_UNIT ( $, .STERADIAN. ) SOLID_ANGLE_UNIT ( ) );
#119 = CARTESIAN_POINT ( 'NONE',  ( 0.2212205000000019295, 2.801018282243833685E-17, 3.267717000000000649 ) ) ;
#120 = FACE_OUTER_BOUND ( 'NONE', #317, .T. ) ;
#121 = CYLINDRICAL_SURFACE ( 'NONE', #174, 0.2361705000000000887 ) ;
#122 = CARTESIAN_POINT ( 'NONE',  ( 0.2362204999999999999, 2.892866792179872647E-17, 1.181102000000000096 ) ) ;
#123 = ADVANCED_FACE ( 'NONE', ( #105 ), #121, .T. ) ;
#124 = CARTESIAN_POINT ( 'NONE',  ( 0.0000000000000000000, 0.0000000000000000000, 3.267717000000000649 ) ) ;
#125 = FACE_OUTER_BOUND ( 'NONE', #206, .T. ) ;
#126 = CARTESIAN_POINT ( 'NONE',  ( 0.0000000000000000000, 0.0000000000000000000, 3.252717000000002301 ) ) ;
#127 = CIRCLE ( 'NONE', #305, 0.2361705000000001164 ) ;
#128 = DIRECTION ( 'NONE',  ( -0.0000000000000000000, 0.0000000000000000000, -1.000000000000000000 ) ) ;
#129 = PRODUCT_DEFINITION ( 'UNKNOWN', '', #260, #298 ) ;
#130 = ORIENTED_EDGE ( 'NONE', *, *, #153, .F. ) ;
#131 = AXIS2_PLACEMENT_3D ( 'NONE', #27, #193, #23 ) ;
#132 = CARTESIAN_POINT ( 'NONE',  ( 0.2361705000000000887, 2.892254468780301005E-17, 0.0000000000000000000 ) ) ;
#133 =( NAMED_UNIT ( * ) PLANE_ANGLE_UNIT ( ) SI_UNIT ( $, .RADIAN. ) );
#134 = CIRCLE ( 'NONE', #234, 0.2361705000000001164 ) ;
#135 = DIRECTION ( 'NONE',  ( -0.7071067811865489050, 8.659560562354950115E-17, 0.7071067811865461294 ) ) ;
#136 = ORIENTED_EDGE ( 'NONE', *, *, #160, .F. ) ;
#137 = CARTESIAN_POINT ( 'NONE',  ( 0.2361705000000001720, 2.892254468780301621E-17, 1.181102000000000096 ) ) ;
#138 = ORIENTED_EDGE ( 'NONE', *, *, #328, .T. ) ;
#139 = STYLED_ITEM ( 'NONE', ( #192 ), #11 ) ;
#140 = ORIENTED_EDGE ( 'NONE', *, *, #3, .T. ) ;
#141 = DIRECTION ( 'NONE',  ( 0.0000000000000000000, 0.0000000000000000000, 1.000000000000000000 ) ) ;
#142 = DIRECTION ( 'NONE',  ( -0.0000000000000000000, -0.0000000000000000000, -1.000000000000000000 ) ) ;
#143 = ORIENTED_EDGE ( 'NONE', *, *, #293, .T. ) ;
#144 = FACE_OUTER_BOUND ( 'NONE', #236, .T. ) ;
#145 = EDGE_CURVE ( 'NONE', #319, #162, #17, .T. ) ;
#146 = CONICAL_SURFACE ( 'NONE', #188, 0.007499999999999999722, 0.7853981633974502774 ) ;
#147 = CARTESIAN_POINT ( 'NONE',  ( 0.0000000000000000000, 0.0000000000000000000, 3.267717000000000649 ) ) ;
#148 = DIRECTION ( 'NONE',  ( -0.0000000000000000000, -0.0000000000000000000, -1.000000000000000000 ) ) ;
#149 = CYLINDRICAL_SURFACE ( 'NONE', #113, 0.2362204999999999999 ) ;
#150 = ADVANCED_FACE ( 'NONE', ( #227 ), #303, .F. ) ;
#151 = DIMENSIONAL_EXPONENTS ( 1.000000000000000000, 0.0000000000000000000, 0.0000000000000000000, 0.0000000000000000000, 0.0000000000000000000, 0.0000000000000000000, 0.0000000000000000000 ) ;
#152 = CLOSED_SHELL ( 'NONE', ( #123, #282, #204, #318, #252, #273, #22, #288, #233, #213, #150 ) ) ;
#153 = EDGE_CURVE ( 'NONE', #327, #294, #67, .T. ) ;
#154 = FILL_AREA_STYLE_COLOUR ( '', #306 ) ;
#155 = UNCERTAINTY_MEASURE_WITH_UNIT (LENGTH_MEASURE( 1.000000000000000082E-05 ), #190, 'distance_accuracy_value', 'NONE');
#156 = CARTESIAN_POINT ( 'NONE',  ( 0.0000000000000000000, 0.0000000000000000000, 3.267717000000000649 ) ) ;
#157 = DIRECTION ( 'NONE',  ( -0.0000000000000000000, -0.0000000000000000000, -1.000000000000000000 ) ) ;
#158 = CARTESIAN_POINT ( 'NONE',  ( 0.0000000000000000000, 0.0000000000000000000, 1.707404996040164512E-17 ) ) ;
#159 = AXIS2_PLACEMENT_3D ( 'NONE', #315, #291, #45 ) ;
#160 = EDGE_CURVE ( 'NONE', #46, #327, #47, .T. ) ;
#161 = ORIENTED_EDGE ( 'NONE', *, *, #240, .T. ) ;
#162 = VERTEX_POINT ( 'NONE', #119 ) ;
#163 = VECTOR ( 'NONE', #135, 39.37007874015748143 ) ;
#164 = CARTESIAN_POINT ( 'NONE',  ( 0.0000000000000000000, 0.0000000000000000000, 1.707404996040164512E-17 ) ) ;
#165 = ORIENTED_EDGE ( 'NONE', *, *, #32, .T. ) ;
#166 = DIRECTION ( 'NONE',  ( -0.0000000000000000000, -0.0000000000000000000, -1.000000000000000000 ) ) ;
#167 =( NAMED_UNIT ( * ) PLANE_ANGLE_UNIT ( ) SI_UNIT ( $, .RADIAN. ) );
#168 = PRODUCT_CONTEXT ( 'NONE', #245, 'mechanical' ) ;
#169 = DIRECTION ( 'NONE',  ( 0.0000000000000000000, 0.0000000000000000000, 1.000000000000000000 ) ) ;
#170 = CIRCLE ( 'NONE', #296, 0.2362204999999999999 ) ;
#171 = DIRECTION ( 'NONE',  ( -0.0000000000000000000, -0.0000000000000000000, -1.000000000000000000 ) ) ;
#172 =( LENGTH_UNIT ( ) NAMED_UNIT ( * ) SI_UNIT ( $, .METRE. ) );
#173 = DIRECTION ( 'NONE',  ( -1.000000000000000000, 0.0000000000000000000, 0.0000000000000000000 ) ) ;
#174 = AXIS2_PLACEMENT_3D ( 'NONE', #223, #148, #248 ) ;
#175 = CARTESIAN_POINT ( 'NONE',  ( -0.2362204999999999999, 0.0000000000000000000, 3.267717000000000649 ) ) ;
#176 = FILL_AREA_STYLE ('',( #154 ) ) ;
#177 = AXIS2_PLACEMENT_3D ( 'NONE', #297, #141, #20 ) ;
#178 = ORIENTED_EDGE ( 'NONE', *, *, #229, .F. ) ;
#179 = EDGE_CURVE ( 'NONE', #117, #239, #76, .T. ) ;
#180 = SURFACE_STYLE_USAGE ( .BOTH. , #258 ) ;
#181 = AXIS2_PLACEMENT_3D ( 'NONE', #124, #36, #277 ) ;
#182 = PRESENTATION_LAYER_ASSIGNMENT (  '', '', ( #226 ) ) ;
#183 = ORIENTED_EDGE ( 'NONE', *, *, #184, .T. ) ;
#184 = EDGE_CURVE ( 'NONE', #59, #117, #25, .T. ) ;
#185 = ORIENTED_EDGE ( 'NONE', *, *, #51, .T. ) ;
#186 = ORIENTED_EDGE ( 'NONE', *, *, #99, .T. ) ;
#187 = DIRECTION ( 'NONE',  ( -1.000000000000000000, 0.0000000000000000000, 0.0000000000000000000 ) ) ;
#188 = AXIS2_PLACEMENT_3D ( 'NONE', #247, #169, #89 ) ;
#189 = DIRECTION ( 'NONE',  ( -0.0000000000000000000, -0.0000000000000000000, -1.000000000000000000 ) ) ;
#190 =( CONVERSION_BASED_UNIT ( 'INCH', #31 ) LENGTH_UNIT ( ) NAMED_UNIT ( #151 ) );
#191 = LINE ( 'NONE', #300, #42 ) ;
#192 = PRESENTATION_STYLE_ASSIGNMENT (( #180 ) ) ;
#193 = DIRECTION ( 'NONE',  ( 0.0000000000000000000, 0.0000000000000000000, 1.000000000000000000 ) ) ;
#194 = LINE ( 'NONE', #267, #259 ) ;
#195 = EDGE_CURVE ( 'NONE', #59, #83, #16, .T. ) ;
#196 = AXIS2_PLACEMENT_3D ( 'NONE', #270, #299, #329 ) ;
#197 = CARTESIAN_POINT ( 'NONE',  ( 0.2362204999999999999, 2.892866792179872647E-17, 3.267717000000000649 ) ) ;
#198 = LINE ( 'NONE', #81, #272 ) ;
#199 = APPLICATION_PROTOCOL_DEFINITION ( 'draft international standard', 'automotive_design', 1998, #320 ) ;
#200 = ORIENTED_EDGE ( 'NONE', *, *, #88, .T. ) ;
#201 = CARTESIAN_POINT ( 'NONE',  ( 0.0000000000000000000, 0.0000000000000000000, 1.181102000000000096 ) ) ;
#202 = MECHANICAL_DESIGN_GEOMETRIC_PRESENTATION_REPRESENTATION (  '', ( #139 ), #69 ) ;
#203 = VECTOR ( 'NONE', #283, 39.37007874015748143 ) ;
#204 = ADVANCED_FACE ( 'NONE', ( #241 ), #301, .T. ) ;
#205 = LENGTH_MEASURE_WITH_UNIT ( LENGTH_MEASURE( 0.02539999999999999897 ), #15 );
#206 = EDGE_LOOP ( 'NONE', ( #39, #63 ) ) ;
#207 = SURFACE_STYLE_USAGE ( .BOTH. , #114 ) ;
#208 = ORIENTED_EDGE ( 'NONE', *, *, #99, .F. ) ;
#209 = DIRECTION ( 'NONE',  ( -1.000000000000000000, 0.0000000000000000000, 0.0000000000000000000 ) ) ;
#210 = CYLINDRICAL_SURFACE ( 'NONE', #159, 0.2361705000000000887 ) ;
#211 = PRESENTATION_STYLE_ASSIGNMENT (( #207 ) ) ;
#212 = CARTESIAN_POINT ( 'NONE',  ( 0.0000000000000000000, 0.0000000000000000000, 3.267717000000000649 ) ) ;
#213 = ADVANCED_FACE ( 'NONE', ( #144 ), #210, .T. ) ;
#214 = AXIS2_PLACEMENT_3D ( 'NONE', #212, #268, #262 ) ;
#215 = EDGE_LOOP ( 'NONE', ( #143, #186 ) ) ;
#216 = VERTEX_POINT ( 'NONE', #137 ) ;
#217 = CARTESIAN_POINT ( 'NONE',  ( 0.0000000000000000000, 0.0000000000000000000, 3.252717000000002301 ) ) ;
#218 = DIRECTION ( 'NONE',  ( -1.000000000000000000, 0.0000000000000000000, 0.0000000000000000000 ) ) ;
#219 = CARTESIAN_POINT ( 'NONE',  ( 0.0000000000000000000, 0.0000000000000000000, 1.181102000000000096 ) ) ;
#220 = CIRCLE ( 'NONE', #177, 0.2212205000000019295 ) ;
#221 = MECHANICAL_DESIGN_GEOMETRIC_PRESENTATION_REPRESENTATION (  '', ( #226 ), #34 ) ;
#222 = PLANE ( 'NONE',  #110 ) ;
#223 = CARTESIAN_POINT ( 'NONE',  ( 0.0000000000000000000, 0.0000000000000000000, 0.0000000000000000000 ) ) ;
#224 = SHAPE_DEFINITION_REPRESENTATION ( #231, #253 ) ;
#225 = EDGE_CURVE ( 'NONE', #46, #255, #237, .T. ) ;
#226 = STYLED_ITEM ( 'NONE', ( #211 ), #253 ) ;
#227 = FACE_OUTER_BOUND ( 'NONE', #74, .T. ) ;
#228 = EDGE_LOOP ( 'NONE', ( #242, #85, #19, #98 ) ) ;
#229 = EDGE_CURVE ( 'NONE', #319, #327, #191, .T. ) ;
#230 = VECTOR ( 'NONE', #115, 39.37007874015748143 ) ;
#231 = PRODUCT_DEFINITION_SHAPE ( 'NONE', 'NONE',  #129 ) ;
#232 = LENGTH_MEASURE_WITH_UNIT ( LENGTH_MEASURE( 0.02539999999999999897 ), #41 );
#233 = ADVANCED_FACE ( 'NONE', ( #86 ), #254, .T. ) ;
#234 = AXIS2_PLACEMENT_3D ( 'NONE', #102, #189, #57 ) ;
#235 = DIRECTION ( 'NONE',  ( -1.000000000000000000, 0.0000000000000000000, 0.0000000000000000000 ) ) ;
#236 = EDGE_LOOP ( 'NONE', ( #71, #140, #165, #100 ) ) ;
#237 = LINE ( 'NONE', #197, #75 ) ;
#238 = EDGE_LOOP ( 'NONE', ( #111, #276 ) ) ;
#239 = VERTEX_POINT ( 'NONE', #274 ) ;
#240 = EDGE_CURVE ( 'NONE', #83, #239, #251, .T. ) ;
#241 = FACE_OUTER_BOUND ( 'NONE', #310, .T. ) ;
#242 = ORIENTED_EDGE ( 'NONE', *, *, #309, .F. ) ;
#243 = CARTESIAN_POINT ( 'NONE',  ( 0.0000000000000000000, 0.0000000000000000000, 1.181102000000000096 ) ) ;
#244 = DIRECTION ( 'NONE',  ( -0.0000000000000000000, -0.0000000000000000000, -1.000000000000000000 ) ) ;
#245 = APPLICATION_CONTEXT ( 'automotive_design' ) ;
#246 = VECTOR ( 'NONE', #157, 39.37007874015748143 ) ;
#247 = CARTESIAN_POINT ( 'NONE',  ( 0.0000000000000000000, 0.0000000000000000000, 1.707404996040164512E-17 ) ) ;
#248 = DIRECTION ( 'NONE',  ( -1.000000000000000000, 0.0000000000000000000, 0.0000000000000000000 ) ) ;
#249 = CARTESIAN_POINT ( 'NONE',  ( 0.0000000000000000000, 0.0000000000000000000, 0.0000000000000000000 ) ) ;
#250 = EDGE_LOOP ( 'NONE', ( #185, #304, #287, #130 ) ) ;
#251 = CIRCLE ( 'NONE', #196, 0.2361705000000000609 ) ;
#252 = ADVANCED_FACE ( 'NONE', ( #120 ), #149, .T. ) ;
#253 = ADVANCED_BREP_SHAPE_REPRESENTATION ( 'Micro_DMM-120-490', ( #11, #90 ), #43 ) ;
#254 = CONICAL_SURFACE ( 'NONE', #131, 0.007499999999999999722, 0.7853981633974502774 ) ;
#255 = VERTEX_POINT ( 'NONE', #122 ) ;
#256 = ORIENTED_EDGE ( 'NONE', *, *, #184, .F. ) ;
#257 = CYLINDRICAL_SURFACE ( 'NONE', #14, 0.2362204999999999999 ) ;
#258 = SURFACE_SIDE_STYLE ('',( #95 ) ) ;
#259 = VECTOR ( 'NONE', #244, 39.37007874015748143 ) ;
#260 = PRODUCT_DEFINITION_FORMATION_WITH_SPECIFIED_SOURCE ( 'ANY', '', #7, .NOT_KNOWN. ) ;
#261 = CARTESIAN_POINT ( 'NONE',  ( -0.2212205000000019295, 0.0000000000000000000, 3.267717000000000649 ) ) ;
#262 = DIRECTION ( 'NONE',  ( -1.000000000000000000, 0.0000000000000000000, 0.0000000000000000000 ) ) ;
#263 = ORIENTED_EDGE ( 'NONE', *, *, #179, .F. ) ;
#264 = FACE_OUTER_BOUND ( 'NONE', #35, .T. ) ;
#265 = CIRCLE ( 'NONE', #290, 0.2361705000000000609 ) ;
#266 = ORIENTED_EDGE ( 'NONE', *, *, #65, .F. ) ;
#267 = CARTESIAN_POINT ( 'NONE',  ( -0.2361705000000000887, 0.0000000000000000000, 0.0000000000000000000 ) ) ;
#268 = DIRECTION ( 'NONE',  ( 0.0000000000000000000, 0.0000000000000000000, -1.000000000000000000 ) ) ;
#269 = DIRECTION ( 'NONE',  ( 0.0000000000000000000, 0.0000000000000000000, -1.000000000000000000 ) ) ;
#270 = CARTESIAN_POINT ( 'NONE',  ( 0.0000000000000000000, 0.0000000000000000000, 0.2286704999999991939 ) ) ;
#271 = CARTESIAN_POINT ( 'NONE',  ( 0.0000000000000000000, 0.0000000000000000000, 3.267717000000000649 ) ) ;
#272 = VECTOR ( 'NONE', #28, 39.37007874015748854 ) ;
#273 = ADVANCED_FACE ( 'NONE', ( #125 ), #222, .T. ) ;
#274 = CARTESIAN_POINT ( 'NONE',  ( -0.2361705000000000609, 2.892254468780301005E-17, 0.2286704999999991939 ) ) ;
#275 = DIRECTION ( 'NONE',  ( 1.000000000000000000, 0.0000000000000000000, 0.0000000000000000000 ) ) ;
#276 = ORIENTED_EDGE ( 'NONE', *, *, #3, .F. ) ;
#277 = DIRECTION ( 'NONE',  ( 1.000000000000000000, 0.0000000000000000000, 0.0000000000000000000 ) ) ;
#278 = CARTESIAN_POINT ( 'NONE',  ( -0.2362204999999999999, 0.0000000000000000000, 1.181102000000000096 ) ) ;
#279 = FACE_BOUND ( 'NONE', #238, .T. ) ;
#280 = PRESENTATION_LAYER_ASSIGNMENT (  '', '', ( #139 ) ) ;
#281 = CARTESIAN_POINT ( 'NONE',  ( 0.2361705000000001164, 0.0000000000000000000, 1.181102000000000096 ) ) ;
#282 = ADVANCED_FACE ( 'NONE', ( #103 ), #146, .T. ) ;
#283 = DIRECTION ( 'NONE',  ( -0.0000000000000000000, -0.0000000000000000000, -1.000000000000000000 ) ) ;
#284 = AXIS2_PLACEMENT_3D ( 'NONE', #158, #311, #209 ) ;
#285 = CIRCLE ( 'NONE', #284, 0.007499999999999999722 ) ;
#286 = FACE_OUTER_BOUND ( 'NONE', #250, .T. ) ;
#287 = ORIENTED_EDGE ( 'NONE', *, *, #293, .F. ) ;
#288 = ADVANCED_FACE ( 'NONE', ( #279, #106 ), #84, .T. ) ;
#289 = CARTESIAN_POINT ( 'NONE',  ( -0.007499999999999999722, 9.184850993605147975E-19, 1.707404996040164512E-17 ) ) ;
#290 = AXIS2_PLACEMENT_3D ( 'NONE', #53, #101, #187 ) ;
#291 = DIRECTION ( 'NONE',  ( -0.0000000000000000000, -0.0000000000000000000, -1.000000000000000000 ) ) ;
#292 = VERTEX_POINT ( 'NONE', #6 ) ;
#293 = EDGE_CURVE ( 'NONE', #294, #255, #170, .T. ) ;
#294 = VERTEX_POINT ( 'NONE', #278 ) ;
#295 = CARTESIAN_POINT ( 'NONE',  ( 0.2361705000000000609, 0.0000000000000000000, 0.2286704999999991939 ) ) ;
#296 = AXIS2_PLACEMENT_3D ( 'NONE', #201, #2, #108 ) ;
#297 = CARTESIAN_POINT ( 'NONE',  ( 0.0000000000000000000, 0.0000000000000000000, 3.267717000000000649 ) ) ;
#298 = PRODUCT_DEFINITION_CONTEXT ( 'detailed design', #320, 'design' ) ;
#299 = DIRECTION ( 'NONE',  ( -0.0000000000000000000, -0.0000000000000000000, -1.000000000000000000 ) ) ;
#300 = CARTESIAN_POINT ( 'NONE',  ( -0.2212205000000019295, 0.0000000000000000000, 3.267717000000000649 ) ) ;
#301 = CONICAL_SURFACE ( 'NONE', #214, 0.2212205000000019295, 0.7853981633974482790 ) ;
#302 = DIRECTION ( 'NONE',  ( -0.0000000000000000000, -0.0000000000000000000, -1.000000000000000000 ) ) ;
#303 = PLANE ( 'NONE',  #116 ) ;
#304 = ORIENTED_EDGE ( 'NONE', *, *, #225, .T. ) ;
#305 = AXIS2_PLACEMENT_3D ( 'NONE', #243, #166, #50 ) ;
#306 = COLOUR_RGB ( '',0.7921568627450980005, 0.8196078431372548767, 0.9333333333333333481 ) ;
#307 = DIRECTION ( 'NONE',  ( 0.0000000000000000000, 0.0000000000000000000, 1.000000000000000000 ) ) ;
#308 = DIRECTION ( 'NONE',  ( -0.0000000000000000000, -0.0000000000000000000, -1.000000000000000000 ) ) ;
#309 = EDGE_CURVE ( 'NONE', #117, #59, #285, .T. ) ;
#310 = EDGE_LOOP ( 'NONE', ( #10, #66, #97, #178 ) ) ;
#311 = DIRECTION ( 'NONE',  ( -0.0000000000000000000, -0.0000000000000000000, -1.000000000000000000 ) ) ;
#312 = FILL_AREA_STYLE ('',( #109 ) ) ;
#313 =( NAMED_UNIT ( * ) SI_UNIT ( $, .STERADIAN. ) SOLID_ANGLE_UNIT ( ) );
#314 = SURFACE_STYLE_FILL_AREA ( #176 ) ;
#315 = CARTESIAN_POINT ( 'NONE',  ( 0.0000000000000000000, 0.0000000000000000000, 0.0000000000000000000 ) ) ;
#316 = AXIS2_PLACEMENT_3D ( 'NONE', #217, #322, #275 ) ;
#317 = EDGE_LOOP ( 'NONE', ( #18, #55, #77, #208 ) ) ;
#318 = ADVANCED_FACE ( 'NONE', ( #286 ), #257, .T. ) ;
#319 = VERTEX_POINT ( 'NONE', #261 ) ;
#320 = APPLICATION_CONTEXT ( 'automotive_design' ) ;
#321 = EDGE_LOOP ( 'NONE', ( #263, #256, #48, #161 ) ) ;
#322 = DIRECTION ( 'NONE',  ( 0.0000000000000000000, 0.0000000000000000000, -1.000000000000000000 ) ) ;
#323 = ORIENTED_EDGE ( 'NONE', *, *, #145, .F. ) ;
#324 = DIRECTION ( 'NONE',  ( -0.0000000000000000000, -0.0000000000000000000, -1.000000000000000000 ) ) ;
#325 = AXIS2_PLACEMENT_3D ( 'NONE', #219, #324, #79 ) ;
#326 = DIRECTION ( 'NONE',  ( 0.0000000000000000000, 0.0000000000000000000, 1.000000000000000000 ) ) ;
#327 = VERTEX_POINT ( 'NONE', #44 ) ;
#328 = EDGE_CURVE ( 'NONE', #216, #83, #92, .T. ) ;
#329 = DIRECTION ( 'NONE',  ( -1.000000000000000000, 0.0000000000000000000, 0.0000000000000000000 ) ) ;
ENDSEC;
END-ISO-10303-21;
