ISO-10303-21;
HEADER;
FILE_DESCRIPTION (( 'STEP AP214' ),
    '1' );
FILE_NAME ('59689.STEP',
    '2023-07-24T15:24:21',
    ( '' ),
    ( '' ),
    'SwSTEP 2.0',
    'SolidWorks 2023',
    '' );
FILE_SCHEMA (( 'AUTOMOTIVE_DESIGN' ));
ENDSEC;

DATA;
#1 = CIRCLE ( 'NONE', #301, 3.000000000000000000 ) ;
#2 = AXIS2_PLACEMENT_3D ( 'NONE', #300, #210, #182 ) ;
#3 = COLOUR_RGB ( '',0.7921568627450980005, 0.8196078431372548767, 0.9333333333333333481 ) ;
#4 = PRESENTATION_STYLE_ASSIGNMENT (( #233 ) ) ;
#5 = PRODUCT_CONTEXT ( 'NONE', #96, 'mechanical' ) ;
#6 = EDGE_CURVE ( 'NONE', #81, #215, #325, .T. ) ;
#7 = DIRECTION ( 'NONE',  ( -1.224646799147352961E-16, 0.000000000000000000, -1.000000000000000000 ) ) ;
#8 = AXIS2_PLACEMENT_3D ( 'NONE', #177, #323, #69 ) ;
#9 = AXIS2_PLACEMENT_3D ( 'NONE', #226, #144, #306 ) ;
#10 =( LENGTH_UNIT ( ) NAMED_UNIT ( * ) SI_UNIT ( .MILLI., .METRE. ) );
#11 =( NAMED_UNIT ( * ) PLANE_ANGLE_UNIT ( ) SI_UNIT ( $, .RADIAN. ) );
#12 = AXIS2_PLACEMENT_3D ( 'NONE', #63, #213, #354 ) ;
#13 = VECTOR ( 'NONE', #101, 1000.000000000000000 ) ;
#14 = ADVANCED_FACE ( 'NONE', ( #305 ), #370, .F. ) ;
#15 =( NAMED_UNIT ( * ) SI_UNIT ( $, .STERADIAN. ) SOLID_ANGLE_UNIT ( ) );
#16 =( LENGTH_UNIT ( ) NAMED_UNIT ( * ) SI_UNIT ( .MILLI., .METRE. ) );
#17 = SURFACE_STYLE_USAGE ( .BOTH. , #274 ) ;
#18 =( GEOMETRIC_REPRESENTATION_CONTEXT ( 3 ) GLOBAL_UNCERTAINTY_ASSIGNED_CONTEXT ( ( #261 ) ) GLOBAL_UNIT_ASSIGNED_CONTEXT ( ( #272, #129, #103 ) ) REPRESENTATION_CONTEXT ( 'NONE', 'WORKASPACE' ) );
#19 = ORIENTED_EDGE ( 'NONE', *, *, #319, .F. ) ;
#20 = CYLINDRICAL_SURFACE ( 'NONE', #134, 4.000000000000000000 ) ;
#21 = DIRECTION ( 'NONE',  ( -1.000000000000000000, -1.223542297630008506E-16, 0.000000000000000000 ) ) ;
#22 = ORIENTED_EDGE ( 'NONE', *, *, #128, .F. ) ;
#23 = CARTESIAN_POINT ( 'NONE',  ( 4.000000000000000000, 75.00000000000000000, 4.898587196589412829E-16 ) ) ;
#24 = VERTEX_POINT ( 'NONE', #309 ) ;
#25 =( LENGTH_UNIT ( ) NAMED_UNIT ( * ) SI_UNIT ( .MILLI., .METRE. ) );
#26 = FACE_OUTER_BOUND ( 'NONE', #330, .T. ) ;
#27 = MECHANICAL_DESIGN_GEOMETRIC_PRESENTATION_REPRESENTATION (  '', ( #186 ), #277 ) ;
#28 =( NAMED_UNIT ( * ) SI_UNIT ( $, .STERADIAN. ) SOLID_ANGLE_UNIT ( ) );
#29 = VERTEX_POINT ( 'NONE', #247 ) ;
#30 = DIRECTION ( 'NONE',  ( -0.000000000000000000, -1.000000000000000000, -0.000000000000000000 ) ) ;
#31 =( NAMED_UNIT ( * ) SI_UNIT ( $, .STERADIAN. ) SOLID_ANGLE_UNIT ( ) );
#32 = PRODUCT_DEFINITION_SHAPE ( 'NONE', 'NONE',  #312 ) ;
#33 = PRESENTATION_STYLE_ASSIGNMENT (( #17 ) ) ;
#34 = ADVANCED_FACE ( 'NONE', ( #26 ), #72, .T. ) ;
#35 = PRODUCT_DEFINITION_FORMATION_WITH_SPECIFIED_SOURCE ( 'ANY', '', #290, .NOT_KNOWN. ) ;
#36 = CARTESIAN_POINT ( 'NONE',  ( -4.000000000000000000, 75.00000000000000000, 0.000000000000000000 ) ) ;
#37 = UNCERTAINTY_MEASURE_WITH_UNIT (LENGTH_MEASURE( 1.000000000000000082E-05 ), #335, 'distance_accuracy_value', 'NONE');
#38 =( NAMED_UNIT ( * ) SI_UNIT ( $, .STERADIAN. ) SOLID_ANGLE_UNIT ( ) );
#39 = AXIS2_PLACEMENT_3D ( 'NONE', #304, #189, #360 ) ;
#40 = UNCERTAINTY_MEASURE_WITH_UNIT (LENGTH_MEASURE( 1.000000000000000082E-05 ), #45, 'distance_accuracy_value', 'NONE');
#41 = COLOUR_RGB ( '',1.000000000000000000, 0.000000000000000000, 0.000000000000000000 ) ;
#42 = CARTESIAN_POINT ( 'NONE',  ( 4.770489558936219510E-15, 24.00000000000000000, 0.000000000000000000 ) ) ;
#43 = UNCERTAINTY_MEASURE_WITH_UNIT (LENGTH_MEASURE( 1.000000000000000082E-05 ), #10, 'distance_accuracy_value', 'NONE');
#44 = FACE_OUTER_BOUND ( 'NONE', #141, .T. ) ;
#45 =( LENGTH_UNIT ( ) NAMED_UNIT ( * ) SI_UNIT ( .MILLI., .METRE. ) );
#46 = FILL_AREA_STYLE ('',( #193 ) ) ;
#47 = VERTEX_POINT ( 'NONE', #75 ) ;
#48 = CIRCLE ( 'NONE', #12, 4.000000000000000000 ) ;
#49 = DIRECTION ( 'NONE',  ( -1.223542297630008506E-16, 1.000000000000000000, -0.000000000000000000 ) ) ;
#50 = CYLINDRICAL_SURFACE ( 'NONE', #345, 3.999999999999998224 ) ;
#51 = SURFACE_STYLE_FILL_AREA ( #80 ) ;
#52 = SURFACE_STYLE_FILL_AREA ( #308 ) ;
#53 = EDGE_LOOP ( 'NONE', ( #166, #108, #356, #169 ) ) ;
#54 = STYLED_ITEM ( 'NONE', ( #33 ), #78 ) ;
#55 = STYLED_ITEM ( 'NONE', ( #255 ), #334 ) ;
#56 = DIRECTION ( 'NONE',  ( 0.000000000000000000, -0.000000000000000000, 1.000000000000000000 ) ) ;
#57 = DIRECTION ( 'NONE',  ( 0.000000000000000000, 0.000000000000000000, 1.000000000000000000 ) ) ;
#58 = ADVANCED_FACE ( 'NONE', ( #119 ), #50, .T. ) ;
#59 = CYLINDRICAL_SURFACE ( 'NONE', #296, 4.000000000000000000 ) ;
#60 = DIRECTION ( 'NONE',  ( 0.000000000000000000, 0.000000000000000000, -1.000000000000000000 ) ) ;
#61 = CARTESIAN_POINT ( 'NONE',  ( 0.000000000000000000, 0.000000000000000000, 0.000000000000000000 ) ) ;
#62 = SURFACE_STYLE_USAGE ( .BOTH. , #200 ) ;
#63 = CARTESIAN_POINT ( 'NONE',  ( 0.000000000000000000, 1.000000000000000000, 0.000000000000000000 ) ) ;
#64 = CARTESIAN_POINT ( 'NONE',  ( 0.000000000000000000, 0.000000000000000000, 0.000000000000000000 ) ) ;
#65 = MECHANICAL_DESIGN_GEOMETRIC_PRESENTATION_REPRESENTATION (  '', ( #93 ), #123 ) ;
#66 = UNCERTAINTY_MEASURE_WITH_UNIT (LENGTH_MEASURE( 1.000000000000000082E-05 ), #211, 'distance_accuracy_value', 'NONE');
#67 = AXIS2_PLACEMENT_3D ( 'NONE', #288, #199, #246 ) ;
#68 = CARTESIAN_POINT ( 'NONE',  ( -3.999999999999991562, 24.00000000000000000, 0.000000000000000000 ) ) ;
#69 = DIRECTION ( 'NONE',  ( 0.000000000000000000, 0.000000000000000000, -1.000000000000000000 ) ) ;
#70 = LINE ( 'NONE', #184, #13 ) ;
#71 = PRESENTATION_STYLE_ASSIGNMENT (( #206 ) ) ;
#72 = CYLINDRICAL_SURFACE ( 'NONE', #39, 3.999999999999998224 ) ;
#73 = ORIENTED_EDGE ( 'NONE', *, *, #212, .T. ) ;
#74 = SURFACE_STYLE_FILL_AREA ( #46 ) ;
#75 = CARTESIAN_POINT ( 'NONE',  ( 0.000000000000000000, 1.000000000000000000, -4.000000000000000000 ) ) ;
#76 = STYLED_ITEM ( 'NONE', ( #351 ), #204 ) ;
#77 = VECTOR ( 'NONE', #82, 1000.000000000000000 ) ;
#78 = ADVANCED_FACE ( 'NONE', ( #168 ), #249, .T. ) ;
#79 = FILL_AREA_STYLE_COLOUR ( '', #276 ) ;
#80 = FILL_AREA_STYLE ('',( #221 ) ) ;
#81 = VERTEX_POINT ( 'NONE', #94 ) ;
#82 = DIRECTION ( 'NONE',  ( -0.000000000000000000, -1.000000000000000000, -0.000000000000000000 ) ) ;
#83 = CARTESIAN_POINT ( 'NONE',  ( 4.770489558936219510E-15, 24.00000000000000000, 0.000000000000000000 ) ) ;
#84 = DIRECTION ( 'NONE',  ( 0.000000000000000000, 0.000000000000000000, -1.000000000000000000 ) ) ;
#85 = DIRECTION ( 'NONE',  ( -0.000000000000000000, -1.000000000000000000, -0.000000000000000000 ) ) ;
#86 = EDGE_CURVE ( 'NONE', #310, #250, #190, .T. ) ;
#87 = MECHANICAL_DESIGN_GEOMETRIC_PRESENTATION_REPRESENTATION (  '', ( #54 ), #106 ) ;
#88 = FACE_OUTER_BOUND ( 'NONE', #329, .T. ) ;
#89 = SURFACE_SIDE_STYLE ('',( #151 ) ) ;
#90 = APPLICATION_CONTEXT ( 'automotive_design' ) ;
#91 =( LENGTH_UNIT ( ) NAMED_UNIT ( * ) SI_UNIT ( .MILLI., .METRE. ) );
#92 = DIRECTION ( 'NONE',  ( 1.000000000000000000, 0.000000000000000000, -1.224646799147353207E-16 ) ) ;
#93 = STYLED_ITEM ( 'NONE', ( #162 ), #258 ) ;
#94 = CARTESIAN_POINT ( 'NONE',  ( 4.000000000000000000, 24.00000000000000000, 4.898587196589413815E-16 ) ) ;
#95 = SURFACE_SIDE_STYLE ('',( #241 ) ) ;
#96 = APPLICATION_CONTEXT ( 'automotive_design' ) ;
#97 = SURFACE_STYLE_FILL_AREA ( #187 ) ;
#98 = DIRECTION ( 'NONE',  ( -1.000000000000000000, 0.000000000000000000, 0.000000000000000000 ) ) ;
#99 = EDGE_CURVE ( 'NONE', #250, #310, #1, .T. ) ;
#100 = FILL_AREA_STYLE_COLOUR ( '', #208 ) ;
#101 = DIRECTION ( 'NONE',  ( -0.000000000000000000, -1.000000000000000000, -0.000000000000000000 ) ) ;
#102 = DIRECTION ( 'NONE',  ( -0.000000000000000000, -1.000000000000000000, -0.000000000000000000 ) ) ;
#103 =( NAMED_UNIT ( * ) SI_UNIT ( $, .STERADIAN. ) SOLID_ANGLE_UNIT ( ) );
#104 = DIRECTION ( 'NONE',  ( -0.000000000000000000, -1.000000000000000000, -0.000000000000000000 ) ) ;
#105 = ORIENTED_EDGE ( 'NONE', *, *, #86, .T. ) ;
#106 =( GEOMETRIC_REPRESENTATION_CONTEXT ( 3 ) GLOBAL_UNCERTAINTY_ASSIGNED_CONTEXT ( ( #238 ) ) GLOBAL_UNIT_ASSIGNED_CONTEXT ( ( #174, #152, #31 ) ) REPRESENTATION_CONTEXT ( 'NONE', 'WORKASPACE' ) );
#107 = CIRCLE ( 'NONE', #8, 4.000000000000000000 ) ;
#108 = ORIENTED_EDGE ( 'NONE', *, *, #269, .T. ) ;
#109 = FACE_OUTER_BOUND ( 'NONE', #120, .T. ) ;
#110 = ADVANCED_FACE ( 'NONE', ( #175 ), #145, .T. ) ;
#111 = DIRECTION ( 'NONE',  ( 0.000000000000000000, 0.000000000000000000, -1.000000000000000000 ) ) ;
#112 = AXIS2_PLACEMENT_3D ( 'NONE', #198, #164, #21 ) ;
#113 = MECHANICAL_DESIGN_GEOMETRIC_PRESENTATION_REPRESENTATION (  '', ( #76 ), #320 ) ;
#114 = AXIS2_PLACEMENT_3D ( 'NONE', #116, #30, #111 ) ;
#115 = ORIENTED_EDGE ( 'NONE', *, *, #314, .T. ) ;
#116 = CARTESIAN_POINT ( 'NONE',  ( 0.000000000000000000, 1.000000000000000000, 0.000000000000000000 ) ) ;
#117 = ORIENTED_EDGE ( 'NONE', *, *, #137, .F. ) ;
#118 = SURFACE_SIDE_STYLE ('',( #52 ) ) ;
#119 = FACE_OUTER_BOUND ( 'NONE', #367, .T. ) ;
#120 = EDGE_LOOP ( 'NONE', ( #361, #364 ) ) ;
#121 = CARTESIAN_POINT ( 'NONE',  ( 3.999999999999996447, 75.00000000000000000, 4.898587196589410857E-16 ) ) ;
#122 = DIRECTION ( 'NONE',  ( -0.000000000000000000, -1.000000000000000000, -0.000000000000000000 ) ) ;
#123 =( GEOMETRIC_REPRESENTATION_CONTEXT ( 3 ) GLOBAL_UNCERTAINTY_ASSIGNED_CONTEXT ( ( #267 ) ) GLOBAL_UNIT_ASSIGNED_CONTEXT ( ( #25, #279, #303 ) ) REPRESENTATION_CONTEXT ( 'NONE', 'WORKASPACE' ) );
#124 = FACE_OUTER_BOUND ( 'NONE', #53, .T. ) ;
#125 = PRODUCT_DEFINITION_CONTEXT ( 'detailed design', #90, 'design' ) ;
#126 = PRESENTATION_LAYER_ASSIGNMENT (  '', '', ( #286 ) ) ;
#127 = DIRECTION ( 'NONE',  ( 0.000000000000000000, -1.000000000000000000, -0.000000000000000000 ) ) ;
#128 = EDGE_CURVE ( 'NONE', #47, #310, #153, .T. ) ;
#129 =( NAMED_UNIT ( * ) PLANE_ANGLE_UNIT ( ) SI_UNIT ( $, .RADIAN. ) );
#130 = FILL_AREA_STYLE_COLOUR ( '', #365 ) ;
#131 =( NAMED_UNIT ( * ) PLANE_ANGLE_UNIT ( ) SI_UNIT ( $, .RADIAN. ) );
#132 = AXIS2_PLACEMENT_3D ( 'NONE', #313, #85, #176 ) ;
#133 = EDGE_LOOP ( 'NONE', ( #278, #222 ) ) ;
#134 = AXIS2_PLACEMENT_3D ( 'NONE', #223, #253, #84 ) ;
#135 = LINE ( 'NONE', #331, #77 ) ;
#136 = ORIENTED_EDGE ( 'NONE', *, *, #212, .F. ) ;
#137 = EDGE_CURVE ( 'NONE', #215, #24, #228, .T. ) ;
#138 = ORIENTED_EDGE ( 'NONE', *, *, #230, .T. ) ;
#139 = SURFACE_STYLE_USAGE ( .BOTH. , #227 ) ;
#140 = ORIENTED_EDGE ( 'NONE', *, *, #99, .F. ) ;
#141 = EDGE_LOOP ( 'NONE', ( #149, #285 ) ) ;
#142 = COLOUR_RGB ( '',1.000000000000000000, 0.000000000000000000, 0.000000000000000000 ) ;
#143 = ORIENTED_EDGE ( 'NONE', *, *, #147, .T. ) ;
#144 = DIRECTION ( 'NONE',  ( 0.000000000000000000, 0.000000000000000000, 1.000000000000000000 ) ) ;
#145 = TOROIDAL_SURFACE ( 'NONE', #275, 3.000000000000000000, 1.000000000000000000 ) ;
#146 = AXIS2_PLACEMENT_3D ( 'NONE', #150, #264, #324 ) ;
#147 = EDGE_CURVE ( 'NONE', #362, #250, #229, .T. ) ;
#148 = CARTESIAN_POINT ( 'NONE',  ( 0.000000000000000000, 0.000000000000000000, -3.000000000000000000 ) ) ;
#149 = ORIENTED_EDGE ( 'NONE', *, *, #217, .F. ) ;
#150 = CARTESIAN_POINT ( 'NONE',  ( -1.469576158976823750E-15, 75.00000000000000000, 0.000000000000000000 ) ) ;
#151 = SURFACE_STYLE_FILL_AREA ( #341 ) ;
#152 =( NAMED_UNIT ( * ) PLANE_ANGLE_UNIT ( ) SI_UNIT ( $, .RADIAN. ) );
#153 = CIRCLE ( 'NONE', #234, 1.000000000000000000 ) ;
#154 = DIRECTION ( 'NONE',  ( 0.000000000000000000, 0.000000000000000000, -1.000000000000000000 ) ) ;
#155 = FILL_AREA_STYLE_COLOUR ( '', #339 ) ;
#156 = PRESENTATION_STYLE_ASSIGNMENT (( #62 ) ) ;
#157 = DIRECTION ( 'NONE',  ( -1.223542297630008506E-16, 1.000000000000000000, -0.000000000000000000 ) ) ;
#158 = DIRECTION ( 'NONE',  ( 0.000000000000000000, 0.000000000000000000, -1.000000000000000000 ) ) ;
#159 = FILL_AREA_STYLE_COLOUR ( '', #3 ) ;
#160 = CIRCLE ( 'NONE', #146, 4.000000000000001776 ) ;
#161 = ADVANCED_FACE ( 'NONE', ( #124 ), #59, .T. ) ;
#162 = PRESENTATION_STYLE_ASSIGNMENT (( #139 ) ) ;
#163 = MECHANICAL_DESIGN_GEOMETRIC_PRESENTATION_REPRESENTATION (  '', ( #271 ), #239 ) ;
#164 = DIRECTION ( 'NONE',  ( -1.223542297630008506E-16, 1.000000000000000000, 0.000000000000000000 ) ) ;
#165 = PRESENTATION_LAYER_ASSIGNMENT (  '', '', ( #55 ) ) ;
#166 = ORIENTED_EDGE ( 'NONE', *, *, #217, .T. ) ;
#167 = CARTESIAN_POINT ( 'NONE',  ( -1.469576158976823750E-15, 75.00000000000000000, 0.000000000000000000 ) ) ;
#168 = FACE_OUTER_BOUND ( 'NONE', #172, .T. ) ;
#169 = ORIENTED_EDGE ( 'NONE', *, *, #349, .F. ) ;
#170 = ORIENTED_EDGE ( 'NONE', *, *, #269, .F. ) ;
#171 = SURFACE_STYLE_USAGE ( .BOTH. , #118 ) ;
#172 = EDGE_LOOP ( 'NONE', ( #105, #224 ) ) ;
#173 = PRESENTATION_LAYER_ASSIGNMENT (  '', '', ( #76 ) ) ;
#174 =( LENGTH_UNIT ( ) NAMED_UNIT ( * ) SI_UNIT ( .MILLI., .METRE. ) );
#175 = FACE_OUTER_BOUND ( 'NONE', #207, .T. ) ;
#176 = DIRECTION ( 'NONE',  ( 0.000000000000000000, 0.000000000000000000, -1.000000000000000000 ) ) ;
#177 = CARTESIAN_POINT ( 'NONE',  ( 0.000000000000000000, 24.00000000000000000, 0.000000000000000000 ) ) ;
#178 = UNCERTAINTY_MEASURE_WITH_UNIT (LENGTH_MEASURE( 1.000000000000000082E-05 ), #16, 'distance_accuracy_value', 'NONE');
#179 = CLOSED_SHELL ( 'NONE', ( #161, #110, #78, #204, #258, #251 ) ) ;
#180 =( GEOMETRIC_REPRESENTATION_CONTEXT ( 3 ) GLOBAL_UNCERTAINTY_ASSIGNED_CONTEXT ( ( #37 ) ) GLOBAL_UNIT_ASSIGNED_CONTEXT ( ( #335, #205, #265 ) ) REPRESENTATION_CONTEXT ( 'NONE', 'WORKASPACE' ) );
#181 = FILL_AREA_STYLE ('',( #100 ) ) ;
#182 = DIRECTION ( 'NONE',  ( 0.000000000000000000, 0.000000000000000000, -1.000000000000000000 ) ) ;
#183 = DIRECTION ( 'NONE',  ( 0.000000000000000000, 0.000000000000000000, -1.000000000000000000 ) ) ;
#184 = CARTESIAN_POINT ( 'NONE',  ( 0.000000000000000000, 0.000000000000000000, -4.000000000000000000 ) ) ;
#185 = ADVANCED_BREP_SHAPE_REPRESENTATION ( '59689', ( #334, #347, #9 ), #231 ) ;
#186 = STYLED_ITEM ( 'NONE', ( #71 ), #251 ) ;
#187 = FILL_AREA_STYLE ('',( #159 ) ) ;
#188 = DIRECTION ( 'NONE',  ( -1.223542297630008506E-16, 1.000000000000000000, -0.000000000000000000 ) ) ;
#189 = DIRECTION ( 'NONE',  ( -1.223542297630008506E-16, 1.000000000000000000, -0.000000000000000000 ) ) ;
#190 = CIRCLE ( 'NONE', #132, 3.000000000000000000 ) ;
#191 = DIRECTION ( 'NONE',  ( -1.223542297630008506E-16, 1.000000000000000000, -0.000000000000000000 ) ) ;
#192 = PRESENTATION_LAYER_ASSIGNMENT (  '', '', ( #271 ) ) ;
#193 = FILL_AREA_STYLE_COLOUR ( '', #41 ) ;
#194 = DIRECTION ( 'NONE',  ( -1.223542297630008506E-16, 1.000000000000000000, -0.000000000000000000 ) ) ;
#195 = ORIENTED_EDGE ( 'NONE', *, *, #314, .F. ) ;
#196 =( NAMED_UNIT ( * ) SI_UNIT ( $, .STERADIAN. ) SOLID_ANGLE_UNIT ( ) );
#197 = PLANE ( 'NONE',  #67 ) ;
#198 = CARTESIAN_POINT ( 'NONE',  ( 4.770489558936219510E-15, 24.00000000000000000, 0.000000000000000000 ) ) ;
#199 = DIRECTION ( 'NONE',  ( 1.223542297630008506E-16, -1.000000000000000000, 0.000000000000000000 ) ) ;
#200 = SURFACE_SIDE_STYLE ('',( #317 ) ) ;
#201 = CARTESIAN_POINT ( 'NONE',  ( 0.000000000000000000, 1.000000000000000000, -3.000000000000000000 ) ) ;
#202 = SHAPE_DEFINITION_REPRESENTATION ( #32, #185 ) ;
#203 = DIRECTION ( 'NONE',  ( -1.223542297630008506E-16, 1.000000000000000000, -0.000000000000000000 ) ) ;
#204 = ADVANCED_FACE ( 'NONE', ( #236 ), #311, .T. ) ;
#205 =( NAMED_UNIT ( * ) PLANE_ANGLE_UNIT ( ) SI_UNIT ( $, .RADIAN. ) );
#206 = SURFACE_STYLE_USAGE ( .BOTH. , #214 ) ;
#207 = EDGE_LOOP ( 'NONE', ( #358, #143, #282, #22 ) ) ;
#208 = COLOUR_RGB ( '',1.000000000000000000, 0.000000000000000000, 0.000000000000000000 ) ;
#209 = STYLED_ITEM ( 'NONE', ( #350 ), #347 ) ;
#210 = DIRECTION ( 'NONE',  ( -0.000000000000000000, -1.000000000000000000, -0.000000000000000000 ) ) ;
#211 =( LENGTH_UNIT ( ) NAMED_UNIT ( * ) SI_UNIT ( .MILLI., .METRE. ) );
#212 = EDGE_CURVE ( 'NONE', #362, #47, #48, .T. ) ;
#213 = DIRECTION ( 'NONE',  ( -0.000000000000000000, -1.000000000000000000, -0.000000000000000000 ) ) ;
#214 = SURFACE_SIDE_STYLE ('',( #322 ) ) ;
#215 = VERTEX_POINT ( 'NONE', #68 ) ;
#216 = AXIS2_PLACEMENT_3D ( 'NONE', #42, #157, #98 ) ;
#217 = EDGE_CURVE ( 'NONE', #29, #307, #259, .T. ) ;
#218 = ORIENTED_EDGE ( 'NONE', *, *, #137, .T. ) ;
#219 = CARTESIAN_POINT ( 'NONE',  ( 0.000000000000000000, 24.00000000000000000, 0.000000000000000000 ) ) ;
#220 = CIRCLE ( 'NONE', #216, 3.999999999999996447 ) ;
#221 = FILL_AREA_STYLE_COLOUR ( '', #142 ) ;
#222 = ORIENTED_EDGE ( 'NONE', *, *, #6, .F. ) ;
#223 = CARTESIAN_POINT ( 'NONE',  ( 0.000000000000000000, 0.000000000000000000, 0.000000000000000000 ) ) ;
#224 = ORIENTED_EDGE ( 'NONE', *, *, #99, .T. ) ;
#225 = ORIENTED_EDGE ( 'NONE', *, *, #6, .T. ) ;
#226 = CARTESIAN_POINT ( 'NONE',  ( 0.000000000000000000, 0.000000000000000000, 0.000000000000000000 ) ) ;
#227 = SURFACE_SIDE_STYLE ('',( #74 ) ) ;
#228 = LINE ( 'NONE', #36, #263 ) ;
#229 = CIRCLE ( 'NONE', #294, 1.000000000000000000 ) ;
#230 = EDGE_CURVE ( 'NONE', #307, #29, #107, .T. ) ;
#231 =( GEOMETRIC_REPRESENTATION_CONTEXT ( 3 ) GLOBAL_UNCERTAINTY_ASSIGNED_CONTEXT ( ( #66 ) ) GLOBAL_UNIT_ASSIGNED_CONTEXT ( ( #211, #131, #196 ) ) REPRESENTATION_CONTEXT ( 'NONE', 'WORKASPACE' ) );
#232 = DIRECTION ( 'NONE',  ( -1.000000000000000000, 0.000000000000000000, 0.000000000000000000 ) ) ;
#233 = SURFACE_STYLE_USAGE ( .BOTH. , #89 ) ;
#234 = AXIS2_PLACEMENT_3D ( 'NONE', #201, #232, #57 ) ;
#235 = PRODUCT_RELATED_PRODUCT_CATEGORY ( 'part', '', ( #290 ) ) ;
#236 = FACE_OUTER_BOUND ( 'NONE', #245, .T. ) ;
#237 = SURFACE_STYLE_USAGE ( .BOTH. , #353 ) ;
#238 = UNCERTAINTY_MEASURE_WITH_UNIT (LENGTH_MEASURE( 1.000000000000000082E-05 ), #174, 'distance_accuracy_value', 'NONE');
#239 =( GEOMETRIC_REPRESENTATION_CONTEXT ( 3 ) GLOBAL_UNCERTAINTY_ASSIGNED_CONTEXT ( ( #43 ) ) GLOBAL_UNIT_ASSIGNED_CONTEXT ( ( #10, #348, #270 ) ) REPRESENTATION_CONTEXT ( 'NONE', 'WORKASPACE' ) );
#240 = CARTESIAN_POINT ( 'NONE',  ( 0.000000000000000000, 24.00000000000000000, 0.000000000000000000 ) ) ;
#241 = SURFACE_STYLE_FILL_AREA ( #181 ) ;
#242 = EDGE_CURVE ( 'NONE', #215, #81, #220, .T. ) ;
#243 = MECHANICAL_DESIGN_GEOMETRIC_PRESENTATION_REPRESENTATION (  '', ( #286 ), #326 ) ;
#244 = VECTOR ( 'NONE', #191, 1000.000000000000000 ) ;
#245 = EDGE_LOOP ( 'NONE', ( #287, #73, #256, #140 ) ) ;
#246 = DIRECTION ( 'NONE',  ( 1.000000000000000000, 1.223542297630008506E-16, 0.000000000000000000 ) ) ;
#247 = CARTESIAN_POINT ( 'NONE',  ( 0.000000000000000000, 24.00000000000000000, -4.000000000000000000 ) ) ;
#248 = ORIENTED_EDGE ( 'NONE', *, *, #342, .F. ) ;
#249 = PLANE ( 'NONE',  #295 ) ;
#250 = VERTEX_POINT ( 'NONE', #266 ) ;
#251 = ADVANCED_FACE ( 'NONE', ( #44 ), #369, .T. ) ;
#252 = AXIS2_PLACEMENT_3D ( 'NONE', #83, #194, #284 ) ;
#253 = DIRECTION ( 'NONE',  ( -0.000000000000000000, -1.000000000000000000, -0.000000000000000000 ) ) ;
#254 = APPLICATION_PROTOCOL_DEFINITION ( 'draft international standard', 'automotive_design', 1998, #90 ) ;
#255 = PRESENTATION_STYLE_ASSIGNMENT (( #171 ) ) ;
#256 = ORIENTED_EDGE ( 'NONE', *, *, #128, .T. ) ;
#257 = DIRECTION ( 'NONE',  ( 0.000000000000000000, 1.000000000000000000, 0.000000000000000000 ) ) ;
#258 = ADVANCED_FACE ( 'NONE', ( #88 ), #20, .T. ) ;
#259 = CIRCLE ( 'NONE', #346, 4.000000000000000000 ) ;
#260 = DIRECTION ( 'NONE',  ( -0.000000000000000000, -1.000000000000000000, -0.000000000000000000 ) ) ;
#261 = UNCERTAINTY_MEASURE_WITH_UNIT (LENGTH_MEASURE( 1.000000000000000082E-05 ), #272, 'distance_accuracy_value', 'NONE');
#262 = CARTESIAN_POINT ( 'NONE',  ( 0.000000000000000000, 1.000000000000000000, 0.000000000000000000 ) ) ;
#263 = VECTOR ( 'NONE', #203, 1000.000000000000000 ) ;
#264 = DIRECTION ( 'NONE',  ( -1.223542297630008506E-16, 1.000000000000000000, -0.000000000000000000 ) ) ;
#265 =( NAMED_UNIT ( * ) SI_UNIT ( $, .STERADIAN. ) SOLID_ANGLE_UNIT ( ) );
#266 = CARTESIAN_POINT ( 'NONE',  ( 4.286263797015736595E-16, 0.000000000000000000, 3.000000000000000000 ) ) ;
#267 = UNCERTAINTY_MEASURE_WITH_UNIT (LENGTH_MEASURE( 1.000000000000000082E-05 ), #25, 'distance_accuracy_value', 'NONE');
#268 = CARTESIAN_POINT ( 'NONE',  ( 4.898587196589412829E-16, 1.000000000000000000, 4.000000000000000000 ) ) ;
#269 = EDGE_CURVE ( 'NONE', #307, #362, #135, .T. ) ;
#270 =( NAMED_UNIT ( * ) SI_UNIT ( $, .STERADIAN. ) SOLID_ANGLE_UNIT ( ) );
#271 = STYLED_ITEM ( 'NONE', ( #156 ), #161 ) ;
#272 =( LENGTH_UNIT ( ) NAMED_UNIT ( * ) SI_UNIT ( .MILLI., .METRE. ) );
#273 = MECHANICAL_DESIGN_GEOMETRIC_PRESENTATION_REPRESENTATION (  '', ( #209 ), #18 ) ;
#274 = SURFACE_SIDE_STYLE ('',( #51 ) ) ;
#275 = AXIS2_PLACEMENT_3D ( 'NONE', #262, #122, #154 ) ;
#276 = COLOUR_RGB ( '',0.7921568627450980005, 0.8196078431372548767, 0.9333333333333333481 ) ;
#277 =( GEOMETRIC_REPRESENTATION_CONTEXT ( 3 ) GLOBAL_UNCERTAINTY_ASSIGNED_CONTEXT ( ( #40 ) ) GLOBAL_UNIT_ASSIGNED_CONTEXT ( ( #45, #283, #28 ) ) REPRESENTATION_CONTEXT ( 'NONE', 'WORKASPACE' ) );
#278 = ORIENTED_EDGE ( 'NONE', *, *, #242, .F. ) ;
#279 =( NAMED_UNIT ( * ) PLANE_ANGLE_UNIT ( ) SI_UNIT ( $, .RADIAN. ) );
#280 = DIRECTION ( 'NONE',  ( -1.000000000000000000, 0.000000000000000000, 0.000000000000000000 ) ) ;
#281 = ADVANCED_FACE ( 'NONE', ( #109 ), #197, .F. ) ;
#282 = ORIENTED_EDGE ( 'NONE', *, *, #86, .F. ) ;
#283 =( NAMED_UNIT ( * ) PLANE_ANGLE_UNIT ( ) SI_UNIT ( $, .RADIAN. ) );
#284 = DIRECTION ( 'NONE',  ( -1.000000000000000000, 0.000000000000000000, 0.000000000000000000 ) ) ;
#285 = ORIENTED_EDGE ( 'NONE', *, *, #230, .F. ) ;
#286 = STYLED_ITEM ( 'NONE', ( #4 ), #110 ) ;
#287 = ORIENTED_EDGE ( 'NONE', *, *, #147, .F. ) ;
#288 = CARTESIAN_POINT ( 'NONE',  ( 4.000000000000000000, 75.00000000000000000, 0.000000000000000000 ) ) ;
#289 = CARTESIAN_POINT ( 'NONE',  ( 0.000000000000000000, 0.000000000000000000, 0.000000000000000000 ) ) ;
#290 = PRODUCT ( '59689', '59689', '', ( #5 ) ) ;
#291 = FILL_AREA_STYLE_COLOUR ( '', #315 ) ;
#292 = APPLICATION_PROTOCOL_DEFINITION ( 'draft international standard', 'automotive_design', 1998, #96 ) ;
#293 =( NAMED_UNIT ( * ) PLANE_ANGLE_UNIT ( ) SI_UNIT ( $, .RADIAN. ) );
#294 = AXIS2_PLACEMENT_3D ( 'NONE', #343, #92, #7 ) ;
#295 = AXIS2_PLACEMENT_3D ( 'NONE', #289, #127, #336 ) ;
#296 = AXIS2_PLACEMENT_3D ( 'NONE', #64, #104, #158 ) ;
#297 = CIRCLE ( 'NONE', #114, 4.000000000000000000 ) ;
#298 = SURFACE_STYLE_USAGE ( .BOTH. , #95 ) ;
#299 = CIRCLE ( 'NONE', #321, 4.000000000000001776 ) ;
#300 = CARTESIAN_POINT ( 'NONE',  ( 0.000000000000000000, 1.000000000000000000, 0.000000000000000000 ) ) ;
#301 = AXIS2_PLACEMENT_3D ( 'NONE', #61, #260, #60 ) ;
#302 = PRESENTATION_LAYER_ASSIGNMENT (  '', '', ( #209 ) ) ;
#303 =( NAMED_UNIT ( * ) SI_UNIT ( $, .STERADIAN. ) SOLID_ANGLE_UNIT ( ) );
#304 = CARTESIAN_POINT ( 'NONE',  ( -1.469576158976823750E-15, 75.00000000000000000, 0.000000000000000000 ) ) ;
#305 = FACE_OUTER_BOUND ( 'NONE', #133, .T. ) ;
#306 = DIRECTION ( 'NONE',  ( 1.000000000000000000, 0.000000000000000000, 0.000000000000000000 ) ) ;
#307 = VERTEX_POINT ( 'NONE', #363 ) ;
#308 = FILL_AREA_STYLE ('',( #79 ) ) ;
#309 = CARTESIAN_POINT ( 'NONE',  ( -4.000000000000003553, 75.00000000000000000, 0.000000000000000000 ) ) ;
#310 = VERTEX_POINT ( 'NONE', #148 ) ;
#311 = TOROIDAL_SURFACE ( 'NONE', #2, 3.000000000000000000, 1.000000000000000000 ) ;
#312 = PRODUCT_DEFINITION ( 'UNKNOWN', '', #35, #125 ) ;
#313 = CARTESIAN_POINT ( 'NONE',  ( 0.000000000000000000, 0.000000000000000000, 0.000000000000000000 ) ) ;
#314 = EDGE_CURVE ( 'NONE', #81, #333, #359, .T. ) ;
#315 = COLOUR_RGB ( '',1.000000000000000000, 0.000000000000000000, 0.000000000000000000 ) ;
#316 = MECHANICAL_DESIGN_GEOMETRIC_PRESENTATION_REPRESENTATION (  '', ( #55 ), #180 ) ;
#317 = SURFACE_STYLE_FILL_AREA ( #344 ) ;
#318 = UNCERTAINTY_MEASURE_WITH_UNIT (LENGTH_MEASURE( 1.000000000000000082E-05 ), #91, 'distance_accuracy_value', 'NONE');
#319 = EDGE_CURVE ( 'NONE', #24, #333, #299, .T. ) ;
#320 =( GEOMETRIC_REPRESENTATION_CONTEXT ( 3 ) GLOBAL_UNCERTAINTY_ASSIGNED_CONTEXT ( ( #178 ) ) GLOBAL_UNIT_ASSIGNED_CONTEXT ( ( #16, #11, #15 ) ) REPRESENTATION_CONTEXT ( 'NONE', 'WORKASPACE' ) );
#321 = AXIS2_PLACEMENT_3D ( 'NONE', #338, #49, #366 ) ;
#322 = SURFACE_STYLE_FILL_AREA ( #355 ) ;
#323 = DIRECTION ( 'NONE',  ( -0.000000000000000000, -1.000000000000000000, -0.000000000000000000 ) ) ;
#324 = DIRECTION ( 'NONE',  ( -1.000000000000000000, 0.000000000000000000, 0.000000000000000000 ) ) ;
#325 = CIRCLE ( 'NONE', #252, 3.999999999999996447 ) ;
#326 =( GEOMETRIC_REPRESENTATION_CONTEXT ( 3 ) GLOBAL_UNCERTAINTY_ASSIGNED_CONTEXT ( ( #318 ) ) GLOBAL_UNIT_ASSIGNED_CONTEXT ( ( #91, #293, #38 ) ) REPRESENTATION_CONTEXT ( 'NONE', 'WORKASPACE' ) );
#327 = PRESENTATION_LAYER_ASSIGNMENT (  '', '', ( #93 ) ) ;
#328 = ORIENTED_EDGE ( 'NONE', *, *, #242, .T. ) ;
#329 = EDGE_LOOP ( 'NONE', ( #170, #138, #368, #136 ) ) ;
#330 = EDGE_LOOP ( 'NONE', ( #328, #115, #19, #117 ) ) ;
#331 = CARTESIAN_POINT ( 'NONE',  ( 4.898587196589412829E-16, 0.000000000000000000, 4.000000000000000000 ) ) ;
#332 = EDGE_CURVE ( 'NONE', #47, #362, #297, .T. ) ;
#333 = VERTEX_POINT ( 'NONE', #23 ) ;
#334 = MANIFOLD_SOLID_BREP ( 'Revolve - Cutting Edge', #179 ) ;
#335 =( LENGTH_UNIT ( ) NAMED_UNIT ( * ) SI_UNIT ( .MILLI., .METRE. ) );
#336 = DIRECTION ( 'NONE',  ( 0.000000000000000000, 0.000000000000000000, -1.000000000000000000 ) ) ;
#337 = CLOSED_SHELL ( 'NONE', ( #34, #14, #58, #281 ) ) ;
#338 = CARTESIAN_POINT ( 'NONE',  ( -1.469576158976823750E-15, 75.00000000000000000, 0.000000000000000000 ) ) ;
#339 = COLOUR_RGB ( '',1.000000000000000000, 0.000000000000000000, 0.000000000000000000 ) ;
#340 = AXIS2_PLACEMENT_3D ( 'NONE', #219, #257, #56 ) ;
#341 = FILL_AREA_STYLE ('',( #291 ) ) ;
#342 = EDGE_CURVE ( 'NONE', #333, #24, #160, .T. ) ;
#343 = CARTESIAN_POINT ( 'NONE',  ( 3.673940397442059868E-16, 1.000000000000000000, 3.000000000000000000 ) ) ;
#344 = FILL_AREA_STYLE ('',( #155 ) ) ;
#345 = AXIS2_PLACEMENT_3D ( 'NONE', #167, #188, #280 ) ;
#346 = AXIS2_PLACEMENT_3D ( 'NONE', #240, #102, #183 ) ;
#347 = MANIFOLD_SOLID_BREP ( 'Revolve - Tool Body (Straight Shanked)', #337 ) ;
#348 =( NAMED_UNIT ( * ) PLANE_ANGLE_UNIT ( ) SI_UNIT ( $, .RADIAN. ) );
#349 = EDGE_CURVE ( 'NONE', #29, #47, #70, .T. ) ;
#350 = PRESENTATION_STYLE_ASSIGNMENT (( #237 ) ) ;
#351 = PRESENTATION_STYLE_ASSIGNMENT (( #298 ) ) ;
#352 = PRESENTATION_LAYER_ASSIGNMENT (  '', '', ( #54 ) ) ;
#353 = SURFACE_SIDE_STYLE ('',( #97 ) ) ;
#354 = DIRECTION ( 'NONE',  ( 0.000000000000000000, 0.000000000000000000, -1.000000000000000000 ) ) ;
#355 = FILL_AREA_STYLE ('',( #130 ) ) ;
#356 = ORIENTED_EDGE ( 'NONE', *, *, #332, .F. ) ;
#357 = PRESENTATION_LAYER_ASSIGNMENT (  '', '', ( #186 ) ) ;
#358 = ORIENTED_EDGE ( 'NONE', *, *, #332, .T. ) ;
#359 = LINE ( 'NONE', #121, #244 ) ;
#360 = DIRECTION ( 'NONE',  ( -1.000000000000000000, 0.000000000000000000, 0.000000000000000000 ) ) ;
#361 = ORIENTED_EDGE ( 'NONE', *, *, #319, .T. ) ;
#362 = VERTEX_POINT ( 'NONE', #268 ) ;
#363 = CARTESIAN_POINT ( 'NONE',  ( 4.898587196589412829E-16, 24.00000000000000000, 4.000000000000000000 ) ) ;
#364 = ORIENTED_EDGE ( 'NONE', *, *, #342, .T. ) ;
#365 = COLOUR_RGB ( '',1.000000000000000000, 0.000000000000000000, 0.000000000000000000 ) ;
#366 = DIRECTION ( 'NONE',  ( -1.000000000000000000, 0.000000000000000000, 0.000000000000000000 ) ) ;
#367 = EDGE_LOOP ( 'NONE', ( #195, #225, #218, #248 ) ) ;
#368 = ORIENTED_EDGE ( 'NONE', *, *, #349, .T. ) ;
#369 = PLANE ( 'NONE',  #340 ) ;
#370 = PLANE ( 'NONE',  #112 ) ;
ENDSEC;
END-ISO-10303-21;
