ISO-10303-21;
HEADER;
FILE_DESCRIPTION (( 'STEP AP214' ),
    '1' );
FILE_NAME ('06015.STEP',
    '2023-07-05T16:00:21',
    ( '' ),
    ( '' ),
    'SwSTEP 2.0',
    'SolidWorks 2023',
    '' );
FILE_SCHEMA (( 'AUTOMOTIVE_DESIGN' ));
ENDSEC;

DATA;
#1 = CARTESIAN_POINT ( 'NONE',  ( 0.000000000000000000, 0.000000000000000000, 0.000000000000000000 ) ) ;
#2 = EDGE_LOOP ( 'NONE', ( #202, #265 ) ) ;
#3 = APPLICATION_PROTOCOL_DEFINITION ( 'draft international standard', 'automotive_design', 1998, #201 ) ;
#4 = FACE_OUTER_BOUND ( 'NONE', #239, .T. ) ;
#5 =( GEOMETRIC_REPRESENTATION_CONTEXT ( 3 ) GLOBAL_UNCERTAINTY_ASSIGNED_CONTEXT ( ( #113 ) ) GLOBAL_UNIT_ASSIGNED_CONTEXT ( ( #112, #54, #153 ) ) REPRESENTATION_CONTEXT ( 'NONE', 'WORKASPACE' ) );
#6 = CARTESIAN_POINT ( 'NONE',  ( 0.000000000000000000, 2.000000000000000000, 0.06250000000000001388 ) ) ;
#7 =( CONVERSION_BASED_UNIT ( 'INCH', #110 ) LENGTH_UNIT ( ) NAMED_UNIT ( #169 ) );
#8 = ORIENTED_EDGE ( 'NONE', *, *, #128, .T. ) ;
#9 = CIRCLE ( 'NONE', #132, 0.06250000000000001388 ) ;
#10 =( GEOMETRIC_REPRESENTATION_CONTEXT ( 3 ) GLOBAL_UNCERTAINTY_ASSIGNED_CONTEXT ( ( #134 ) ) GLOBAL_UNIT_ASSIGNED_CONTEXT ( ( #51, #55, #91 ) ) REPRESENTATION_CONTEXT ( 'NONE', 'WORKASPACE' ) );
#11 = ADVANCED_FACE ( 'NONE', ( #109 ), #149, .T. ) ;
#12 = CARTESIAN_POINT ( 'NONE',  ( 0.000000000000000000, 2.000000000000000000, 0.06250000000000001388 ) ) ;
#13 =( NAMED_UNIT ( * ) PLANE_ANGLE_UNIT ( ) SI_UNIT ( $, .RADIAN. ) );
#14 =( GEOMETRIC_REPRESENTATION_CONTEXT ( 3 ) GLOBAL_UNCERTAINTY_ASSIGNED_CONTEXT ( ( #193 ) ) GLOBAL_UNIT_ASSIGNED_CONTEXT ( ( #36, #13, #256 ) ) REPRESENTATION_CONTEXT ( 'NONE', 'WORKASPACE' ) );
#15 = SURFACE_STYLE_USAGE ( .BOTH. , #97 ) ;
#16 =( NAMED_UNIT ( * ) PLANE_ANGLE_UNIT ( ) SI_UNIT ( $, .RADIAN. ) );
#17 = FILL_AREA_STYLE ('',( #40 ) ) ;
#18 = CARTESIAN_POINT ( 'NONE',  ( 0.000000000000000000, 0.06249999999999978489, 0.000000000000000000 ) ) ;
#19 = ORIENTED_EDGE ( 'NONE', *, *, #234, .T. ) ;
#20 = PLANE ( 'NONE',  #162 ) ;
#21 = DIRECTION ( 'NONE',  ( -0.000000000000000000, 1.000000000000000000, -0.000000000000000000 ) ) ;
#22 = AXIS2_PLACEMENT_3D ( 'NONE', #144, #21, #184 ) ;
#23 = AXIS2_PLACEMENT_3D ( 'NONE', #175, #127, #24 ) ;
#24 = DIRECTION ( 'NONE',  ( 0.000000000000000000, 0.000000000000000000, 1.000000000000000000 ) ) ;
#25 = EDGE_LOOP ( 'NONE', ( #72, #48, #99 ) ) ;
#26 = CARTESIAN_POINT ( 'NONE',  ( 0.000000000000000000, 0.000000000000000000, 0.000000000000000000 ) ) ;
#27 = DIRECTION ( 'NONE',  ( -0.000000000000000000, 1.000000000000000000, -0.000000000000000000 ) ) ;
#28 = COLOUR_RGB ( '',1.000000000000000000, 0.000000000000000000, 0.000000000000000000 ) ;
#29 = LINE ( 'NONE', #32, #148 ) ;
#30 = EDGE_LOOP ( 'NONE', ( #65, #8, #43 ) ) ;
#31 = PRESENTATION_LAYER_ASSIGNMENT (  '', '', ( #177 ) ) ;
#32 = CARTESIAN_POINT ( 'NONE',  ( 0.000000000000000000, 0.000000000000000000, 0.000000000000000000 ) ) ;
#33 = DIMENSIONAL_EXPONENTS ( 1.000000000000000000, 0.000000000000000000, 0.000000000000000000, 0.000000000000000000, 0.000000000000000000, 0.000000000000000000, 0.000000000000000000 ) ;
#34 = DIRECTION ( 'NONE',  ( 0.000000000000000000, 0.000000000000000000, 1.000000000000000000 ) ) ;
#35 = EDGE_CURVE ( 'NONE', #207, #88, #221, .T. ) ;
#36 =( CONVERSION_BASED_UNIT ( 'INCH', #81 ) LENGTH_UNIT ( ) NAMED_UNIT ( #135 ) );
#37 = PRESENTATION_LAYER_ASSIGNMENT (  '', '', ( #196 ) ) ;
#38 = DIRECTION ( 'NONE',  ( 0.000000000000000000, 1.000000000000000000, 0.000000000000000000 ) ) ;
#39 = EDGE_CURVE ( 'NONE', #207, #143, #9, .T. ) ;
#40 = FILL_AREA_STYLE_COLOUR ( '', #192 ) ;
#41 = LENGTH_MEASURE_WITH_UNIT ( LENGTH_MEASURE( 0.02539999999999999897 ), #108 );
#42 = CARTESIAN_POINT ( 'NONE',  ( 7.654042494670959086E-18, 2.000000000000000000, -0.06250000000000001388 ) ) ;
#43 = ORIENTED_EDGE ( 'NONE', *, *, #198, .T. ) ;
#44 = ADVANCED_FACE ( 'NONE', ( #86 ), #106, .T. ) ;
#45 = LINE ( 'NONE', #1, #70 ) ;
#46 = EDGE_LOOP ( 'NONE', ( #248, #124, #253, #209 ) ) ;
#47 = AXIS2_PLACEMENT_3D ( 'NONE', #238, #178, #121 ) ;
#48 = ORIENTED_EDGE ( 'NONE', *, *, #225, .T. ) ;
#49 = DIRECTION ( 'NONE',  ( 0.000000000000000000, 0.000000000000000000, 1.000000000000000000 ) ) ;
#50 = CONICAL_SURFACE ( 'NONE', #23, 39.37007874015760933, 0.7853981633974499443 ) ;
#51 =( CONVERSION_BASED_UNIT ( 'INCH', #170 ) LENGTH_UNIT ( ) NAMED_UNIT ( #33 ) );
#52 = PRODUCT_DEFINITION_CONTEXT ( 'detailed design', #76, 'design' ) ;
#53 = DIRECTION ( 'NONE',  ( -0.000000000000000000, 1.000000000000000000, -0.000000000000000000 ) ) ;
#54 =( NAMED_UNIT ( * ) PLANE_ANGLE_UNIT ( ) SI_UNIT ( $, .RADIAN. ) );
#55 =( NAMED_UNIT ( * ) PLANE_ANGLE_UNIT ( ) SI_UNIT ( $, .RADIAN. ) );
#56 = CIRCLE ( 'NONE', #92, 0.06249999999999999306 ) ;
#57 = CONICAL_SURFACE ( 'NONE', #200, 39.37007874015760933, 0.7853981633974499443 ) ;
#58 = CARTESIAN_POINT ( 'NONE',  ( 7.654042494670959086E-18, 0.06249999999999967387, -0.06250000000000001388 ) ) ;
#59 = ORIENTED_EDGE ( 'NONE', *, *, #260, .F. ) ;
#60 = ADVANCED_FACE ( 'NONE', ( #4 ), #104, .F. ) ;
#61 = SURFACE_STYLE_USAGE ( .BOTH. , #261 ) ;
#62 = VERTEX_POINT ( 'NONE', #6 ) ;
#63 = DIRECTION ( 'NONE',  ( -0.000000000000000000, 1.000000000000000000, 0.000000000000000000 ) ) ;
#64 = MECHANICAL_DESIGN_GEOMETRIC_PRESENTATION_REPRESENTATION (  '', ( #83 ), #14 ) ;
#65 = ORIENTED_EDGE ( 'NONE', *, *, #225, .F. ) ;
#66 = DIRECTION ( 'NONE',  ( 0.000000000000000000, 0.000000000000000000, 1.000000000000000000 ) ) ;
#67 = PRODUCT_DEFINITION_SHAPE ( 'NONE', 'NONE',  #187 ) ;
#68 = PRESENTATION_LAYER_ASSIGNMENT (  '', '', ( #147 ) ) ;
#69 = CARTESIAN_POINT ( 'NONE',  ( 0.000000000000000000, 0.06249999999999978489, 0.000000000000000000 ) ) ;
#70 = VECTOR ( 'NONE', #180, 39.37007874015748143 ) ;
#71 = VECTOR ( 'NONE', #53, 39.37007874015748143 ) ;
#72 = ORIENTED_EDGE ( 'NONE', *, *, #128, .F. ) ;
#73 = PRESENTATION_STYLE_ASSIGNMENT (( #116 ) ) ;
#74 = ORIENTED_EDGE ( 'NONE', *, *, #260, .T. ) ;
#75 = FILL_AREA_STYLE_COLOUR ( '', #222 ) ;
#76 = APPLICATION_CONTEXT ( 'automotive_design' ) ;
#77 =( LENGTH_UNIT ( ) NAMED_UNIT ( * ) SI_UNIT ( $, .METRE. ) );
#78 = FACE_OUTER_BOUND ( 'NONE', #30, .T. ) ;
#79 = EDGE_LOOP ( 'NONE', ( #82, #131, #59, #120 ) ) ;
#80 = COLOUR_RGB ( '',0.7921568627450980005, 0.8196078431372548767, 0.9333333333333333481 ) ;
#81 = LENGTH_MEASURE_WITH_UNIT ( LENGTH_MEASURE( 0.02539999999999999897 ), #77 );
#82 = ORIENTED_EDGE ( 'NONE', *, *, #173, .T. ) ;
#83 = STYLED_ITEM ( 'NONE', ( #141 ), #203 ) ;
#84 = DIRECTION ( 'NONE',  ( 0.000000000000000000, -1.000000000000000000, 0.000000000000000000 ) ) ;
#85 = SHAPE_DEFINITION_REPRESENTATION ( #67, #259 ) ;
#86 = FACE_OUTER_BOUND ( 'NONE', #79, .T. ) ;
#87 = DIRECTION ( 'NONE',  ( 0.000000000000000000, -0.000000000000000000, -1.000000000000000000 ) ) ;
#88 = VERTEX_POINT ( 'NONE', #42 ) ;
#89 = FILL_AREA_STYLE_COLOUR ( '', #190 ) ;
#90 = ADVANCED_FACE ( 'NONE', ( #165 ), #20, .F. ) ;
#91 =( NAMED_UNIT ( * ) SI_UNIT ( $, .STERADIAN. ) SOLID_ANGLE_UNIT ( ) );
#92 = AXIS2_PLACEMENT_3D ( 'NONE', #69, #166, #181 ) ;
#93 = AXIS2_PLACEMENT_3D ( 'NONE', #26, #163, #245 ) ;
#94 = UNCERTAINTY_MEASURE_WITH_UNIT (LENGTH_MEASURE( 1.000000000000000082E-05 ), #100, 'distance_accuracy_value', 'NONE');
#95 = AXIS2_PLACEMENT_3D ( 'NONE', #117, #255, #34 ) ;
#96 =( NAMED_UNIT ( * ) PLANE_ANGLE_UNIT ( ) SI_UNIT ( $, .RADIAN. ) );
#97 = SURFACE_SIDE_STYLE ('',( #216 ) ) ;
#98 = SURFACE_STYLE_FILL_AREA ( #17 ) ;
#99 = ORIENTED_EDGE ( 'NONE', *, *, #107, .T. ) ;
#100 =( CONVERSION_BASED_UNIT ( 'INCH', #41 ) LENGTH_UNIT ( ) NAMED_UNIT ( #155 ) );
#101 = CARTESIAN_POINT ( 'NONE',  ( 0.000000000000000000, 2.000000000000000000, 0.000000000000000000 ) ) ;
#102 = CARTESIAN_POINT ( 'NONE',  ( 0.06250000000000001388, 2.000000000000000000, 0.000000000000000000 ) ) ;
#103 = CIRCLE ( 'NONE', #251, 0.06250000000000001388 ) ;
#104 = PLANE ( 'NONE',  #171 ) ;
#105 = CARTESIAN_POINT ( 'NONE',  ( 0.000000000000000000, 2.000000000000000000, 0.000000000000000000 ) ) ;
#106 = CYLINDRICAL_SURFACE ( 'NONE', #22, 0.06250000000000001388 ) ;
#107 = EDGE_CURVE ( 'NONE', #125, #130, #56, .T. ) ;
#108 =( LENGTH_UNIT ( ) NAMED_UNIT ( * ) SI_UNIT ( $, .METRE. ) );
#109 = FACE_OUTER_BOUND ( 'NONE', #46, .T. ) ;
#110 = LENGTH_MEASURE_WITH_UNIT ( LENGTH_MEASURE( 0.02539999999999999897 ), #211 );
#111 = MANIFOLD_SOLID_BREP ( 'Revolve - Cutting Edge', #152 ) ;
#112 =( CONVERSION_BASED_UNIT ( 'INCH', #136 ) LENGTH_UNIT ( ) NAMED_UNIT ( #188 ) );
#113 = UNCERTAINTY_MEASURE_WITH_UNIT (LENGTH_MEASURE( 1.000000000000000082E-05 ), #112, 'distance_accuracy_value', 'NONE');
#114 = MANIFOLD_SOLID_BREP ( 'Revolve - Tool Body (Pointed)', #176 ) ;
#115 = AXIS2_PLACEMENT_3D ( 'NONE', #18, #237, #199 ) ;
#116 = SURFACE_STYLE_USAGE ( .BOTH. , #252 ) ;
#117 = CARTESIAN_POINT ( 'NONE',  ( 0.000000000000000000, 0.06249999999999967387, 0.000000000000000000 ) ) ;
#118 = PRESENTATION_STYLE_ASSIGNMENT (( #15 ) ) ;
#119 = CARTESIAN_POINT ( 'NONE',  ( 0.000000000000000000, 39.37007874015748143, 0.000000000000000000 ) ) ;
#120 = ORIENTED_EDGE ( 'NONE', *, *, #161, .F. ) ;
#121 = DIRECTION ( 'NONE',  ( 0.000000000000000000, -0.000000000000000000, 1.000000000000000000 ) ) ;
#122 = MECHANICAL_DESIGN_GEOMETRIC_PRESENTATION_REPRESENTATION (  '', ( #126 ), #5 ) ;
#123 = CIRCLE ( 'NONE', #232, 0.06250000000000001388 ) ;
#124 = ORIENTED_EDGE ( 'NONE', *, *, #39, .T. ) ;
#125 = VERTEX_POINT ( 'NONE', #263 ) ;
#126 = STYLED_ITEM ( 'NONE', ( #208 ), #111 ) ;
#127 = DIRECTION ( 'NONE',  ( 0.000000000000000000, 1.000000000000000000, 0.000000000000000000 ) ) ;
#128 = EDGE_CURVE ( 'NONE', #157, #130, #29, .T. ) ;
#129 = DIRECTION ( 'NONE',  ( 0.000000000000000000, 0.000000000000000000, 1.000000000000000000 ) ) ;
#130 = VERTEX_POINT ( 'NONE', #215 ) ;
#131 = ORIENTED_EDGE ( 'NONE', *, *, #35, .T. ) ;
#132 = AXIS2_PLACEMENT_3D ( 'NONE', #227, #224, #49 ) ;
#133 = PLANE ( 'NONE',  #47 ) ;
#134 = UNCERTAINTY_MEASURE_WITH_UNIT (LENGTH_MEASURE( 1.000000000000000082E-05 ), #51, 'distance_accuracy_value', 'NONE');
#135 = DIMENSIONAL_EXPONENTS ( 1.000000000000000000, 0.000000000000000000, 0.000000000000000000, 0.000000000000000000, 0.000000000000000000, 0.000000000000000000, 0.000000000000000000 ) ;
#136 = LENGTH_MEASURE_WITH_UNIT ( LENGTH_MEASURE( 0.02539999999999999897 ), #150 );
#137 = PRESENTATION_LAYER_ASSIGNMENT (  '', '', ( #126 ) ) ;
#138 = CARTESIAN_POINT ( 'NONE',  ( 0.000000000000000000, 0.000000000000000000, 0.000000000000000000 ) ) ;
#139 = FILL_AREA_STYLE ('',( #75 ) ) ;
#140 =( NAMED_UNIT ( * ) SI_UNIT ( $, .STERADIAN. ) SOLID_ANGLE_UNIT ( ) );
#141 = PRESENTATION_STYLE_ASSIGNMENT (( #61 ) ) ;
#142 =( GEOMETRIC_REPRESENTATION_CONTEXT ( 3 ) GLOBAL_UNCERTAINTY_ASSIGNED_CONTEXT ( ( #250 ) ) GLOBAL_UNIT_ASSIGNED_CONTEXT ( ( #233, #96, #158 ) ) REPRESENTATION_CONTEXT ( 'NONE', 'WORKASPACE' ) );
#143 = VERTEX_POINT ( 'NONE', #249 ) ;
#144 = CARTESIAN_POINT ( 'NONE',  ( 0.000000000000000000, 2.000000000000000000, 0.000000000000000000 ) ) ;
#145 = SURFACE_STYLE_USAGE ( .BOTH. , #244 ) ;
#146 = PRODUCT ( '06015', '06015', '', ( #242 ) ) ;
#147 = STYLED_ITEM ( 'NONE', ( #73 ), #114 ) ;
#148 = VECTOR ( 'NONE', #156, 39.37007874015748143 ) ;
#149 = CYLINDRICAL_SURFACE ( 'NONE', #235, 0.06250000000000001388 ) ;
#150 =( LENGTH_UNIT ( ) NAMED_UNIT ( * ) SI_UNIT ( $, .METRE. ) );
#151 = SURFACE_SIDE_STYLE ('',( #194 ) ) ;
#152 = CLOSED_SHELL ( 'NONE', ( #219, #189, #203 ) ) ;
#153 =( NAMED_UNIT ( * ) SI_UNIT ( $, .STERADIAN. ) SOLID_ANGLE_UNIT ( ) );
#154 = PRESENTATION_LAYER_ASSIGNMENT (  '', '', ( #83 ) ) ;
#155 = DIMENSIONAL_EXPONENTS ( 1.000000000000000000, 0.000000000000000000, 0.000000000000000000, 0.000000000000000000, 0.000000000000000000, 0.000000000000000000, 0.000000000000000000 ) ;
#156 = DIRECTION ( 'NONE',  ( 8.659560562354947649E-17, 0.7071067811865463515, -0.7071067811865486830 ) ) ;
#157 = VERTEX_POINT ( 'NONE', #138 ) ;
#158 =( NAMED_UNIT ( * ) SI_UNIT ( $, .STERADIAN. ) SOLID_ANGLE_UNIT ( ) );
#159 = CIRCLE ( 'NONE', #95, 0.06250000000000001388 ) ;
#160 = FACE_OUTER_BOUND ( 'NONE', #25, .T. ) ;
#161 = EDGE_CURVE ( 'NONE', #143, #62, #230, .T. ) ;
#162 = AXIS2_PLACEMENT_3D ( 'NONE', #102, #84, #87 ) ;
#163 = DIRECTION ( 'NONE',  ( 0.000000000000000000, 0.000000000000000000, 1.000000000000000000 ) ) ;
#164 = FILL_AREA_STYLE ('',( #246 ) ) ;
#165 = FACE_OUTER_BOUND ( 'NONE', #236, .T. ) ;
#166 = DIRECTION ( 'NONE',  ( -0.000000000000000000, -1.000000000000000000, -0.000000000000000000 ) ) ;
#167 = DIRECTION ( 'NONE',  ( -0.000000000000000000, 1.000000000000000000, -0.000000000000000000 ) ) ;
#168 = ORIENTED_EDGE ( 'NONE', *, *, #39, .F. ) ;
#169 = DIMENSIONAL_EXPONENTS ( 1.000000000000000000, 0.000000000000000000, 0.000000000000000000, 0.000000000000000000, 0.000000000000000000, 0.000000000000000000, 0.000000000000000000 ) ;
#170 = LENGTH_MEASURE_WITH_UNIT ( LENGTH_MEASURE( 0.02539999999999999897 ), #174 );
#171 = AXIS2_PLACEMENT_3D ( 'NONE', #183, #63, #66 ) ;
#172 =( GEOMETRIC_REPRESENTATION_CONTEXT ( 3 ) GLOBAL_UNCERTAINTY_ASSIGNED_CONTEXT ( ( #94 ) ) GLOBAL_UNIT_ASSIGNED_CONTEXT ( ( #100, #206, #262 ) ) REPRESENTATION_CONTEXT ( 'NONE', 'WORKASPACE' ) );
#173 = EDGE_CURVE ( 'NONE', #143, #207, #159, .T. ) ;
#174 =( LENGTH_UNIT ( ) NAMED_UNIT ( * ) SI_UNIT ( $, .METRE. ) );
#175 = CARTESIAN_POINT ( 'NONE',  ( 0.000000000000000000, 39.37007874015748143, 0.000000000000000000 ) ) ;
#176 = CLOSED_SHELL ( 'NONE', ( #44, #60, #11, #90 ) ) ;
#177 = STYLED_ITEM ( 'NONE', ( #118 ), #219 ) ;
#178 = DIRECTION ( 'NONE',  ( 0.000000000000000000, 1.000000000000000000, 0.000000000000000000 ) ) ;
#179 = PRODUCT_RELATED_PRODUCT_CATEGORY ( 'part', '', ( #146 ) ) ;
#180 = DIRECTION ( 'NONE',  ( 0.000000000000000000, 0.7071067811865463515, 0.7071067811865486830 ) ) ;
#181 = DIRECTION ( 'NONE',  ( 0.000000000000000000, 0.000000000000000000, -1.000000000000000000 ) ) ;
#182 = CIRCLE ( 'NONE', #115, 0.06249999999999999306 ) ;
#183 = CARTESIAN_POINT ( 'NONE',  ( 0.000000000000000000, 0.06249999999999981265, 0.000000000000000000 ) ) ;
#184 = DIRECTION ( 'NONE',  ( 0.000000000000000000, 0.000000000000000000, 1.000000000000000000 ) ) ;
#185 = CARTESIAN_POINT ( 'NONE',  ( 0.000000000000000000, 2.000000000000000000, 0.000000000000000000 ) ) ;
#186 = CARTESIAN_POINT ( 'NONE',  ( 7.654042494670959086E-18, 2.000000000000000000, -0.06250000000000001388 ) ) ;
#187 = PRODUCT_DEFINITION ( 'UNKNOWN', '', #205, #52 ) ;
#188 = DIMENSIONAL_EXPONENTS ( 1.000000000000000000, 0.000000000000000000, 0.000000000000000000, 0.000000000000000000, 0.000000000000000000, 0.000000000000000000, 0.000000000000000000 ) ;
#189 = ADVANCED_FACE ( 'NONE', ( #195 ), #133, .T. ) ;
#190 = COLOUR_RGB ( '',0.7921568627450980005, 0.8196078431372548767, 0.9333333333333333481 ) ;
#191 = PRESENTATION_STYLE_ASSIGNMENT (( #228 ) ) ;
#192 = COLOUR_RGB ( '',1.000000000000000000, 0.000000000000000000, 0.000000000000000000 ) ;
#193 = UNCERTAINTY_MEASURE_WITH_UNIT (LENGTH_MEASURE( 1.000000000000000082E-05 ), #36, 'distance_accuracy_value', 'NONE');
#194 = SURFACE_STYLE_FILL_AREA ( #231 ) ;
#195 = FACE_OUTER_BOUND ( 'NONE', #2, .T. ) ;
#196 = STYLED_ITEM ( 'NONE', ( #191 ), #189 ) ;
#197 = DIRECTION ( 'NONE',  ( 0.000000000000000000, 0.000000000000000000, 1.000000000000000000 ) ) ;
#198 = EDGE_CURVE ( 'NONE', #130, #125, #182, .T. ) ;
#199 = DIRECTION ( 'NONE',  ( 0.000000000000000000, 0.000000000000000000, -1.000000000000000000 ) ) ;
#200 = AXIS2_PLACEMENT_3D ( 'NONE', #119, #38, #197 ) ;
#201 = APPLICATION_CONTEXT ( 'automotive_design' ) ;
#202 = ORIENTED_EDGE ( 'NONE', *, *, #107, .F. ) ;
#203 = ADVANCED_FACE ( 'NONE', ( #160 ), #57, .T. ) ;
#204 = DIRECTION ( 'NONE',  ( 0.000000000000000000, 0.000000000000000000, 1.000000000000000000 ) ) ;
#205 = PRODUCT_DEFINITION_FORMATION_WITH_SPECIFIED_SOURCE ( 'ANY', '', #146, .NOT_KNOWN. ) ;
#206 =( NAMED_UNIT ( * ) PLANE_ANGLE_UNIT ( ) SI_UNIT ( $, .RADIAN. ) );
#207 = VERTEX_POINT ( 'NONE', #58 ) ;
#208 = PRESENTATION_STYLE_ASSIGNMENT (( #145 ) ) ;
#209 = ORIENTED_EDGE ( 'NONE', *, *, #234, .F. ) ;
#210 =( GEOMETRIC_REPRESENTATION_CONTEXT ( 3 ) GLOBAL_UNCERTAINTY_ASSIGNED_CONTEXT ( ( #213 ) ) GLOBAL_UNIT_ASSIGNED_CONTEXT ( ( #7, #16, #140 ) ) REPRESENTATION_CONTEXT ( 'NONE', 'WORKASPACE' ) );
#211 =( LENGTH_UNIT ( ) NAMED_UNIT ( * ) SI_UNIT ( $, .METRE. ) );
#212 = ORIENTED_EDGE ( 'NONE', *, *, #173, .F. ) ;
#213 = UNCERTAINTY_MEASURE_WITH_UNIT (LENGTH_MEASURE( 1.000000000000000082E-05 ), #7, 'distance_accuracy_value', 'NONE');
#214 = FILL_AREA_STYLE_COLOUR ( '', #28 ) ;
#215 = CARTESIAN_POINT ( 'NONE',  ( 7.654042494670957545E-18, 0.06249999999999979183, -0.06250000000000000000 ) ) ;
#216 = SURFACE_STYLE_FILL_AREA ( #139 ) ;
#217 = LENGTH_MEASURE_WITH_UNIT ( LENGTH_MEASURE( 0.02539999999999999897 ), #258 );
#218 = MECHANICAL_DESIGN_GEOMETRIC_PRESENTATION_REPRESENTATION (  '', ( #147 ), #10 ) ;
#219 = ADVANCED_FACE ( 'NONE', ( #78 ), #50, .T. ) ;
#220 = VECTOR ( 'NONE', #167, 39.37007874015748143 ) ;
#221 = LINE ( 'NONE', #186, #220 ) ;
#222 = COLOUR_RGB ( '',1.000000000000000000, 0.000000000000000000, 0.000000000000000000 ) ;
#223 = APPLICATION_PROTOCOL_DEFINITION ( 'draft international standard', 'automotive_design', 1998, #76 ) ;
#224 = DIRECTION ( 'NONE',  ( -0.000000000000000000, 1.000000000000000000, -0.000000000000000000 ) ) ;
#225 = EDGE_CURVE ( 'NONE', #157, #125, #45, .T. ) ;
#226 = DIRECTION ( 'NONE',  ( -0.000000000000000000, 1.000000000000000000, -0.000000000000000000 ) ) ;
#227 = CARTESIAN_POINT ( 'NONE',  ( 0.000000000000000000, 0.06249999999999967387, 0.000000000000000000 ) ) ;
#228 = SURFACE_STYLE_USAGE ( .BOTH. , #151 ) ;
#229 = SURFACE_STYLE_FILL_AREA ( #254 ) ;
#230 = LINE ( 'NONE', #12, #71 ) ;
#231 = FILL_AREA_STYLE ('',( #214 ) ) ;
#232 = AXIS2_PLACEMENT_3D ( 'NONE', #105, #240, #247 ) ;
#233 =( CONVERSION_BASED_UNIT ( 'INCH', #217 ) LENGTH_UNIT ( ) NAMED_UNIT ( #257 ) );
#234 = EDGE_CURVE ( 'NONE', #88, #62, #123, .T. ) ;
#235 = AXIS2_PLACEMENT_3D ( 'NONE', #185, #27, #204 ) ;
#236 = EDGE_LOOP ( 'NONE', ( #74, #19 ) ) ;
#237 = DIRECTION ( 'NONE',  ( -0.000000000000000000, -1.000000000000000000, -0.000000000000000000 ) ) ;
#238 = CARTESIAN_POINT ( 'NONE',  ( 0.000000000000000000, 0.06249999999999979183, 0.000000000000000000 ) ) ;
#239 = EDGE_LOOP ( 'NONE', ( #212, #168 ) ) ;
#240 = DIRECTION ( 'NONE',  ( -0.000000000000000000, 1.000000000000000000, -0.000000000000000000 ) ) ;
#241 = MECHANICAL_DESIGN_GEOMETRIC_PRESENTATION_REPRESENTATION (  '', ( #196 ), #210 ) ;
#242 = PRODUCT_CONTEXT ( 'NONE', #201, 'mechanical' ) ;
#243 = SURFACE_STYLE_FILL_AREA ( #164 ) ;
#244 = SURFACE_SIDE_STYLE ('',( #243 ) ) ;
#245 = DIRECTION ( 'NONE',  ( 1.000000000000000000, 0.000000000000000000, 0.000000000000000000 ) ) ;
#246 = FILL_AREA_STYLE_COLOUR ( '', #80 ) ;
#247 = DIRECTION ( 'NONE',  ( 0.000000000000000000, 0.000000000000000000, 1.000000000000000000 ) ) ;
#248 = ORIENTED_EDGE ( 'NONE', *, *, #35, .F. ) ;
#249 = CARTESIAN_POINT ( 'NONE',  ( 0.000000000000000000, 0.06249999999999967387, 0.06250000000000001388 ) ) ;
#250 = UNCERTAINTY_MEASURE_WITH_UNIT (LENGTH_MEASURE( 1.000000000000000082E-05 ), #233, 'distance_accuracy_value', 'NONE');
#251 = AXIS2_PLACEMENT_3D ( 'NONE', #101, #226, #129 ) ;
#252 = SURFACE_SIDE_STYLE ('',( #229 ) ) ;
#253 = ORIENTED_EDGE ( 'NONE', *, *, #161, .T. ) ;
#254 = FILL_AREA_STYLE ('',( #89 ) ) ;
#255 = DIRECTION ( 'NONE',  ( -0.000000000000000000, 1.000000000000000000, -0.000000000000000000 ) ) ;
#256 =( NAMED_UNIT ( * ) SI_UNIT ( $, .STERADIAN. ) SOLID_ANGLE_UNIT ( ) );
#257 = DIMENSIONAL_EXPONENTS ( 1.000000000000000000, 0.000000000000000000, 0.000000000000000000, 0.000000000000000000, 0.000000000000000000, 0.000000000000000000, 0.000000000000000000 ) ;
#258 =( LENGTH_UNIT ( ) NAMED_UNIT ( * ) SI_UNIT ( $, .METRE. ) );
#259 = ADVANCED_BREP_SHAPE_REPRESENTATION ( '06015', ( #111, #114, #93 ), #172 ) ;
#260 = EDGE_CURVE ( 'NONE', #62, #88, #103, .T. ) ;
#261 = SURFACE_SIDE_STYLE ('',( #98 ) ) ;
#262 =( NAMED_UNIT ( * ) SI_UNIT ( $, .STERADIAN. ) SOLID_ANGLE_UNIT ( ) );
#263 = CARTESIAN_POINT ( 'NONE',  ( 0.000000000000000000, 0.06249999999999979183, 0.06250000000000000000 ) ) ;
#264 = MECHANICAL_DESIGN_GEOMETRIC_PRESENTATION_REPRESENTATION (  '', ( #177 ), #142 ) ;
#265 = ORIENTED_EDGE ( 'NONE', *, *, #198, .F. ) ;
ENDSEC;
END-ISO-10303-21;
